  0
SECTION
  2
HEADER
  9
$ACADVER
  1
AC1009
  9
$INSBASE
 10
0.0
 20
0.0
 30
0.0
  9
$EXTMIN
 10
318.829805
 20
29.85788
 30
0.0
  9
$EXTMAX
 10
329.371339
 20
44.72551
 30
0.0
  9
$LIMMIN
 10
0.0
 20
0.0
  9
$LIMMAX
 10
410.0
 20
287.0
  9
$ORTHOMODE
 70
     1
  9
$REGENMODE
 70
     1
  9
$FILLMODE
 70
     1
  9
$QTEXTMODE
 70
     0
  9
$MIRRTEXT
 70
     1
  9
$DRAGMODE
 70
     2
  9
$LTSCALE
 40
25.0
  9
$OSMODE
 70
     0
  9
$ATTMODE
 70
     1
  9
$TEXTSIZE
 40
0.1
  9
$TRACEWID
 40
1.0
  9
$TEXTSTYLE
  7
ROMANC
  9
$CLAYER
  8
0
  9
$CELTYPE
  6
BYLAYER
  9
$CECOLOR
 62
   256
  9
$DIMSCALE
 40
1.5
  9
$DIMASZ
 40
0.1
  9
$DIMEXO
 40
0.01
  9
$DIMDLI
 40
7.0
  9
$DIMRND
 40
0.0
  9
$DIMDLE
 40
0.0
  9
$DIMEXE
 40
0.01
  9
$DIMTP
 40
0.0
  9
$DIMTM
 40
0.0
  9
$DIMTXT
 40
0.05
  9
$DIMCEN
 40
0.0
  9
$DIMTSZ
 40
0.0
  9
$DIMTOL
 70
     0
  9
$DIMLIM
 70
     0
  9
$DIMTIH
 70
     0
  9
$DIMTOH
 70
     0
  9
$DIMSE1
 70
     0
  9
$DIMSE2
 70
     0
  9
$DIMTAD
 70
     1
  9
$DIMZIN
 70
     0
  9
$DIMBLK
  1

  9
$DIMASO
 70
     1
  9
$DIMSHO
 70
     0
  9
$DIMPOST
  1

  9
$DIMAPOST
  1

  9
$DIMALT
 70
     0
  9
$DIMALTD
 70
     2
  9
$DIMALTF
 40
25.4
  9
$DIMLFAC
 40
1.0
  9
$DIMTOFL
 70
     1
  9
$DIMTVP
 40
0.0
  9
$DIMTIX
 70
     1
  9
$DIMSOXD
 70
     0
  9
$DIMSAH
 70
     0
  9
$DIMBLK1
  1

  9
$DIMBLK2
  1

  9
$DIMSTYLE
  2
MERITXELL
  9
$DIMCLRD
 70
     0
  9
$DIMCLRE
 70
     0
  9
$DIMCLRT
 70
     0
  9
$DIMTFAC
 40
70.0
  9
$DIMGAP
 40
0.025
  9
$LUNITS
 70
     2
  9
$LUPREC
 70
     2
  9
$SKETCHINC
 40
1.0
  9
$FILLETRAD
 40
0.0
  9
$AUNITS
 70
     0
  9
$AUPREC
 70
     0
  9
$MENU
  1
acad
  9
$ELEVATION
 40
0.0
  9
$PELEVATION
 40
0.0
  9
$THICKNESS
 40
0.0
  9
$LIMCHECK
 70
     0
  9
$BLIPMODE
 70
     0
  9
$CHAMFERA
 40
0.0
  9
$CHAMFERB
 40
0.0
  9
$SKPOLY
 70
     0
  9
$TDCREATE
 40
2450927.46195
  9
$TDUPDATE
 40
2451121.495008
  9
$TDINDWG
 40
0.067849
  9
$TDUSRTIMER
 40
0.067849
  9
$USRTIMER
 70
     1
  9
$ANGBASE
 50
0.0
  9
$ANGDIR
 70
     0
  9
$PDMODE
 70
     0
  9
$PDSIZE
 40
0.0
  9
$PLINEWID
 40
0.0
  9
$COORDS
 70
     2
  9
$SPLFRAME
 70
     0
  9
$SPLINETYPE
 70
     6
  9
$SPLINESEGS
 70
     8
  9
$ATTDIA
 70
     0
  9
$ATTREQ
 70
     1
  9
$HANDLING
 70
     1
  9
$HANDSEED
  5
356
  9
$SURFTAB1
 70
     6
  9
$SURFTAB2
 70
     6
  9
$SURFTYPE
 70
     6
  9
$SURFU
 70
     6
  9
$SURFV
 70
     6
  9
$UCSNAME
  2

  9
$UCSORG
 10
0.0
 20
0.0
 30
0.0
  9
$UCSXDIR
 10
1.0
 20
0.0
 30
0.0
  9
$UCSYDIR
 10
0.0
 20
1.0
 30
0.0
  9
$PUCSNAME
  2

  9
$PUCSORG
 10
0.0
 20
0.0
 30
0.0
  9
$PUCSXDIR
 10
1.0
 20
0.0
 30
0.0
  9
$PUCSYDIR
 10
0.0
 20
1.0
 30
0.0
  9
$USERI1
 70
     0
  9
$USERI2
 70
     0
  9
$USERI3
 70
     0
  9
$USERI4
 70
     0
  9
$USERI5
 70
     0
  9
$USERR1
 40
0.0
  9
$USERR2
 40
0.0
  9
$USERR3
 40
0.0
  9
$USERR4
 40
0.0
  9
$USERR5
 40
0.0
  9
$WORLDVIEW
 70
     1
  9
$SHADEDGE
 70
     3
  9
$SHADEDIF
 70
    70
  9
$TILEMODE
 70
     1
  9
$MAXACTVP
 70
    16
  9
$PLIMCHECK
 70
     0
  9
$PEXTMIN
 10
1.000000E+020
 20
1.000000E+020
 30
1.000000E+020
  9
$PEXTMAX
 10
-1.000000E+020
 20
-1.000000E+020
 30
-1.000000E+020
  9
$PLIMMIN
 10
0.0
 20
0.0
  9
$PLIMMAX
 10
12.0
 20
9.0
  9
$UNITMODE
 70
     0
  9
$VISRETAIN
 70
     0
  9
$PLINEGEN
 70
     0
  9
$PSLTSCALE
 70
     0
  0
ENDSEC
  0
SECTION
  2
TABLES
  0
TABLE
  2
VPORT
 70
     3
  0
VPORT
  2
*ACTIVE
 70
     0
 10
0.0
 20
0.0
 11
1.0
 21
1.0
 12
324.100572
 22
37.291695
 13
0.0
 23
0.0
 14
1.0
 24
1.0
 15
10.0
 25
10.0
 16
0.0
 26
0.0
 36
1.0
 17
0.0
 27
0.0
 37
0.0
 40
15.002178
 41
1.732628
 42
50.0
 43
0.0
 44
0.0
 50
0.0
 51
0.0
 71
     0
 72
   100
 73
     1
 74
     0
 75
     0
 76
     0
 77
     0
 78
     1
  0
ENDTAB
  0
TABLE
  2
LTYPE
 70
     1
  0
LTYPE
  2
CONTINUOUS
 70
     0
  3
Solid line
 72
    65
 73
     0
 40
0.0
  0
ENDTAB
  0
TABLE
  2
LAYER
 70
     2
  0
LAYER
  2
0
 70
     0
 62
     7
  6
CONTINUOUS
  0
LAYER
  2
DEFPOINTS
 70
     0
 62
     7
  6
CONTINUOUS
  0
ENDTAB
  0
TABLE
  2
STYLE
 70
     2
  0
STYLE
  2
STANDARD
 70
     0
 40
0.0
 41
1.0
 50
0.0
 71
     0
 42
0.1
  3
txt
  4

  0
STYLE
  2
ROMANC
 70
     0
 40
0.0
 41
1.0
 50
0.0
 71
     0
 42
0.1
  3
romanc
  4

  0
ENDTAB
  0
TABLE
  2
VIEW
 70
     0
  0
ENDTAB
  0
TABLE
  2
UCS
 70
     0
  0
ENDTAB
  0
TABLE
  2
APPID
 70
     1
  0
APPID
  2
ACAD
 70
     0
  0
ENDTAB
  0
TABLE
  2
DIMSTYLE
 70
     1
  0
DIMSTYLE
  2
MERITXELL
 70
     0
  3

  4

  5

  6

  7

 40
1.5
 41
0.1
 42
0.01
 43
7.0
 44
0.01
 45
0.0
 46
0.0
 47
0.0
 48
0.0
140
0.05
141
0.1
142
0.0
143
25.4
144
1.0
145
0.0
146
70.0
147
0.09
 71
     0
 72
     0
 73
     0
 74
     0
 75
     0
 76
     0
 77
     1
 78
     0
170
     0
171
     2
172
     1
173
     0
174
     1
175
     0
176
     0
177
     0
178
     0
  0
ENDTAB
  0
ENDSEC
  0
SECTION
  2
BLOCKS
  0
BLOCK
  8
0
  2
$MODEL_SPACE
 70
     0
 10
0.0
 20
0.0
 30
0.0
  3
$MODEL_SPACE
  1

  0
ENDBLK
  5
24
  8
0
  0
BLOCK
 67
     1
  8
0
  2
$PAPER_SPACE
 70
     0
 10
0.0
 20
0.0
 30
0.0
  3
$PAPER_SPACE
  1

  0
ENDBLK
  5
22
 67
     1
  8
0
  0
BLOCK
  8
0
  2
*D0
 70
     1
 10
0.0
 20
0.0
 30
0.0
  3
*D0
  1

  0
LINE
  5
2D7
  8
0
  6
BYBLOCK
 62
     0
 10
325.283543
 20
37.435396
 30
0.0
 11
325.915624
 21
37.435396
 31
0.0
  0
LINE
  5
2D8
  8
0
  6
BYBLOCK
 62
     0
 10
325.283543
 20
32.785396
 30
0.0
 11
325.915624
 21
32.785396
 31
0.0
  0
LINE
  5
2D9
  8
0
  6
BYBLOCK
 62
     0
 10
325.900624
 20
37.285396
 30
0.0
 11
325.900624
 21
32.935396
 31
0.0
  0
SOLID
  5
2DA
  8
0
  6
BYBLOCK
 62
     0
 10
325.875624
 20
37.285396
 30
0.0
 11
325.925624
 21
37.285396
 31
0.0
 12
325.900624
 22
37.435396
 32
0.0
 13
325.900624
 23
37.435396
 33
0.0
  0
SOLID
  5
2DB
  8
0
  6
BYBLOCK
 62
     0
 10
325.875624
 20
32.935396
 30
0.0
 11
325.925624
 21
32.935396
 31
0.0
 12
325.900624
 22
32.785396
 32
0.0
 13
325.900624
 23
32.785396
 33
0.0
  0
TEXT
  8
0
  40
0.075
  5
348
  62
0
  72
0
  71
0
 10
325.676
 20
34.9776
 30
0.000000
  1
4.65
  7
ROMANC
  0
POINT
  5
2DD
  8
DEFPOINTS
  6
BYBLOCK
 62
     0
 10
325.268543
 20
37.435396
 30
0.0
  0
POINT
  5
2DE
  8
DEFPOINTS
  6
BYBLOCK
 62
     0
 10
325.268543
 20
32.785396
 30
0.0
  0
POINT
  5
2DF
  8
DEFPOINTS
  6
BYBLOCK
 62
     0
 10
325.900624
 20
32.785396
 30
0.0
  0
ENDBLK
  5
2E0
  8
0
  0
BLOCK
  8
0
  2
*D1
 70
     1
 10
0.0
 20
0.0
 30
0.0
  3
*D1
  1

  0
LINE
  5
264
  8
0
  6
BYBLOCK
 62
     0
 10
322.634597
 20
33.155067
 30
0.0
 11
322.634597
 21
32.554732
 31
0.0
  0
LINE
  5
265
  8
0
  6
BYBLOCK
 62
     0
 10
324.034597
 20
33.155067
 30
0.0
 11
324.034597
 21
32.554732
 31
0.0
  0
LINE
  5
266
  8
0
  6
BYBLOCK
 62
     0
 10
322.784597
 20
32.569732
 30
0.0
 11
323.884597
 21
32.569732
 31
0.0
  0
SOLID
  5
267
  8
0
  6
BYBLOCK
 62
     0
 10
322.784597
 20
32.594732
 30
0.0
 11
322.784597
 21
32.544732
 31
0.0
 12
322.634597
 22
32.569732
 32
0.0
 13
322.634597
 23
32.569732
 33
0.0
  0
SOLID
  5
268
  8
0
  6
BYBLOCK
 62
     0
 10
323.884597
 20
32.594732
 30
0.0
 11
323.884597
 21
32.544732
 31
0.0
 12
324.034597
 22
32.569732
 32
0.0
 13
324.034597
 23
32.569732
 33
0.0
  0
TEXT
  8
0
  40
0.075
  5
349
  62
0
  72
0
  71
0
 10
323.185
 20
32.5120
 30
0.000000
  1
1.40
  7
ROMANC
  0
POINT
  5
26A
  8
DEFPOINTS
  6
BYBLOCK
 62
     0
 10
322.634597
 20
33.170067
 30
0.0
  0
POINT
  5
26B
  8
DEFPOINTS
  6
BYBLOCK
 62
     0
 10
324.034597
 20
33.170067
 30
0.0
  0
POINT
  5
26C
  8
DEFPOINTS
  6
BYBLOCK
 62
     0
 10
324.034597
 20
32.569732
 30
0.0
  0
ENDBLK
  5
26D
  8
0
  0
BLOCK
  8
0
  2
*D2
 70
     1
 10
0.0
 20
0.0
 30
0.0
  3
*D2
  1

  0
LINE
  5
271
  8
0
  6
BYBLOCK
 62
     0
 10
324.034597
 20
33.005067
 30
0.0
 11
324.034597
 21
32.554732
 31
0.0
  0
LINE
  5
272
  8
0
  6
BYBLOCK
 62
     0
 10
324.434597
 20
33.005067
 30
0.0
 11
324.434597
 21
32.554732
 31
0.0
  0
LINE
  5
273
  8
0
  6
BYBLOCK
 62
     0
 10
324.184597
 20
32.569732
 30
0.0
 11
324.284597
 21
32.569732
 31
0.0
  0
SOLID
  5
274
  8
0
  6
BYBLOCK
 62
     0
 10
324.184597
 20
32.594732
 30
0.0
 11
324.184597
 21
32.544732
 31
0.0
 12
324.034597
 22
32.569732
 32
0.0
 13
324.034597
 23
32.569732
 33
0.0
  0
SOLID
  5
275
  8
0
  6
BYBLOCK
 62
     0
 10
324.284597
 20
32.594732
 30
0.0
 11
324.284597
 21
32.544732
 31
0.0
 12
324.434597
 22
32.569732
 32
0.0
 13
324.434597
 23
32.569732
 33
0.0
  0
TEXT
  8
0
  40
0.075
  5
34A
  62
0
  72
0
  71
0
 10
324.085
 20
32.5120
 30
0.000000
  1
0.40
  7
ROMANC
  0
POINT
  5
277
  8
DEFPOINTS
  6
BYBLOCK
 62
     0
 10
324.034597
 20
33.020067
 30
0.0
  0
POINT
  5
278
  8
DEFPOINTS
  6
BYBLOCK
 62
     0
 10
324.434597
 20
33.020067
 30
0.0
  0
POINT
  5
279
  8
DEFPOINTS
  6
BYBLOCK
 62
     0
 10
324.434597
 20
32.569732
 30
0.0
  0
ENDBLK
  5
27A
  8
0
  0
BLOCK
  8
0
  2
*D3
 70
     1
 10
0.0
 20
0.0
 30
0.0
  3
*D3
  1

  0
LINE
  5
27E
  8
0
  6
BYBLOCK
 62
     0
 10
324.434597
 20
33.155067
 30
0.0
 11
324.434597
 21
32.554732
 31
0.0
  0
LINE
  5
27F
  8
0
  6
BYBLOCK
 62
     0
 10
325.834597
 20
33.155067
 30
0.0
 11
325.834597
 21
32.554732
 31
0.0
  0
LINE
  5
280
  8
0
  6
BYBLOCK
 62
     0
 10
324.584597
 20
32.569732
 30
0.0
 11
325.684597
 21
32.569732
 31
0.0
  0
SOLID
  5
281
  8
0
  6
BYBLOCK
 62
     0
 10
324.584597
 20
32.594732
 30
0.0
 11
324.584597
 21
32.544732
 31
0.0
 12
324.434597
 22
32.569732
 32
0.0
 13
324.434597
 23
32.569732
 33
0.0
  0
SOLID
  5
282
  8
0
  6
BYBLOCK
 62
     0
 10
325.684597
 20
32.594732
 30
0.0
 11
325.684597
 21
32.544732
 31
0.0
 12
325.834597
 22
32.569732
 32
0.0
 13
325.834597
 23
32.569732
 33
0.0
  0
TEXT
  8
0
  40
0.075
  5
34B
  62
0
  72
0
  71
0
 10
324.985
 20
32.5120
 30
0.000000
  1
1.40
  7
ROMANC
  0
POINT
  5
284
  8
DEFPOINTS
  6
BYBLOCK
 62
     0
 10
324.434597
 20
33.170067
 30
0.0
  0
POINT
  5
285
  8
DEFPOINTS
  6
BYBLOCK
 62
     0
 10
325.834597
 20
33.170067
 30
0.0
  0
POINT
  5
286
  8
DEFPOINTS
  6
BYBLOCK
 62
     0
 10
325.834597
 20
32.569732
 30
0.0
  0
ENDBLK
  5
287
  8
0
  0
BLOCK
  8
0
  2
*D4
 70
     1
 10
0.0
 20
0.0
 30
0.0
  3
*D4
  1

  0
LINE
  5
2C9
  8
0
  6
BYBLOCK
 62
     0
 10
323.883543
 20
32.635396
 30
0.0
 11
325.915624
 21
32.635396
 31
0.0
  0
LINE
  5
2CA
  8
0
  6
BYBLOCK
 62
     0
 10
323.883543
 20
32.785396
 30
0.0
 11
325.915624
 21
32.785396
 31
0.0
  0
LINE
  5
2CB
  8
0
  6
BYBLOCK
 62
     0
 10
325.900624
 20
32.485396
 30
0.0
 11
325.900624
 21
32.335396
 31
0.0
  0
LINE
  5
2CC
  8
0
  6
BYBLOCK
 62
     0
 10
325.900624
 20
32.935396
 30
0.0
 11
325.900624
 21
33.085396
 31
0.0
  0
TEXT
  8
0
  40
0.075
  5
34C
  62
0
  72
0
  71
0
 10
325.880
 20
32.3363
 30
0.000000
  1
0.15
  7
ROMANC
  0
LINE
  5
2CE
  8
0
  6
BYBLOCK
 62
     0
 10
325.900624
 20
32.635396
 30
0.0
 11
325.900624
 21
32.785396
 31
0.0
  0
LINE
  5
2CF
  8
0
  6
BYBLOCK
 62
     0
 10
325.900624
 20
32.635396
 30
0.0
 11
325.900624
 21
32.785396
 31
0.0
  0
SOLID
  5
2D0
  8
0
  6
BYBLOCK
 62
     0
 10
325.875624
 20
32.485396
 30
0.0
 11
325.925624
 21
32.485396
 31
0.0
 12
325.900624
 22
32.635396
 32
0.0
 13
325.900624
 23
32.635396
 33
0.0
  0
SOLID
  5
2D1
  8
0
  6
BYBLOCK
 62
     0
 10
325.875624
 20
32.935396
 30
0.0
 11
325.925624
 21
32.935396
 31
0.0
 12
325.900624
 22
32.785396
 32
0.0
 13
325.900624
 23
32.785396
 33
0.0
  0
POINT
  5
2D2
  8
DEFPOINTS
  6
BYBLOCK
 62
     0
 10
323.868543
 20
32.635396
 30
0.0
  0
POINT
  5
2D3
  8
DEFPOINTS
  6
BYBLOCK
 62
     0
 10
323.868543
 20
32.785396
 30
0.0
  0
POINT
  5
2D4
  8
DEFPOINTS
  6
BYBLOCK
 62
     0
 10
325.900624
 20
32.785396
 30
0.0
  0
ENDBLK
  5
2D5
  8
0
  0
BLOCK
  8
0
  2
*D5
 70
     1
 10
0.0
 20
0.0
 30
0.0
  3
*D5
  1

  0
LINE
  5
2B0
  8
0
  6
BYBLOCK
 62
     0
 10
322.068543
 20
32.755396
 30
0.0
 11
322.068543
 21
31.793569
 31
0.0
  0
LINE
  5
2B1
  8
0
  6
BYBLOCK
 62
     0
 10
325.268543
 20
32.755396
 30
0.0
 11
325.268543
 21
31.793569
 31
0.0
  0
LINE
  5
2B2
  8
0
  6
BYBLOCK
 62
     0
 10
322.218543
 20
31.808569
 30
0.0
 11
325.118543
 21
31.808569
 31
0.0
  0
SOLID
  5
2B3
  8
0
  6
BYBLOCK
 62
     0
 10
322.218543
 20
31.833569
 30
0.0
 11
322.218543
 21
31.783569
 31
0.0
 12
322.068543
 22
31.808569
 32
0.0
 13
322.068543
 23
31.808569
 33
0.0
  0
SOLID
  5
2B4
  8
0
  6
BYBLOCK
 62
     0
 10
325.118543
 20
31.833569
 30
0.0
 11
325.118543
 21
31.783569
 31
0.0
 12
325.268543
 22
31.808569
 32
0.0
 13
325.268543
 23
31.808569
 33
0.0
  0
TEXT
  8
0
  40
0.075
  5
34D
  62
0
  72
0
  71
0
 10
323.519
 20
31.7508
 30
0.000000
  1
3.20
  7
ROMANC
  0
POINT
  5
2B6
  8
DEFPOINTS
  6
BYBLOCK
 62
     0
 10
322.068543
 20
32.770396
 30
0.0
  0
POINT
  5
2B7
  8
DEFPOINTS
  6
BYBLOCK
 62
     0
 10
325.268543
 20
32.770396
 30
0.0
  0
POINT
  5
2B8
  8
DEFPOINTS
  6
BYBLOCK
 62
     0
 10
325.268543
 20
31.808569
 30
0.0
  0
ENDBLK
  5
2B9
  8
0
  0
BLOCK
  8
0
  2
*D6
 70
     1
 10
0.0
 20
0.0
 30
0.0
  3
*D6
  1

  0
LINE
  5
2E2
  8
0
  6
BYBLOCK
 62
     0
 10
325.298543
 20
37.435396
 30
0.0
 11
326.436393
 21
37.435396
 31
0.0
  0
LINE
  5
2E3
  8
0
  6
BYBLOCK
 62
     0
 10
323.898543
 20
32.635396
 30
0.0
 11
326.436393
 21
32.635396
 31
0.0
  0
LINE
  5
2E4
  8
0
  6
BYBLOCK
 62
     0
 10
326.421393
 20
37.285396
 30
0.0
 11
326.421393
 21
32.785396
 31
0.0
  0
SOLID
  5
2E5
  8
0
  6
BYBLOCK
 62
     0
 10
326.396393
 20
37.285396
 30
0.0
 11
326.446393
 21
37.285396
 31
0.0
 12
326.421393
 22
37.435396
 32
0.0
 13
326.421393
 23
37.435396
 33
0.0
  0
SOLID
  5
2E6
  8
0
  6
BYBLOCK
 62
     0
 10
326.396393
 20
32.785396
 30
0.0
 11
326.446393
 21
32.785396
 31
0.0
 12
326.421393
 22
32.635396
 32
0.0
 13
326.421393
 23
32.635396
 33
0.0
  0
TEXT
  8
0
  40
0.075
  5
34E
  62
0
  72
0
  71
0
 10
326.196
 20
34.9026
 30
0.000000
  1
4.80
  7
ROMANC
  0
POINT
  5
2E8
  8
DEFPOINTS
  6
BYBLOCK
 62
     0
 10
325.283543
 20
37.435396
 30
0.0
  0
POINT
  5
2E9
  8
DEFPOINTS
  6
BYBLOCK
 62
     0
 10
323.883543
 20
32.635396
 30
0.0
  0
POINT
  5
2EA
  8
DEFPOINTS
  6
BYBLOCK
 62
     0
 10
326.421393
 20
32.635396
 30
0.0
  0
ENDBLK
  5
2EB
  8
0
  0
ENDSEC
  0
SECTION
  2
ENTITIES
  0
LINE
  5
27
  8
0
 10
329.348696
 20
29.863623
 30
0.0
 11
329.348696
 21
44.713623
 31
0.0
  0
LINE
  5
28
  8
0
 10
318.848696
 20
44.713623
 30
0.0
 11
318.848696
 21
29.863623
 31
0.0
  0
LINE
  5
29
  8
0
 10
318.848696
 20
29.863623
 30
0.0
 11
329.348696
 21
29.863623
 31
0.0
  0
TEXT
  5
2A
  8
0
 10
321.773149
 20
42.309482
 30
0.0
 40
0.3
  1
TIPUS   NT1494
  7
ROMANC
  0
TEXT
  5
2D
  8
0
 10
321.735227
 20
40.527599
 30
0.0
 40
0.3
  1
P = 160 dm
  7
ROMANC
  0
TEXT
  5
2E
  8
0
 10
321.786243
 20
41.225178
 30
0.0
 40
0.3
  1
S = 1494 dm
  7
ROMANC
  0
TEXT
  5
2F
  8
0
 10
321.773149
 20
41.823768
 30
0.0
 40
0.3
  1
ESCALA  1:50
  7
ROMANC
  0
TEXT
  5
30
  8
0
 10
324.991178
 20
41.531094
 30
0.0
 40
0.1
  1
2
  7
ROMANC
  0
LINE
  5
31
  8
0
 10
329.348696
 20
44.713623
 30
0.0
 11
318.848696
 21
44.713623
 31
0.0
  0
LINE
  5
2ED
  8
0
  6
BYBLOCK
 62
     0
 10
325.298543
 20
37.435396
 30
0.0
 11
326.436393
 21
37.435396
 31
0.0
  0
LINE
  5
2EE
  8
0
  6
BYBLOCK
 62
     0
 10
323.898543
 20
32.635396
 30
0.0
 11
326.436393
 21
32.635396
 31
0.0
  0
LINE
  5
2EF
  8
0
  6
BYBLOCK
 62
     0
 10
326.421393
 20
37.285396
 30
0.0
 11
326.421393
 21
32.785396
 31
0.0
  0
SOLID
  5
2F0
  8
0
  6
BYBLOCK
 62
     0
 10
326.396393
 20
37.285396
 30
0.0
 11
326.446393
 21
37.285396
 31
0.0
 12
326.421393
 22
37.435396
 32
0.0
 13
326.421393
 23
37.435396
 33
0.0
  0
SOLID
  5
2F1
  8
0
  6
BYBLOCK
 62
     0
 10
326.396393
 20
32.785396
 30
0.0
 11
326.446393
 21
32.785396
 31
0.0
 12
326.421393
 22
32.635396
 32
0.0
 13
326.421393
 23
32.635396
 33
0.0
  0
TEXT
  8
0
  40
0.075
  5
34F
  62
0
  72
0
  71
0
 10
326.196
 20
34.9026
 30
0.000000
  1
4.80
  7
ROMANC
  0
POINT
  5
2F3
  8
DEFPOINTS
  6
BYBLOCK
 62
     0
 10
325.283543
 20
37.435396
 30
0.0
  0
POINT
  5
2F4
  8
DEFPOINTS
  6
BYBLOCK
 62
     0
 10
323.883543
 20
32.635396
 30
0.0
  0
POINT
  5
2F5
  8
DEFPOINTS
  6
BYBLOCK
 62
     0
 10
326.421393
 20
32.635396
 30
0.0
  0
LINE
  5
2F6
  8
0
  6
BYBLOCK
 62
     0
 10
322.068543
 20
32.755396
 30
0.0
 11
322.068543
 21
31.793569
 31
0.0
  0
LINE
  5
2F7
  8
0
  6
BYBLOCK
 62
     0
 10
325.268543
 20
32.755396
 30
0.0
 11
325.268543
 21
31.793569
 31
0.0
  0
LINE
  5
2F8
  8
0
  6
BYBLOCK
 62
     0
 10
322.218543
 20
31.808569
 30
0.0
 11
325.118543
 21
31.808569
 31
0.0
  0
SOLID
  5
2F9
  8
0
  6
BYBLOCK
 62
     0
 10
322.218543
 20
31.833569
 30
0.0
 11
322.218543
 21
31.783569
 31
0.0
 12
322.068543
 22
31.808569
 32
0.0
 13
322.068543
 23
31.808569
 33
0.0
  0
SOLID
  5
2FA
  8
0
  6
BYBLOCK
 62
     0
 10
325.118543
 20
31.833569
 30
0.0
 11
325.118543
 21
31.783569
 31
0.0
 12
325.268543
 22
31.808569
 32
0.0
 13
325.268543
 23
31.808569
 33
0.0
  0
TEXT
  8
0
  40
0.075
  5
350
  62
0
  72
0
  71
0
 10
323.519
 20
31.7508
 30
0.000000
  1
3.20
  7
ROMANC
  0
POINT
  5
2FC
  8
DEFPOINTS
  6
BYBLOCK
 62
     0
 10
322.068543
 20
32.770396
 30
0.0
  0
POINT
  5
2FD
  8
DEFPOINTS
  6
BYBLOCK
 62
     0
 10
325.268543
 20
32.770396
 30
0.0
  0
POINT
  5
2FE
  8
DEFPOINTS
  6
BYBLOCK
 62
     0
 10
325.268543
 20
31.808569
 30
0.0
  0
LINE
  5
2FF
  8
0
 10
323.478543
 20
32.795396
 30
0.0
 11
322.078543
 21
32.795396
 31
0.0
  0
LINE
  5
300
  8
0
 10
322.078543
 20
32.795396
 30
0.0
 11
322.078543
 21
37.425396
 31
0.0
  0
LINE
  5
301
  8
0
 10
322.078543
 20
37.425396
 30
0.0
 11
325.258543
 21
37.425396
 31
0.0
  0
LINE
  5
302
  8
0
 10
325.258543
 20
37.425396
 30
0.0
 11
325.258543
 21
32.795396
 31
0.0
  0
LINE
  5
303
  8
0
 10
325.258543
 20
32.795396
 30
0.0
 11
323.858543
 21
32.795396
 31
0.0
  0
LINE
  5
304
  8
0
 10
323.858543
 20
32.795396
 30
0.0
 11
323.858543
 21
32.645396
 31
0.0
  0
LINE
  5
305
  8
0
 10
323.858543
 20
32.645396
 30
0.0
 11
323.478543
 21
32.645396
 31
0.0
  0
LINE
  5
306
  8
0
 10
323.478543
 20
32.645396
 30
0.0
 11
323.478543
 21
32.795396
 31
0.0
  0
LINE
  5
307
  8
0
 10
323.458543
 20
32.775396
 30
0.0
 11
322.058543
 21
32.775396
 31
0.0
  0
LINE
  5
308
  8
0
 10
322.058543
 20
32.775396
 30
0.0
 11
322.058543
 21
37.445396
 31
0.0
  0
LINE
  5
309
  8
0
 10
322.058543
 20
37.445396
 30
0.0
 11
325.278543
 21
37.445396
 31
0.0
  0
LINE
  5
30A
  8
0
 10
325.278543
 20
37.445396
 30
0.0
 11
325.278543
 21
32.775396
 31
0.0
  0
LINE
  5
30B
  8
0
 10
325.278543
 20
32.775396
 30
0.0
 11
323.878543
 21
32.775396
 31
0.0
  0
LINE
  5
30C
  8
0
 10
323.878543
 20
32.775396
 30
0.0
 11
323.878543
 21
32.625396
 31
0.0
  0
LINE
  5
30D
  8
0
 10
323.878543
 20
32.625396
 30
0.0
 11
323.458543
 21
32.625396
 31
0.0
  0
LINE
  5
30E
  8
0
 10
323.458543
 20
32.625396
 30
0.0
 11
323.458543
 21
32.775396
 31
0.0
  0
LINE
  5
30F
  8
0
 10
323.468543
 20
32.785396
 30
0.0
 11
322.068543
 21
32.785396
 31
0.0
  0
LINE
  5
310
  8
0
 10
322.068543
 20
32.785396
 30
0.0
 11
322.068543
 21
37.435396
 31
0.0
  0
LINE
  5
311
  8
0
 10
322.068543
 20
37.435396
 30
0.0
 11
325.268543
 21
37.435396
 31
0.0
  0
LINE
  5
312
  8
0
 10
325.268543
 20
37.435396
 30
0.0
 11
325.268543
 21
32.785396
 31
0.0
  0
LINE
  5
313
  8
0
 10
325.268543
 20
32.785396
 30
0.0
 11
323.868543
 21
32.785396
 31
0.0
  0
LINE
  5
314
  8
0
 10
323.868543
 20
32.785396
 30
0.0
 11
323.868543
 21
32.635396
 31
0.0
  0
LINE
  5
315
  8
0
 10
323.868543
 20
32.635396
 30
0.0
 11
323.468543
 21
32.635396
 31
0.0
  0
LINE
  5
316
  8
0
 10
323.468543
 20
32.635396
 30
0.0
 11
323.468543
 21
32.785396
 31
0.0
  0
LINE
  5
317
  8
0
  6
BYBLOCK
 62
     0
 10
323.883543
 20
32.635396
 30
0.0
 11
325.915624
 21
32.635396
 31
0.0
  0
LINE
  5
318
  8
0
  6
BYBLOCK
 62
     0
 10
323.883543
 20
32.785396
 30
0.0
 11
325.915624
 21
32.785396
 31
0.0
  0
LINE
  5
319
  8
0
  6
BYBLOCK
 62
     0
 10
325.900624
 20
32.485396
 30
0.0
 11
325.900624
 21
32.335396
 31
0.0
  0
LINE
  5
31A
  8
0
  6
BYBLOCK
 62
     0
 10
325.900624
 20
32.935396
 30
0.0
 11
325.900624
 21
33.085396
 31
0.0
  0
TEXT
  8
0
  40
0.075
  5
351
  62
0
  72
0
  71
0
 10
325.880
 20
32.3363
 30
0.000000
  1
0.15
  7
ROMANC
  0
LINE
  5
31C
  8
0
  6
BYBLOCK
 62
     0
 10
325.900624
 20
32.635396
 30
0.0
 11
325.900624
 21
32.785396
 31
0.0
  0
LINE
  5
31D
  8
0
  6
BYBLOCK
 62
     0
 10
325.900624
 20
32.635396
 30
0.0
 11
325.900624
 21
32.785396
 31
0.0
  0
SOLID
  5
31E
  8
0
  6
BYBLOCK
 62
     0
 10
325.875624
 20
32.485396
 30
0.0
 11
325.925624
 21
32.485396
 31
0.0
 12
325.900624
 22
32.635396
 32
0.0
 13
325.900624
 23
32.635396
 33
0.0
  0
SOLID
  5
31F
  8
0
  6
BYBLOCK
 62
     0
 10
325.875624
 20
32.935396
 30
0.0
 11
325.925624
 21
32.935396
 31
0.0
 12
325.900624
 22
32.785396
 32
0.0
 13
325.900624
 23
32.785396
 33
0.0
  0
POINT
  5
320
  8
DEFPOINTS
  6
BYBLOCK
 62
     0
 10
323.868543
 20
32.635396
 30
0.0
  0
POINT
  5
321
  8
DEFPOINTS
  6
BYBLOCK
 62
     0
 10
323.868543
 20
32.785396
 30
0.0
  0
POINT
  5
322
  8
DEFPOINTS
  6
BYBLOCK
 62
     0
 10
325.900624
 20
32.785396
 30
0.0
  0
LINE
  5
323
  8
0
  6
BYBLOCK
 62
     0
 10
323.868543
 20
32.770396
 30
0.0
 11
323.868543
 21
32.17006
 31
0.0
  0
LINE
  5
324
  8
0
  6
BYBLOCK
 62
     0
 10
325.268543
 20
32.770396
 30
0.0
 11
325.268543
 21
32.17006
 31
0.0
  0
LINE
  5
325
  8
0
  6
BYBLOCK
 62
     0
 10
324.018543
 20
32.18506
 30
0.0
 11
325.118543
 21
32.18506
 31
0.0
  0
SOLID
  5
326
  8
0
  6
BYBLOCK
 62
     0
 10
324.018543
 20
32.21006
 30
0.0
 11
324.018543
 21
32.16006
 31
0.0
 12
323.868543
 22
32.18506
 32
0.0
 13
323.868543
 23
32.18506
 33
0.0
  0
SOLID
  5
327
  8
0
  6
BYBLOCK
 62
     0
 10
325.118543
 20
32.21006
 30
0.0
 11
325.118543
 21
32.16006
 31
0.0
 12
325.268543
 22
32.18506
 32
0.0
 13
325.268543
 23
32.18506
 33
0.0
  0
TEXT
  8
0
  40
0.075
  5
352
  62
0
  72
0
  71
0
 10
324.419
 20
32.1273
 30
0.000000
  1
1.40
  7
ROMANC
  0
POINT
  5
329
  8
DEFPOINTS
  6
BYBLOCK
 62
     0
 10
323.868543
 20
32.785396
 30
0.0
  0
POINT
  5
32A
  8
DEFPOINTS
  6
BYBLOCK
 62
     0
 10
325.268543
 20
32.785396
 30
0.0
  0
POINT
  5
32B
  8
DEFPOINTS
  6
BYBLOCK
 62
     0
 10
325.268543
 20
32.18506
 30
0.0
  0
LINE
  5
32C
  8
0
  6
BYBLOCK
 62
     0
 10
323.468543
 20
32.620396
 30
0.0
 11
323.468543
 21
32.17006
 31
0.0
  0
LINE
  5
32D
  8
0
  6
BYBLOCK
 62
     0
 10
323.868543
 20
32.620396
 30
0.0
 11
323.868543
 21
32.17006
 31
0.0
  0
LINE
  5
32E
  8
0
  6
BYBLOCK
 62
     0
 10
323.618543
 20
32.18506
 30
0.0
 11
323.718543
 21
32.18506
 31
0.0
  0
SOLID
  5
32F
  8
0
  6
BYBLOCK
 62
     0
 10
323.618543
 20
32.21006
 30
0.0
 11
323.618543
 21
32.16006
 31
0.0
 12
323.468543
 22
32.18506
 32
0.0
 13
323.468543
 23
32.18506
 33
0.0
  0
SOLID
  5
330
  8
0
  6
BYBLOCK
 62
     0
 10
323.718543
 20
32.21006
 30
0.0
 11
323.718543
 21
32.16006
 31
0.0
 12
323.868543
 22
32.18506
 32
0.0
 13
323.868543
 23
32.18506
 33
0.0
  0
TEXT
  8
0
  40
0.075
  5
353
  62
0
  72
0
  71
0
 10
323.519
 20
32.1273
 30
0.000000
  1
0.40
  7
ROMANC
  0
POINT
  5
332
  8
DEFPOINTS
  6
BYBLOCK
 62
     0
 10
323.468543
 20
32.635396
 30
0.0
  0
POINT
  5
333
  8
DEFPOINTS
  6
BYBLOCK
 62
     0
 10
323.868543
 20
32.635396
 30
0.0
  0
POINT
  5
334
  8
DEFPOINTS
  6
BYBLOCK
 62
     0
 10
323.868543
 20
32.18506
 30
0.0
  0
LINE
  5
335
  8
0
  6
BYBLOCK
 62
     0
 10
322.068543
 20
32.770396
 30
0.0
 11
322.068543
 21
32.17006
 31
0.0
  0
LINE
  5
336
  8
0
  6
BYBLOCK
 62
     0
 10
323.468543
 20
32.770396
 30
0.0
 11
323.468543
 21
32.17006
 31
0.0
  0
LINE
  5
337
  8
0
  6
BYBLOCK
 62
     0
 10
322.218543
 20
32.18506
 30
0.0
 11
323.318543
 21
32.18506
 31
0.0
  0
SOLID
  5
338
  8
0
  6
BYBLOCK
 62
     0
 10
322.218543
 20
32.21006
 30
0.0
 11
322.218543
 21
32.16006
 31
0.0
 12
322.068543
 22
32.18506
 32
0.0
 13
322.068543
 23
32.18506
 33
0.0
  0
SOLID
  5
339
  8
0
  6
BYBLOCK
 62
     0
 10
323.318543
 20
32.21006
 30
0.0
 11
323.318543
 21
32.16006
 31
0.0
 12
323.468543
 22
32.18506
 32
0.0
 13
323.468543
 23
32.18506
 33
0.0
  0
TEXT
  8
0
  40
0.075
  5
354
  62
0
  72
0
  71
0
 10
322.619
 20
32.1273
 30
0.000000
  1
1.40
  7
ROMANC
  0
POINT
  5
33B
  8
DEFPOINTS
  6
BYBLOCK
 62
     0
 10
322.068543
 20
32.785396
 30
0.0
  0
POINT
  5
33C
  8
DEFPOINTS
  6
BYBLOCK
 62
     0
 10
323.468543
 20
32.785396
 30
0.0
  0
POINT
  5
33D
  8
DEFPOINTS
  6
BYBLOCK
 62
     0
 10
323.468543
 20
32.18506
 30
0.0
  0
LINE
  5
33E
  8
0
  6
BYBLOCK
 62
     0
 10
325.283543
 20
37.435396
 30
0.0
 11
325.915624
 21
37.435396
 31
0.0
  0
LINE
  5
33F
  8
0
  6
BYBLOCK
 62
     0
 10
325.283543
 20
32.785396
 30
0.0
 11
325.915624
 21
32.785396
 31
0.0
  0
LINE
  5
340
  8
0
  6
BYBLOCK
 62
     0
 10
325.900624
 20
37.285396
 30
0.0
 11
325.900624
 21
32.935396
 31
0.0
  0
SOLID
  5
341
  8
0
  6
BYBLOCK
 62
     0
 10
325.875624
 20
37.285396
 30
0.0
 11
325.925624
 21
37.285396
 31
0.0
 12
325.900624
 22
37.435396
 32
0.0
 13
325.900624
 23
37.435396
 33
0.0
  0
SOLID
  5
342
  8
0
  6
BYBLOCK
 62
     0
 10
325.875624
 20
32.935396
 30
0.0
 11
325.925624
 21
32.935396
 31
0.0
 12
325.900624
 22
32.785396
 32
0.0
 13
325.900624
 23
32.785396
 33
0.0
  0
TEXT
  8
0
  40
0.075
  5
355
  62
0
  72
0
  71
0
 10
325.676
 20
34.9776
 30
0.000000
  1
4.65
  7
ROMANC
  0
POINT
  5
344
  8
DEFPOINTS
  6
BYBLOCK
 62
     0
 10
325.268543
 20
37.435396
 30
0.0
  0
POINT
  5
345
  8
DEFPOINTS
  6
BYBLOCK
 62
     0
 10
325.268543
 20
32.785396
 30
0.0
  0
POINT
  5
346
  8
DEFPOINTS
  6
BYBLOCK
 62
     0
 10
325.900624
 20
32.785396
 30
0.0
  0
ENDSEC
  0
EOF
