  0
SECTION
  2
HEADER
  9
$ACADVER
  1
AC1009
  9
$INSBASE
 10
0.0
 20
0.0
 30
0.0
  9
$EXTMIN
 10
281.396000
 20
29.897000
 30
-2147483.648000
  9
$EXTMAX
 10
291.896000
 20
44.747000
 30
0.000000
  9
$LIMMIN
 10
280.396000
 20
28.897000
  9
$LIMMAX
 10
292.896000
 20
43.747000
  9
$ORTHOMODE
 70
     0
  9
$REGENMODE
 70
     1
  9
$FILLMODE
 70
     1
  9
$QTEXTMODE
 70
     0
  9
$MIRRTEXT
 70
     1
  9
$DRAGMODE
 70
     2
  9
$LTSCALE
 40
1.0
  9
$OSMODE
 70
     0
  9
$ATTMODE
 70
     1
  9
$TEXTSIZE
 40
0.2
  9
$TRACEWID
 40
0.05
  9
$TEXTSTYLE
  7
STANDARD
  9
$CLAYER
  8
0
  9
$CELTYPE
  6
BYLAYER
  9
$CECOLOR
 62
   256
  9
$DIMSCALE
 40
1.0
  9
$DIMASZ
 40
0.18
  9
$DIMEXO
 40
0.0625
  9
$DIMDLI
 40
0.38
  9
$DIMRND
 40
0.0
  9
$DIMDLE
 40
0.0
  9
$DIMEXE
 40
0.18
  9
$DIMTP
 40
0.0
  9
$DIMTM
 40
0.0
  9
$DIMTXT
 40
0.18
  9
$DIMCEN
 40
0.09
  9
$DIMTSZ
 40
0.0
  9
$DIMTOL
 70
     0
  9
$DIMLIM
 70
     0
  9
$DIMTIH
 70
     1
  9
$DIMTOH
 70
     1
  9
$DIMSE1
 70
     0
  9
$DIMSE2
 70
     0
  9
$DIMTAD
 70
     0
  9
$DIMZIN
 70
     0
  9
$DIMBLK
  1

  9
$DIMASO
 70
     1
  9
$DIMSHO
 70
     1
  9
$DIMPOST
  1

  9
$DIMAPOST
  1

  9
$DIMALT
 70
     0
  9
$DIMALTD
 70
     2
  9
$DIMALTF
 40
25.4
  9
$DIMLFAC
 40
1.0
  9
$DIMTOFL
 70
     0
  9
$DIMTVP
 40
0.0
  9
$DIMTIX
 70
     0
  9
$DIMSOXD
 70
     0
  9
$DIMSAH
 70
     0
  9
$DIMBLK1
  1

  9
$DIMBLK2
  1

  9
$DIMSTYLE
  2
*UNNAMED
  9
$DIMCLRD
 70
     0
  9
$DIMCLRE
 70
     0
  9
$DIMCLRT
 70
     0
  9
$DIMTFAC
 40
1.0
  9
$DIMGAP
 40
0.09
  9
$LUNITS
 70
     2
  9
$LUPREC
 70
     4
  9
$AXISMODE
 70
     0
  9
$AXISUNIT
 10
0.0
 20
0.0
  9
$SKETCHINC
 40
0.1
  9
$FILLETRAD
 40
0.0
  9
$AUNITS
 70
     0
  9
$AUPREC
 70
     0
  9
$MENU
  1
acad
  9
$ELEVATION
 40
0.0
  9
$PELEVATION
 40
0.0
  9
$THICKNESS
 40
0.0
  9
$LIMCHECK
 70
     0
  9
$BLIPMODE
 70
     1
  9
$CHAMFERA
 40
0.0
  9
$CHAMFERB
 40
0.0
  9
$SKPOLY
 70
     0
  9
$TDCREATE
 40
2448315.373408102
  9
$TDUPDATE
 40
2448315.373408102
  9
$TDINDWG
 40
0.0000000000
  9
$TDUSRTIMER
 40
0.0000000000
  9
$USRTIMER
 70
     1
  9
$ANGBASE
 50
0.0
  9
$ANGDIR
 70
     0
  9
$PDMODE
 70
     0
  9
$PDSIZE
 40
0.0
  9
$PLINEWID
 40
0.0
  9
$COORDS
 70
     0
  9
$SPLFRAME
 70
     0
  9
$SPLINETYPE
 70
     6
  9
$SPLINESEGS
 70
     8
  9
$ATTDIA
 70
     0
  9
$ATTREQ
 70
     1
  9
$HANDLING
 70
     0
  9
$HANDSEED
  5
0
  9
$SURFTAB1
 70
     6
  9
$SURFTAB2
 70
     6
  9
$SURFTYPE
 70
     6
  9
$SURFU
 70
     6
  9
$SURFV
 70
     6
  9
$UCSNAME
  2

  9
$UCSORG
 10
0.0
 20
0.0
 30
0.0
  9
$UCSXDIR
 10
1.0
 20
0.0
 30
0.0
  9
$UCSYDIR
 10
0.0
 20
1.0
 30
0.0
  9
$PUCSNAME
  2

  9
$PUCSORG
 10
0.0
 20
0.0
 30
0.0
  9
$PUCSXDIR
 10
1.0
 20
0.0
 30
0.0
  9
$PUCSYDIR
 10
0.0
 20
1.0
 30
0.0
  9
$USERI1
 70
     0
  9
$USERI2
 70
     0
  9
$USERI3
 70
     0
  9
$USERI4
 70
     0
  9
$USERI5
 70
     0
  9
$USERR1
 40
0.0
  9
$USERR2
 40
0.0
  9
$USERR3
 40
0.0
  9
$USERR4
 40
0.0
  9
$USERR5
 40
0.0
  9
$WORLDVIEW
 70
     1
  9
$SHADEDGE
 70
     3
  9
$SHADEDIF
 70
    70
  9
$TILEMODE
 70
     1
  9
$MAXACTVP
 70
    16
  9
$PINSBASE
 10
0.0
 20
0.0
 30
0.0
  9
$PLIMCHECK
 70
     0
  9
$PEXTMIN
 10
1.000000E+20
 20
1.000000E+20
 30
1.000000E+20
  9
$PEXTMAX
 10
-1.000000E+20
 20
-1.000000E+20
 30
-1.000000E+20
  9
$PLIMMIN
 10
0.0
 20
0.0
  9
$PLIMMAX
 10
12.0
 20
9.0
  9
$UNITMODE
 70
     0
  9
$VISRETAIN
 70
     0
  0
ENDSEC
  0
SECTION
  2
TABLES
  0
TABLE
  2
LTYPE
 70
    1
  0
LTYPE
  2
CONTINUOUS
 70
    64
3
Solid line
 72
    65
 73
0
 40
0.000000
  0
ENDTAB
  0
TABLE
  2
LAYER
 70
    8
  0
LAYER
  2
0
 70
    64
 62
7
  6
CONTINUOUS
  0
LAYER
  2
1
 70
    64
 62
7
  6
CONTINUOUS
  0
LAYER
  2
7
 70
    64
 62
7
  6
CONTINUOUS
  0
LAYER
  2
8
 70
    64
 62
7
  6
CONTINUOUS
  0
LAYER
  2
9
 70
    64
 62
7
  6
CONTINUOUS
  0
LAYER
  2
22
 70
    64
 62
7
  6
CONTINUOUS
  0
LAYER
  2
25
 70
    64
 62
7
  6
CONTINUOUS
  0
LAYER
  2
0
 70
    64
 62
7
  6
CONTINUOUS
  0
ENDTAB
  0
TABLE
  2
STYLE
 70
    1
  0
STYLE
  2
ROMANC
70
     0
 40
0.0
 41
1.0
 50
0.0
 71
     0
 42
0.2
  3
ROMANC
  4

  0
ENDTAB
  0
ENDSEC
  0
SECTION
  2
BLOCKS
  0
ENDSEC
  0
SECTION
  2
ENTITIES
  0
TEXT
  8
0
  6
CONTINUOUS
 40
0.100000
 10
286.909000
 20
41.324000
  1
2
  7
ROMANC
  0
TEXT
  8
0
  6
CONTINUOUS
 40
0.300000
 10
283.926000
 20
41.768000
  1
ESCALA  1:50
  7
ROMANC
  0
POLYLINE
  8
0
  6
CONTINUOUS
 66
     1
 70
     1
  0
VERTEX
  8
0
  6
CONTINUOUS
 10
281.396000
 20
44.747000
  0
VERTEX
  8
0
  6
CONTINUOUS
 10
291.896000
 20
44.747000
  0
VERTEX
  8
0
  6
CONTINUOUS
 10
291.896000
 20
29.897000
  0
VERTEX
  8
0
  6
CONTINUOUS
 10
281.396000
 20
29.897000
  0
SEQEND
  8
0
  0
ARC
  8
1
  6
CONTINUOUS
 10
286.536000
 20
34.464000
 40
0.525000
 50
360.000000
 51
540.000000
  0
POLYLINE
  8
1
  6
CONTINUOUS
 66
     1
 70
     0
  0
VERTEX
  8
1
  6
CONTINUOUS
 10
286.011000
 20
34.464000
 42
0.013439
  0
VERTEX
  8
1
  6
CONTINUOUS
 10
286.015414
 20
34.298754
 42
0.014029
  0
VERTEX
  8
1
  6
CONTINUOUS
 10
286.028889
 20
34.134006
 42
0.014420
  0
VERTEX
  8
1
  6
CONTINUOUS
 10
286.050370
 20
33.979431
 42
0.016453
  0
VERTEX
  8
1
  6
CONTINUOUS
 10
286.081337
 20
33.826500
 42
0.017408
  0
VERTEX
  8
1
  6
CONTINUOUS
 10
286.117879
 20
33.692801
 42
0.021884
  0
VERTEX
  8
1
  6
CONTINUOUS
 10
286.164769
 20
33.562439
 42
0.023900
  0
VERTEX
  8
1
  6
CONTINUOUS
 10
286.213389
 20
33.457951
 42
0.033305
  0
VERTEX
  8
1
  6
CONTINUOUS
 10
286.273500
 20
33.359818
 42
0.037667
  0
VERTEX
  8
1
  6
CONTINUOUS
 10
286.331029
 20
33.290098
 42
0.055825
  0
VERTEX
  8
1
  6
CONTINUOUS
 10
286.400120
 20
33.232445
 42
0.064060
  0
VERTEX
  8
1
  6
CONTINUOUS
 10
286.465174
 20
33.200996
 42
0.079708
  0
VERTEX
  8
1
  6
CONTINUOUS
 10
286.536000
 20
33.189000
 42
0.079708
  0
VERTEX
  8
1
  6
CONTINUOUS
 10
286.606826
 20
33.200996
 42
0.064060
  0
VERTEX
  8
1
  6
CONTINUOUS
 10
286.671880
 20
33.232445
 42
0.055825
  0
VERTEX
  8
1
  6
CONTINUOUS
 10
286.740971
 20
33.290098
 42
0.037667
  0
VERTEX
  8
1
  6
CONTINUOUS
 10
286.798500
 20
33.359818
 42
0.033305
  0
VERTEX
  8
1
  6
CONTINUOUS
 10
286.858611
 20
33.457951
 42
0.023900
  0
VERTEX
  8
1
  6
CONTINUOUS
 10
286.907231
 20
33.562439
 42
0.021884
  0
VERTEX
  8
1
  6
CONTINUOUS
 10
286.954121
 20
33.692801
 42
0.017408
  0
VERTEX
  8
1
  6
CONTINUOUS
 10
286.990663
 20
33.826500
 42
0.016453
  0
VERTEX
  8
1
  6
CONTINUOUS
 10
287.021630
 20
33.979431
 42
0.014420
  0
VERTEX
  8
1
  6
CONTINUOUS
 10
287.043111
 20
34.134006
 42
0.014029
  0
VERTEX
  8
1
  6
CONTINUOUS
 10
287.056586
 20
34.298754
 42
0.013439
  0
VERTEX
  8
1
  6
CONTINUOUS
 10
287.061000
 20
34.464000
  0
SEQEND
  8
0
  0
TEXT
  8
0
  6
CONTINUOUS
 40
0.300000
 10
283.922000
 20
40.529000
  1
P = 46 dm
  7
ROMANC
  0
TEXT
  8
0
  6
CONTINUOUS
 40
0.300000
 10
283.945000
 20
41.099000
  1
S = 148 dm
  7
ROMANC
  0
TEXT
  8
0
  6
CONTINUOUS
 40
0.300000
 10
283.926000
 20
42.381000
  1
TIPUS   NT148C
  7
ROMANC
  0
TEXT
  8
1
  6
CONTINUOUS
 40
0.075000
 10
286.426000
 20
35.146000
  1
1.05
  7
ROMANC
  0
LINE
  8
1
  6
CONTINUOUS
 10
286.388000
 20
35.184000
 11
286.011000
 21
35.184000
  0
LINE
  8
1
  6
CONTINUOUS
 10
286.683000
 20
35.184000
 11
287.061000
 21
35.184000
  0
LINE
  8
1
  6
CONTINUOUS
 10
285.974000
 20
35.165000
 11
286.048000
 21
35.203000
  0
LINE
  8
1
  6
CONTINUOUS
 10
287.098000
 20
35.203000
 11
287.024000
 21
35.165000
  0
LINE
  8
1
  6
CONTINUOUS
 10
286.011000
 20
34.502000
 11
286.011000
 21
35.222000
  0
LINE
  8
1
  6
CONTINUOUS
 10
287.061000
 20
34.502000
 11
287.061000
 21
35.222000
  0
TEXT
  8
1
  6
CONTINUOUS
 40
0.075000
 10
287.382000
 20
33.979000
  1
1.80
 50
90.000000
  7
ROMANC
  0
LINE
  8
1
  6
CONTINUOUS
 10
287.344000
 20
33.941000
 11
287.344000
 21
33.189000
  0
LINE
  8
1
  6
CONTINUOUS
 10
287.344000
 20
34.236000
 11
287.344000
 21
34.989000
  0
LINE
  8
1
  6
CONTINUOUS
 10
287.363000
 20
33.152000
 11
287.325000
 21
33.226000
  0
LINE
  8
1
  6
CONTINUOUS
 10
287.325000
 20
35.026000
 11
287.363000
 21
34.952000
  0
LINE
  8
1
  6
CONTINUOUS
 10
286.574000
 20
33.189000
 11
287.382000
 21
33.189000
  0
LINE
  8
1
  6
CONTINUOUS
 10
286.574000
 20
34.989000
 11
287.382000
 21
34.989000
  0
ARC
  8
1
  6
CONTINUOUS
 10
286.536000
 20
34.464000
 40
0.535000
 50
360.000000
 51
540.000000
  0
ARC
  8
1
  6
CONTINUOUS
 10
286.536000
 20
34.464000
 40
0.545000
 50
360.000000
 51
540.000000
  0
POLYLINE
  8
1
  6
CONTINUOUS
 66
     1
 70
     0
  0
VERTEX
  8
1
  6
CONTINUOUS
 10
286.001000
 20
34.464000
 42
0.013589
  0
VERTEX
  8
1
  6
CONTINUOUS
 10
286.005499
 20
34.297452
 42
0.014183
  0
VERTEX
  8
1
  6
CONTINUOUS
 10
286.019230
 20
34.131418
 42
0.014576
  0
VERTEX
  8
1
  6
CONTINUOUS
 10
286.041124
 20
33.975612
 42
0.016619
  0
VERTEX
  8
1
  6
CONTINUOUS
 10
286.072676
 20
33.821500
 42
0.017579
  0
VERTEX
  8
1
  6
CONTINUOUS
 10
286.109926
 20
33.686718
 42
0.022065
  0
VERTEX
  8
1
  6
CONTINUOUS
 10
286.157698
 20
33.555368
 42
0.024084
  0
VERTEX
  8
1
  6
CONTINUOUS
 10
286.207275
 20
33.450008
 42
0.033452
  0
VERTEX
  8
1
  6
CONTINUOUS
 10
286.268500
 20
33.351157
 42
0.037788
  0
VERTEX
  8
1
  6
CONTINUOUS
 10
286.327192
 20
33.280830
 42
0.055655
  0
VERTEX
  8
1
  6
CONTINUOUS
 10
286.397532
 20
33.222785
 42
0.063684
  0
VERTEX
  8
1
  6
CONTINUOUS
 10
286.463878
 20
33.191068
 42
0.078834
  0
VERTEX
  8
1
  6
CONTINUOUS
 10
286.536000
 20
33.179000
 42
0.078834
  0
VERTEX
  8
1
  6
CONTINUOUS
 10
286.608122
 20
33.191068
 42
0.063684
  0
VERTEX
  8
1
  6
CONTINUOUS
 10
286.674468
 20
33.222785
 42
0.055655
  0
VERTEX
  8
1
  6
CONTINUOUS
 10
286.744808
 20
33.280830
 42
0.037788
  0
VERTEX
  8
1
  6
CONTINUOUS
 10
286.803500
 20
33.351157
 42
0.033452
  0
VERTEX
  8
1
  6
CONTINUOUS
 10
286.864725
 20
33.450008
 42
0.024084
  0
VERTEX
  8
1
  6
CONTINUOUS
 10
286.914302
 20
33.555368
 42
0.022065
  0
VERTEX
  8
1
  6
CONTINUOUS
 10
286.962074
 20
33.686718
 42
0.017579
  0
VERTEX
  8
1
  6
CONTINUOUS
 10
286.999324
 20
33.821500
 42
0.016619
  0
VERTEX
  8
1
  6
CONTINUOUS
 10
287.030876
 20
33.975612
 42
0.014576
  0
VERTEX
  8
1
  6
CONTINUOUS
 10
287.052770
 20
34.131418
 42
0.014183
  0
VERTEX
  8
1
  6
CONTINUOUS
 10
287.066501
 20
34.297452
 42
0.013589
  0
VERTEX
  8
1
  6
CONTINUOUS
 10
287.071000
 20
34.464000
  0
SEQEND
  8
0
  0
POLYLINE
  8
1
  6
CONTINUOUS
 66
     1
 70
     0
  0
VERTEX
  8
1
  6
CONTINUOUS
 10
285.991000
 20
34.464000
 42
0.013736
  0
VERTEX
  8
1
  6
CONTINUOUS
 10
285.995583
 20
34.296150
 42
0.014333
  0
VERTEX
  8
1
  6
CONTINUOUS
 10
286.009570
 20
34.128829
 42
0.014729
  0
VERTEX
  8
1
  6
CONTINUOUS
 10
286.031877
 20
33.971794
 42
0.016782
  0
VERTEX
  8
1
  6
CONTINUOUS
 10
286.064016
 20
33.816500
 42
0.017747
  0
VERTEX
  8
1
  6
CONTINUOUS
 10
286.101974
 20
33.680636
 42
0.022241
  0
VERTEX
  8
1
  6
CONTINUOUS
 10
286.150627
 20
33.548297
 42
0.024263
  0
VERTEX
  8
1
  6
CONTINUOUS
 10
286.201162
 20
33.442064
 42
0.033593
  0
VERTEX
  8
1
  6
CONTINUOUS
 10
286.263500
 20
33.342497
 42
0.037901
  0
VERTEX
  8
1
  6
CONTINUOUS
 10
286.323355
 20
33.271563
 42
0.055484
  0
VERTEX
  8
1
  6
CONTINUOUS
 10
286.394944
 20
33.213126
 42
0.063314
  0
VERTEX
  8
1
  6
CONTINUOUS
 10
286.462581
 20
33.181141
 42
0.077991
  0
VERTEX
  8
1
  6
CONTINUOUS
 10
286.536000
 20
33.169000
 42
0.077991
  0
VERTEX
  8
1
  6
CONTINUOUS
 10
286.609419
 20
33.181141
 42
0.063314
  0
VERTEX
  8
1
  6
CONTINUOUS
 10
286.677056
 20
33.213126
 42
0.055484
  0
VERTEX
  8
1
  6
CONTINUOUS
 10
286.748645
 20
33.271563
 42
0.037901
  0
VERTEX
  8
1
  6
CONTINUOUS
 10
286.808500
 20
33.342497
 42
0.033593
  0
VERTEX
  8
1
  6
CONTINUOUS
 10
286.870838
 20
33.442064
 42
0.024263
  0
VERTEX
  8
1
  6
CONTINUOUS
 10
286.921373
 20
33.548297
 42
0.022241
  0
VERTEX
  8
1
  6
CONTINUOUS
 10
286.970026
 20
33.680636
 42
0.017747
  0
VERTEX
  8
1
  6
CONTINUOUS
 10
287.007984
 20
33.816500
 42
0.016782
  0
VERTEX
  8
1
  6
CONTINUOUS
 10
287.040123
 20
33.971794
 42
0.014729
  0
VERTEX
  8
1
  6
CONTINUOUS
 10
287.062430
 20
34.128829
 42
0.014333
  0
VERTEX
  8
1
  6
CONTINUOUS
 10
287.076417
 20
34.296150
 42
0.013736
  0
VERTEX
  8
1
  6
CONTINUOUS
 10
287.081000
 20
34.464000
  0
SEQEND
  8
0
  0
ENDSEC
  0
EOF
