  0
SECTION
  2
HEADER
  9
$ACADVER
  1
AC1009
  9
$INSBASE
 10
117.211933
 20
65.044335
 30
0.0
  9
$EXTMIN
 10
22.591444
 20
-21.448265
 30
0.0
  9
$EXTMAX
 10
228.671302
 20
98.615031
 30
0.0
  9
$LIMMIN
 10
0.0
 20
0.0
  9
$LIMMAX
 10
410.0
 20
287.0
  9
$ORTHOMODE
 70
     0
  9
$REGENMODE
 70
     1
  9
$FILLMODE
 70
     1
  9
$QTEXTMODE
 70
     0
  9
$MIRRTEXT
 70
     1
  9
$DRAGMODE
 70
     2
  9
$LTSCALE
 40
25.0
  9
$OSMODE
 70
    32
  9
$ATTMODE
 70
     1
  9
$TEXTSIZE
 40
0.1
  9
$TRACEWID
 40
1.0
  9
$TEXTSTYLE
  7
ROMANC
  9
$CLAYER
  8
0
  9
$CELTYPE
  6
BYLAYER
  9
$CECOLOR
 62
   256
  9
$DIMSCALE
 40
0.0
  9
$DIMASZ
 40
0.0
  9
$DIMEXO
 40
0.1
  9
$DIMDLI
 40
7.0
  9
$DIMRND
 40
0.0
  9
$DIMDLE
 40
0.0
  9
$DIMEXE
 40
1.8
  9
$DIMTP
 40
0.0
  9
$DIMTM
 40
0.0
  9
$DIMTXT
 40
0.03
  9
$DIMCEN
 40
1.5
  9
$DIMTSZ
 40
1.0
  9
$DIMTOL
 70
     0
  9
$DIMLIM
 70
     0
  9
$DIMTIH
 70
     0
  9
$DIMTOH
 70
     0
  9
$DIMSE1
 70
     0
  9
$DIMSE2
 70
     0
  9
$DIMTAD
 70
     0
  9
$DIMZIN
 70
     0
  9
$DIMBLK
  1

  9
$DIMASO
 70
     1
  9
$DIMSHO
 70
     0
  9
$DIMPOST
  1

  9
$DIMAPOST
  1

  9
$DIMALT
 70
     0
  9
$DIMALTD
 70
     2
  9
$DIMALTF
 40
25.4
  9
$DIMLFAC
 40
1.0
  9
$DIMTOFL
 70
     1
  9
$DIMTVP
 40
0.0
  9
$DIMTIX
 70
     1
  9
$DIMSOXD
 70
     0
  9
$DIMSAH
 70
     0
  9
$DIMBLK1
  1

  9
$DIMBLK2
  1

  9
$DIMSTYLE
  2
*UNNAMED
  9
$DIMCLRD
 70
     0
  9
$DIMCLRE
 70
     0
  9
$DIMCLRT
 70
     0
  9
$DIMTFAC
 40
116.666667
  9
$DIMGAP
 40
0.09
  9
$LUNITS
 70
     2
  9
$LUPREC
 70
     2
  9
$SKETCHINC
 40
1.0
  9
$FILLETRAD
 40
0.0
  9
$AUNITS
 70
     0
  9
$AUPREC
 70
     0
  9
$MENU
  1
acad
  9
$ELEVATION
 40
0.0
  9
$PELEVATION
 40
0.0
  9
$THICKNESS
 40
0.0
  9
$LIMCHECK
 70
     0
  9
$BLIPMODE
 70
     0
  9
$CHAMFERA
 40
0.0
  9
$CHAMFERB
 40
0.0
  9
$SKPOLY
 70
     0
  9
$TDCREATE
 40
2449965.449142939
  9
$TDUPDATE
 40
2450207.425076273
  9
$TDINDWG
 40
0.0005174769
  9
$TDUSRTIMER
 40
0.0005174769
  9
$USRTIMER
 70
     1
  9
$ANGBASE
 50
0.0
  9
$ANGDIR
 70
     0
  9
$PDMODE
 70
     0
  9
$PDSIZE
 40
0.0
  9
$PLINEWID
 40
0.0
  9
$COORDS
 70
     2
  9
$SPLFRAME
 70
     0
  9
$SPLINETYPE
 70
     6
  9
$SPLINESEGS
 70
     8
  9
$ATTDIA
 70
     0
  9
$ATTREQ
 70
     1
  9
$HANDLING
 70
     0
  9
$HANDSEED
  5
0
  9
$SURFTAB1
 70
     6
  9
$SURFTAB2
 70
     6
  9
$SURFTYPE
 70
     6
  9
$SURFU
 70
     6
  9
$SURFV
 70
     6
  9
$UCSNAME
  2

  9
$UCSORG
 10
0.0
 20
0.0
 30
0.0
  9
$UCSXDIR
 10
1.0
 20
0.0
 30
0.0
  9
$UCSYDIR
 10
0.0
 20
1.0
 30
0.0
  9
$PUCSNAME
  2

  9
$PUCSORG
 10
0.0
 20
0.0
 30
0.0
  9
$PUCSXDIR
 10
1.0
 20
0.0
 30
0.0
  9
$PUCSYDIR
 10
0.0
 20
1.0
 30
0.0
  9
$USERI1
 70
     0
  9
$USERI2
 70
     0
  9
$USERI3
 70
     0
  9
$USERI4
 70
     0
  9
$USERI5
 70
     0
  9
$USERR1
 40
0.0
  9
$USERR2
 40
0.0
  9
$USERR3
 40
0.0
  9
$USERR4
 40
0.0
  9
$USERR5
 40
0.0
  9
$WORLDVIEW
 70
     1
  9
$SHADEDGE
 70
     3
  9
$SHADEDIF
 70
    70
  9
$TILEMODE
 70
     1
  9
$MAXACTVP
 70
    16
  9
$PINSBASE
 10
0.0
 20
0.0
 30
0.0
  9
$PLIMCHECK
 70
     0
  9
$PEXTMIN
 10
1.000000E+20
 20
1.000000E+20
 30
1.000000E+20
  9
$PEXTMAX
 10
-1.000000E+20
 20
-1.000000E+20
 30
-1.000000E+20
  9
$PLIMMIN
 10
0.0
 20
0.0
  9
$PLIMMAX
 10
12.0
 20
9.0
  9
$UNITMODE
 70
     0
  9
$VISRETAIN
 70
     0
  9
$PLINEGEN
 70
     0
  9
$PSLTSCALE
 70
     0
  9
$TREEDEPTH
 70
  3020
  9
$DWGCODEPAGE
  3
iso8859-1
  0
ENDSEC
  0
SECTION
  2
TABLES
  0
TABLE
  2
VPORT
 70
     2
  0
VPORT
  2
*ACTIVE
 70
     0
 10
0.0
 20
0.0
 11
1.0
 21
1.0
 12
136.067812
 22
64.856051
 13
0.0
 23
0.0
 14
1.0
 24
1.0
 15
10.0
 25
10.0
 16
0.0
 26
0.0
 36
1.0
 17
0.0
 27
0.0
 37
0.0
 40
35.633835
 41
1.65
 42
50.0
 43
0.0
 44
0.0
 50
0.0
 51
0.0
 71
     0
 72
   100
 73
     1
 74
     0
 75
     0
 76
     0
 77
     0
 78
     2
  0
ENDTAB
  0
TABLE
  2
LTYPE
 70
     1
  0
LTYPE
  2
CONTINUOUS
 70
    64
  3
Solid line
 72
    65
 73
     0
 40
0.0
  0
ENDTAB
  0
TABLE
  2
LAYER
 70
     2
  0
LAYER
  2
0
 70
    64
 62
     7
  6
CONTINUOUS
  0
LAYER
  2
MESURA
 70
    64
 62
     7
  6
CONTINUOUS
  0
ENDTAB
  0
TABLE
  2
STYLE
 70
     2
  0
STYLE
  2
STANDARD
 70
     0
 40
0.0
 41
1.0
 50
0.0
 71
     0
 42
0.1
  3
txt
  4

  0
STYLE
  2
ROMANC
 70
    64
 40
0.0
 41
1.0
 50
0.0
 71
     0
 42
0.1
  3
romanc
  4

  0
ENDTAB
  0
TABLE
  2
VIEW
 70
     0
  0
ENDTAB
  0
TABLE
  2
UCS
 70
     0
  0
ENDTAB
  0
TABLE
  2
APPID
 70
     1
  0
APPID
  2
ACAD
 70
    64
  0
ENDTAB
  0
TABLE
  2
DIMSTYLE
 70
     0
  0
ENDTAB
  0
ENDSEC
  0
SECTION
  2
BLOCKS
  0
ENDSEC
  0
SECTION
  2
ENTITIES
  0
LINE
  8
0
 10
127.711933
 20
79.894335
 30
0.0
 11
117.211933
 21
79.894335
 31
0.0
  0
LINE
  8
0
 10
117.211933
 20
65.044335
 30
0.0
 11
127.711933
 21
65.044335
 31
0.0
  0
LINE
  8
0
 10
117.211933
 20
79.894335
 30
0.0
 11
117.211933
 21
65.044335
 31
0.0
  0
LINE
  8
0
 10
122.375277
 20
71.596833
 30
0.0
 11
123.10473
 21
71.596833
 31
0.0
  0
TEXT
  8
0
 10
123.192208
 20
71.352072
 30
0.0
 40
0.1
  1
0.45
  7
ROMANC
  0
LINE
  8
MESURA
  6
BYBLOCK
 62
     0
 10
123.00473
 20
71.496833
 30
0.0
 11
123.20473
 21
71.696833
 31
0.0
  0
LINE
  8
MESURA
  6
BYBLOCK
 62
     0
 10
123.00473
 20
71.036833
 30
0.0
 11
123.20473
 21
71.236833
 31
0.0
  0
LINE
  8
0
 10
123.10473
 20
71.136833
 30
0.0
 11
122.835277
 21
71.136833
 31
0.0
  0
LINE
  8
MESURA
  6
BYBLOCK
 62
     0
 10
122.735277
 20
69.51738
 30
0.0
 11
122.935277
 21
69.71738
 31
0.0
  0
LINE
  8
0
 10
121.915277
 20
69.61738
 30
0.0
 11
122.835277
 21
69.61738
 31
0.0
  0
TEXT
  8
0
 10
122.237752
 20
69.422359
 30
0.0
 40
0.1
  1
0.92
  7
ROMANC
  0
LINE
  8
0
 10
121.915277
 20
69.61738
 30
0.0
 11
121.915277
 21
69.886833
 31
0.0
  0
LINE
  8
MESURA
  6
BYBLOCK
 62
     0
 10
121.815277
 20
69.51738
 30
0.0
 11
122.015277
 21
69.71738
 31
0.0
  0
LINE
  8
0
 10
123.10473
 20
69.886833
 30
0.0
 11
122.835277
 21
69.886833
 31
0.0
  0
LINE
  8
0
 10
122.835277
 20
69.61738
 30
0.0
 11
122.835277
 21
69.886833
 31
0.0
  0
LINE
  8
MESURA
  6
BYBLOCK
 62
     0
 10
123.00473
 20
69.786833
 30
0.0
 11
123.20473
 21
69.986833
 31
0.0
  0
TEXT
  8
0
 10
123.240138
 20
70.445722
 30
0.0
 40
0.1
  1
1.25
  7
ROMANC
  0
LINE
  8
0
 10
123.10473
 20
69.886833
 30
0.0
 11
123.10473
 21
71.596833
 31
0.0
  0
TEXT
  8
0
 10
119.76314
 20
75.898588
 30
0.0
 40
0.3
  1
P = 48.7 dm
  7
ROMANC
  0
TEXT
  8
0
 10
119.765968
 20
76.572086
 30
0.0
 40
0.3
  1
S = 148 dm
  7
ROMANC
  0
TEXT
  8
0
 10
119.741906
 20
77.490194
 30
0.0
 40
0.3
  1
TIPUS   NT148A
  7
ROMANC
  0
TEXT
  8
0
 10
119.741906
 20
77.00448
 30
0.0
 40
0.3
  1
ESCALA  1:50
  7
ROMANC
  0
TEXT
  8
0
 10
123.273799
 20
76.878002
 30
0.0
 40
0.1
  1
2
  7
ROMANC
  0
LINE
  8
0
 10
127.711933
 20
65.044335
 30
0.0
 11
127.711933
 21
79.894335
 31
0.0
  0
ARC
  8
0
 10
121.28867
 20
71.639217
 30
0.0
 40
0.0
 50
0.0
 51
0.0
  0
LINE
  8
0
 10
122.835277
 20
69.886833
 30
0.0
 11
122.835277
 21
71.136833
 31
0.0
  0
ARC
  8
0
 10
122.375277
 20
71.136833
 30
0.0
 40
0.46
 50
0.0
 51
180.0
  0
LINE
  8
0
 10
121.915277
 20
71.136833
 30
0.0
 11
121.915277
 21
69.886833
 31
0.0
  0
LINE
  8
0
 10
121.915277
 20
69.886833
 30
0.0
 11
122.835277
 21
69.886833
 31
0.0
  0
LINE
  8
0
 10
122.845277
 20
69.876833
 30
0.0
 11
122.845277
 21
71.136833
 31
0.0
  0
ARC
  8
0
 10
122.375277
 20
71.136833
 30
0.0
 40
0.47
 50
0.0
 51
180.0
  0
LINE
  8
0
 10
121.905277
 20
71.136833
 30
0.0
 11
121.905277
 21
69.876833
 31
0.0
  0
LINE
  8
0
 10
121.905277
 20
69.876833
 30
0.0
 11
122.845277
 21
69.876833
 31
0.0
  0
LINE
  8
0
 10
122.825277
 20
69.896833
 30
0.0
 11
122.825277
 21
71.136833
 31
0.0
  0
ARC
  8
0
 10
122.375277
 20
71.136833
 30
0.0
 40
0.45
 50
0.000017
 51
179.999983
  0
LINE
  8
0
 10
121.925277
 20
71.136833
 30
0.0
 11
121.925277
 21
69.896833
 31
0.0
  0
LINE
  8
0
 10
121.925277
 20
69.896833
 30
0.0
 11
122.825277
 21
69.896833
 31
0.0
  0
ENDSEC
  0
EOF
