  0
SECTION
  2
HEADER
  9
$ACADVER
  1
AC1009
  9
$INSBASE
 10
164.140238
 20
27.856823
 30
0.0
  9
$EXTMIN
 10
164.140238
 20
27.856823
 30
0.0
  9
$EXTMAX
 10
174.640238
 20
42.706823
 30
0.0
  9
$LIMMIN
 10
0.0
 20
0.0
  9
$LIMMAX
 10
410.0
 20
287.0
  9
$ORTHOMODE
 70
     1
  9
$REGENMODE
 70
     1
  9
$FILLMODE
 70
     1
  9
$QTEXTMODE
 70
     0
  9
$MIRRTEXT
 70
     1
  9
$DRAGMODE
 70
     2
  9
$LTSCALE
 40
25.0
  9
$OSMODE
 70
    32
  9
$ATTMODE
 70
     1
  9
$TEXTSIZE
 40
0.1
  9
$TRACEWID
 40
1.0
  9
$TEXTSTYLE
  7
ROMANC
  9
$CLAYER
  8
0
  9
$CELTYPE
  6
BYLAYER
  9
$CECOLOR
 62
   256
  9
$DIMSCALE
 40
0.0
  9
$DIMASZ
 40
0.0
  9
$DIMEXO
 40
0.1
  9
$DIMDLI
 40
7.0
  9
$DIMRND
 40
0.0
  9
$DIMDLE
 40
0.0
  9
$DIMEXE
 40
1.8
  9
$DIMTP
 40
0.0
  9
$DIMTM
 40
0.0
  9
$DIMTXT
 40
0.03
  9
$DIMCEN
 40
1.5
  9
$DIMTSZ
 40
1.0
  9
$DIMTOL
 70
     0
  9
$DIMLIM
 70
     0
  9
$DIMTIH
 70
     0
  9
$DIMTOH
 70
     0
  9
$DIMSE1
 70
     0
  9
$DIMSE2
 70
     0
  9
$DIMTAD
 70
     0
  9
$DIMZIN
 70
     0
  9
$DIMBLK
  1

  9
$DIMASO
 70
     1
  9
$DIMSHO
 70
     0
  9
$DIMPOST
  1

  9
$DIMAPOST
  1

  9
$DIMALT
 70
     0
  9
$DIMALTD
 70
     2
  9
$DIMALTF
 40
25.4
  9
$DIMLFAC
 40
1.0
  9
$DIMTOFL
 70
     1
  9
$DIMTVP
 40
0.0
  9
$DIMTIX
 70
     1
  9
$DIMSOXD
 70
     0
  9
$DIMSAH
 70
     0
  9
$DIMBLK1
  1

  9
$DIMBLK2
  1

  9
$DIMSTYLE
  2
*UNNAMED
  9
$DIMCLRD
 70
     0
  9
$DIMCLRE
 70
     0
  9
$DIMCLRT
 70
     0
  9
$DIMTFAC
 40
116.666667
  9
$DIMGAP
 40
0.09
  9
$LUNITS
 70
     2
  9
$LUPREC
 70
     2
  9
$SKETCHINC
 40
1.0
  9
$FILLETRAD
 40
0.0
  9
$AUNITS
 70
     0
  9
$AUPREC
 70
     0
  9
$MENU
  1
acad
  9
$ELEVATION
 40
0.0
  9
$PELEVATION
 40
0.0
  9
$THICKNESS
 40
0.0
  9
$LIMCHECK
 70
     0
  9
$BLIPMODE
 70
     0
  9
$CHAMFERA
 40
0.0
  9
$CHAMFERB
 40
0.0
  9
$SKPOLY
 70
     0
  9
$TDCREATE
 40
2449967.693258217
  9
$TDUPDATE
 40
2450623.677459490
  9
$TDINDWG
 40
0.0041251157
  9
$TDUSRTIMER
 40
0.0041251157
  9
$USRTIMER
 70
     1
  9
$ANGBASE
 50
0.0
  9
$ANGDIR
 70
     0
  9
$PDMODE
 70
     0
  9
$PDSIZE
 40
0.0
  9
$PLINEWID
 40
0.0
  9
$COORDS
 70
     0
  9
$SPLFRAME
 70
     0
  9
$SPLINETYPE
 70
     6
  9
$SPLINESEGS
 70
     8
  9
$ATTDIA
 70
     0
  9
$ATTREQ
 70
     1
  9
$HANDLING
 70
     0
  9
$HANDSEED
  5
0
  9
$SURFTAB1
 70
     6
  9
$SURFTAB2
 70
     6
  9
$SURFTYPE
 70
     6
  9
$SURFU
 70
     6
  9
$SURFV
 70
     6
  9
$UCSNAME
  2

  9
$UCSORG
 10
0.0
 20
0.0
 30
0.0
  9
$UCSXDIR
 10
1.0
 20
0.0
 30
0.0
  9
$UCSYDIR
 10
0.0
 20
1.0
 30
0.0
  9
$PUCSNAME
  2

  9
$PUCSORG
 10
0.0
 20
0.0
 30
0.0
  9
$PUCSXDIR
 10
1.0
 20
0.0
 30
0.0
  9
$PUCSYDIR
 10
0.0
 20
1.0
 30
0.0
  9
$USERI1
 70
     0
  9
$USERI2
 70
     0
  9
$USERI3
 70
     0
  9
$USERI4
 70
     0
  9
$USERI5
 70
     0
  9
$USERR1
 40
0.0
  9
$USERR2
 40
0.0
  9
$USERR3
 40
0.0
  9
$USERR4
 40
0.0
  9
$USERR5
 40
0.0
  9
$WORLDVIEW
 70
     1
  9
$SHADEDGE
 70
     3
  9
$SHADEDIF
 70
    70
  9
$TILEMODE
 70
     1
  9
$MAXACTVP
 70
    16
  9
$PINSBASE
 10
0.0
 20
0.0
 30
0.0
  9
$PLIMCHECK
 70
     0
  9
$PEXTMIN
 10
1.000000E+20
 20
1.000000E+20
 30
1.000000E+20
  9
$PEXTMAX
 10
-1.000000E+20
 20
-1.000000E+20
 30
-1.000000E+20
  9
$PLIMMIN
 10
0.0
 20
0.0
  9
$PLIMMAX
 10
12.0
 20
9.0
  9
$UNITMODE
 70
     0
  9
$VISRETAIN
 70
     0
  9
$PLINEGEN
 70
     0
  9
$PSLTSCALE
 70
     0
  9
$TREEDEPTH
 70
  3020
  9
$DWGCODEPAGE
  3
iso8859-1
  0
ENDSEC
  0
SECTION
  2
TABLES
  0
TABLE
  2
VPORT
 70
     1
  0
VPORT
  2
*ACTIVE
 70
     0
 10
0.0
 20
0.0
 11
1.0
 21
1.0
 12
176.102089
 22
35.281823
 13
0.0
 23
0.0
 14
1.0
 24
1.0
 15
10.0
 25
10.0
 16
0.0
 26
0.0
 36
1.0
 17
0.0
 27
0.0
 37
0.0
 40
14.85
 41
1.611024
 42
50.0
 43
0.0
 44
0.0
 50
0.0
 51
0.0
 71
     0
 72
   100
 73
     1
 74
     0
 75
     0
 76
     0
 77
     0
 78
     1
  0
ENDTAB
  0
TABLE
  2
LTYPE
 70
     1
  0
LTYPE
  2
CONTINUOUS
 70
    64
  3
Solid line
 72
    65
 73
     0
 40
0.0
  0
ENDTAB
  0
TABLE
  2
LAYER
 70
     1
  0
LAYER
  2
0
 70
    64
 62
     7
  6
CONTINUOUS
  0
ENDTAB
  0
TABLE
  2
STYLE
 70
     2
  0
STYLE
  2
STANDARD
 70
     0
 40
0.0
 41
1.0
 50
0.0
 71
     0
 42
0.1
  3
txt
  4

  0
STYLE
  2
ROMANC
 70
    64
 40
0.0
 41
1.0
 50
0.0
 71
     0
 42
0.1
  3
romanc
  4

  0
ENDTAB
  0
TABLE
  2
VIEW
 70
     0
  0
ENDTAB
  0
TABLE
  2
UCS
 70
     0
  0
ENDTAB
  0
TABLE
  2
APPID
 70
     1
  0
APPID
  2
ACAD
 70
    64
  0
ENDTAB
  0
TABLE
  2
DIMSTYLE
 70
     0
  0
ENDTAB
  0
ENDSEC
  0
SECTION
  2
BLOCKS
  0
ENDSEC
  0
SECTION
  2
ENTITIES
  0
LINE
  8
0
 10
164.140238
 20
42.706823
 30
0.0
 11
164.140238
 21
27.856823
 31
0.0
  0
LINE
  8
0
 10
174.640238
 20
27.856823
 30
0.0
 11
174.640238
 21
42.706823
 31
0.0
  0
LINE
  8
0
 10
164.140238
 20
27.856823
 30
0.0
 11
174.640238
 21
27.856823
 31
0.0
  0
LINE
  8
0
 10
169.139549
 20
32.399487
 30
0.0
 11
169.139549
 21
32.04317
 31
0.0
  0
LINE
  8
0
 10
168.689549
 20
32.399487
 30
0.0
 11
168.689549
 21
31.835336
 31
0.0
  0
LINE
  8
0
 10
169.589549
 20
32.399487
 30
0.0
 11
169.589549
 21
31.835336
 31
0.0
  0
TEXT
  8
0
 10
169.023439
 20
31.610182
 30
0.0
 40
0.1
  1
0.9
  7
ROMANC
  0
TEXT
  8
0
 10
168.725927
 20
31.919047
 30
0.0
 40
0.1
  1
0.45
  7
ROMANC
  0
LINE
  8
0
 10
168.689549
 20
32.04317
 30
0.0
 11
169.139549
 21
32.04317
 31
0.0
  0
LINE
  8
0
 10
168.689549
 20
31.835336
 30
0.0
 11
169.589549
 21
31.835336
 31
0.0
  0
POLYLINE
  8
0
 66
     1
 10
0.0
 20
0.0
 30
0.0
 70
     1
  0
VERTEX
  8
0
 10
169.129005
 20
32.409487
 30
0.0
  0
VERTEX
  8
0
 10
169.579549
 20
32.409487
 30
0.0
  0
VERTEX
  8
0
 10
169.579549
 20
33.579487
 30
0.0
 42
0.08626
  0
VERTEX
  8
0
 10
169.544975
 20
33.778402
 30
0.0
 42
0.092556
  0
VERTEX
  8
0
 10
169.450185
 20
33.940639
 30
0.0
 42
0.103118
 70
     2
 50
130.872408
  0
VERTEX
  8
0
 10
169.304107
 20
34.052134
 30
0.0
 42
0.112071
 50
130.872408
  0
VERTEX
  8
0
 10
169.139549
 20
34.089487
 30
0.0
 42
0.112071
  0
VERTEX
  8
0
 10
168.974991
 20
34.052134
 30
0.0
 42
0.103118
  0
VERTEX
  8
0
 10
168.828913
 20
33.940639
 30
0.0
 42
0.092556
 70
     2
 50
229.127592
  0
VERTEX
  8
0
 10
168.734123
 20
33.778402
 30
0.0
 42
0.08626
 50
229.127592
  0
VERTEX
  8
0
 10
168.699549
 20
33.579487
 30
0.0
  0
VERTEX
  8
0
 10
168.699549
 20
32.399487
 30
0.0
 42
0.139889
  0
VERTEX
  8
0
 10
168.713424
 20
32.350864
 30
0.0
 42
0.107118
  0
VERTEX
  8
0
 10
168.760997
 20
32.301741
 30
0.0
 42
0.079812
 70
     2
 50
326.309932
  0
VERTEX
  8
0
 10
168.827687
 20
32.27126
 30
0.0
 42
0.067459
 50
326.309932
  0
VERTEX
  8
0
 10
168.914549
 20
32.259487
 30
0.0
 42
0.067459
  0
VERTEX
  8
0
 10
169.001412
 20
32.27126
 30
0.0
 42
0.079812
  0
VERTEX
  8
0
 10
169.068101
 20
32.301741
 30
0.0
 42
0.107118
 70
     2
 50
33.690068
  0
VERTEX
  8
0
 10
169.115674
 20
32.350864
 30
0.0
 42
0.167722
 50
33.690068
  0
SEQEND
  8
0
  0
POLYLINE
  8
0
 66
     1
 10
0.0
 20
0.0
 30
0.0
 70
     1
  0
VERTEX
  8
0
 10
169.149102
 20
32.389487
 30
0.0
  0
VERTEX
  8
0
 10
169.599549
 20
32.389487
 30
0.0
  0
VERTEX
  8
0
 10
169.599549
 20
33.579487
 30
0.0
 42
0.08626
  0
VERTEX
  8
0
 10
169.563802
 20
33.785151
 30
0.0
 42
0.092556
  0
VERTEX
  8
0
 10
169.465309
 20
33.953726
 30
0.0
 42
0.103118
 70
     2
 50
130.872408
  0
VERTEX
  8
0
 10
169.312742
 20
34.070174
 30
0.0
 42
0.112071
 50
130.872408
  0
VERTEX
  8
0
 10
169.139549
 20
34.109487
 30
0.0
 42
0.112071
  0
VERTEX
  8
0
 10
168.966357
 20
34.070174
 30
0.0
 42
0.103118
  0
VERTEX
  8
0
 10
168.813789
 20
33.953726
 30
0.0
 42
0.092556
 70
     2
 50
229.127592
  0
VERTEX
  8
0
 10
168.715296
 20
33.785151
 30
0.0
 42
0.08626
 50
229.127592
  0
VERTEX
  8
0
 10
168.679549
 20
33.579487
 30
0.0
  0
VERTEX
  8
0
 10
168.679549
 20
32.399487
 30
0.0
 42
0.139889
  0
VERTEX
  8
0
 10
168.696436
 20
32.340309
 30
0.0
 42
0.107118
  0
VERTEX
  8
0
 10
168.749903
 20
32.2851
 30
0.0
 42
0.079812
 70
     2
 50
326.309932
  0
VERTEX
  8
0
 10
168.822363
 20
32.251981
 30
0.0
 42
0.067459
 50
326.309932
  0
VERTEX
  8
0
 10
168.914549
 20
32.239487
 30
0.0
 42
0.067459
  0
VERTEX
  8
0
 10
169.006735
 20
32.251981
 30
0.0
 42
0.079812
  0
VERTEX
  8
0
 10
169.079195
 20
32.2851
 30
0.0
 42
0.107118
 70
     2
 50
33.690068
  0
VERTEX
  8
0
 10
169.132662
 20
32.340309
 30
0.0
 42
0.117195
 50
33.690068
  0
SEQEND
  8
0
  0
POLYLINE
  8
0
 66
     1
 10
0.0
 20
0.0
 30
0.0
 70
     1
  0
VERTEX
  8
0
 10
169.139549
 20
32.399487
 30
0.0
  0
VERTEX
  8
0
 10
169.589549
 20
32.399487
 30
0.0
  0
VERTEX
  8
0
 10
169.589549
 20
33.579487
 30
0.0
 42
0.08626
  0
VERTEX
  8
0
 10
169.554389
 20
33.781777
 30
0.0
 42
0.092556
  0
VERTEX
  8
0
 10
169.457747
 20
33.947182
 30
0.0
 42
0.103118
 70
     2
 50
130.872408
  0
VERTEX
  8
0
 10
169.308424
 20
34.061154
 30
0.0
 42
0.112071
 50
130.872408
  0
VERTEX
  8
0
 10
169.139549
 20
34.099487
 30
0.0
 42
0.112071
  0
VERTEX
  8
0
 10
168.970674
 20
34.061154
 30
0.0
 42
0.103118
  0
VERTEX
  8
0
 10
168.821351
 20
33.947182
 30
0.0
 42
0.092556
 70
     2
 50
229.127592
  0
VERTEX
  8
0
 10
168.72471
 20
33.781777
 30
0.0
 42
0.08626
 50
229.127592
  0
VERTEX
  8
0
 10
168.689549
 20
33.579487
 30
0.0
  0
VERTEX
  8
0
 10
168.689549
 20
32.399487
 30
0.0
 42
0.139889
  0
VERTEX
  8
0
 10
168.70493
 20
32.345587
 30
0.0
 42
0.107118
  0
VERTEX
  8
0
 10
168.75545
 20
32.293421
 30
0.0
 42
0.079812
 70
     2
 50
326.309932
  0
VERTEX
  8
0
 10
168.825025
 20
32.261621
 30
0.0
 42
0.067459
 50
326.309932
  0
VERTEX
  8
0
 10
168.914549
 20
32.249487
 30
0.0
 42
0.067459
  0
VERTEX
  8
0
 10
169.004073
 20
32.261621
 30
0.0
 42
0.079812
  0
VERTEX
  8
0
 10
169.073648
 20
32.293421
 30
0.0
 42
0.107118
 70
     2
 50
33.690068
  0
VERTEX
  8
0
 10
169.124168
 20
32.345587
 30
0.0
 42
0.139889
 50
33.690068
  0
SEQEND
  8
0
  0
TEXT
  8
0
 10
170.038736
 20
33.788112
 30
0.0
 40
0.1
  1
0.52
  7
ROMANC
  0
TEXT
  8
0
 10
170.038736
 20
33.026053
 30
0.0
 40
0.1
  1
1.18
  7
ROMANC
  0
LINE
  8
0
 10
169.139549
 20
34.099487
 30
0.0
 11
170.741004
 21
34.099487
 31
0.0
  0
LINE
  8
0
 10
169.589549
 20
33.579487
 30
0.0
 11
169.88995
 21
33.579487
 31
0.0
  0
LINE
  8
0
 10
169.589549
 20
32.399487
 30
0.0
 11
169.88995
 21
32.399487
 31
0.0
  0
LINE
  8
0
 10
169.88995
 20
32.249487
 30
0.0
 11
169.88995
 21
34.099487
 31
0.0
  0
LINE
  8
0
 10
174.640238
 20
42.706823
 30
0.0
 11
164.140238
 21
42.706823
 31
0.0
  0
TEXT
  8
0
 10
166.680477
 20
38.54488
 30
0.0
 40
0.3
  1
P = 49.3 dm
  7
ROMANC
  0
TEXT
  8
0
 10
166.683305
 20
39.218378
 30
0.0
 40
0.3
  1
S = 148 dm
  7
ROMANC
  0
TEXT
  8
0
 10
166.670211
 20
40.302682
 30
0.0
 40
0.3
  1
TIPUS   NT148
  7
ROMANC
  0
TEXT
  8
0
 10
166.670211
 20
39.816968
 30
0.0
 40
0.3
  1
ESCALA  1:50
  7
ROMANC
  0
TEXT
  8
0
 10
169.91073
 20
39.524294
 30
0.0
 40
0.1
  1
2
  7
ROMANC
  0
LINE
  8
0
 10
168.914087
 20
32.249487
 30
0.0
 11
170.741004
 21
32.249487
 31
0.0
  0
LINE
  8
0
 10
169.853192
 20
32.372222
 30
0.0
 11
169.924822
 21
32.42641
 31
0.0
  0
LINE
  8
0
 10
169.853192
 20
32.222222
 30
0.0
 11
169.924822
 21
32.276411
 31
0.0
  0
LINE
  8
0
 10
169.853192
 20
33.552222
 30
0.0
 11
169.924822
 21
33.60641
 31
0.0
  0
LINE
  8
0
 10
169.853192
 20
34.072222
 30
0.0
 11
169.924822
 21
34.12641
 31
0.0
  0
LINE
  8
0
 10
169.102792
 20
32.015905
 30
0.0
 11
169.174422
 21
32.070094
 31
0.0
  0
LINE
  8
0
 10
168.652792
 20
32.015905
 30
0.0
 11
168.724422
 21
32.070094
 31
0.0
  0
LINE
  8
0
 10
168.652792
 20
31.808071
 30
0.0
 11
168.724422
 21
31.862259
 31
0.0
  0
LINE
  8
0
 10
169.552792
 20
31.808071
 30
0.0
 11
169.624422
 21
31.862259
 31
0.0
  0
TEXT
  8
0
 10
170.018387
 20
32.293945
 30
0.0
 40
0.1
  1
0.15
  7
ROMANC
  0
LINE
  8
0
 10
170.741004
 20
34.099487
 30
0.0
 11
170.741004
 21
32.249487
 31
0.0
  0
LINE
  8
0
 10
170.704247
 20
32.22168
 30
0.0
 11
170.775877
 21
32.275869
 31
0.0
  0
LINE
  8
0
 10
170.704247
 20
34.07168
 30
0.0
 11
170.775877
 21
34.125868
 31
0.0
  0
TEXT
  8
0
 10
170.828256
 20
33.026053
 30
0.0
 40
0.1
  1
1.85
  7
ROMANC
  0
LINE
  8
0
 10
169.590266
 20
34.461342
 30
0.0
 11
169.590266
 21
33.579487
 31
0.0
  0
LINE
  8
0
 10
168.690266
 20
34.461342
 30
0.0
 11
168.690266
 21
33.579487
 31
0.0
  0
LINE
  8
0
 10
168.690266
 20
34.461342
 30
0.0
 11
169.590266
 21
34.461342
 31
0.0
  0
LINE
  8
0
 10
169.553508
 20
34.433535
 30
0.0
 11
169.625139
 21
34.487723
 31
0.0
  0
LINE
  8
0
 10
168.653508
 20
34.433535
 30
0.0
 11
168.725139
 21
34.487723
 31
0.0
  0
TEXT
  8
0
 10
169.023439
 20
34.486756
 30
0.0
 40
0.1
  1
0.9
  7
ROMANC
  0
ENDSEC
  0
EOF
