  0
SECTION
  2
HEADER
  9
$ACADVER
  1
AC1014
  9
$ACADMAINTVER
 70
     9
  9
$DWGCODEPAGE
  3
ANSI_1252
  9
$INSBASE
 10
0.0
 20
0.0
 30
0.0
  9
$EXTMIN
 10
-0.5249999999999995
 20
-0.7425000000000006
 30
107374.1823999995
  9
$EXTMAX
 10
9.975000000000001
 20
14.1075
 30
107374.1824
  9
$LIMMIN
 10
0.0
 20
0.0
  9
$LIMMAX
 10
12.0
 20
9.0
  9
$ORTHOMODE
 70
     0
  9
$REGENMODE
 70
     1
  9
$FILLMODE
 70
     1
  9
$QTEXTMODE
 70
     0
  9
$MIRRTEXT
 70
     1
  9
$DRAGMODE
 70
     2
  9
$LTSCALE
 40
1.0
  9
$OSMODE
 70
    37
  9
$ATTMODE
 70
     1
  9
$TEXTSIZE
 40
0.0
  9
$TRACEWID
 40
0.05
  9
$TEXTSTYLE
  7
STANDARD
  9
$CLAYER
  8
0
  9
$CELTYPE
  6
CONTINUOUS
  9
$CECOLOR
 62
   256
  9
$CELTSCALE
 40
1.0
  9
$DELOBJ
 70
     1
  9
$DISPSILH
 70
     0
  9
$DIMSCALE
 40
1.0
  9
$DIMASZ
 40
0.18
  9
$DIMEXO
 40
0.0625
  9
$DIMDLI
 40
0.38
  9
$DIMRND
 40
0.0
  9
$DIMDLE
 40
0.0
  9
$DIMEXE
 40
0.18
  9
$DIMTP
 40
0.0
  9
$DIMTM
 40
0.0
  9
$DIMTXT
 40
0.18
  9
$DIMCEN
 40
0.09
  9
$DIMTSZ
 40
0.0
  9
$DIMTOL
 70
     0
  9
$DIMLIM
 70
     0
  9
$DIMTIH
 70
     1
  9
$DIMTOH
 70
     1
  9
$DIMSE1
 70
     0
  9
$DIMSE2
 70
     0
  9
$DIMTAD
 70
     0
  9
$DIMZIN
 70
     0
  9
$DIMBLK
  1

  9
$DIMASO
 70
     1
  9
$DIMSHO
 70
     1
  9
$DIMPOST
  1

  9
$DIMAPOST
  1

  9
$DIMALT
 70
     0
  9
$DIMALTD
 70
     2
  9
$DIMALTF
 40
25.4
  9
$DIMLFAC
 40
1.0
  9
$DIMTOFL
 70
     0
  9
$DIMTVP
 40
0.0
  9
$DIMTIX
 70
     0
  9
$DIMSOXD
 70
     0
  9
$DIMSAH
 70
     0
  9
$DIMBLK1
  1

  9
$DIMBLK2
  1

  9
$DIMSTYLE
  2
STANDARD
  9
$DIMCLRD
 70
     0
  9
$DIMCLRE
 70
     0
  9
$DIMCLRT
 70
     0
  9
$DIMTFAC
 40
1.0
  9
$DIMGAP
 40
0.09
  9
$DIMJUST
 70
     0
  9
$DIMSD1
 70
     0
  9
$DIMSD2
 70
     0
  9
$DIMTOLJ
 70
     1
  9
$DIMTZIN
 70
     0
  9
$DIMALTZ
 70
     0
  9
$DIMALTTZ
 70
     0
  9
$DIMFIT
 70
     3
  9
$DIMUPT
 70
     0
  9
$DIMUNIT
 70
     2
  9
$DIMDEC
 70
     4
  9
$DIMTDEC
 70
     4
  9
$DIMALTU
 70
     2
  9
$DIMALTTD
 70
     2
  9
$DIMTXSTY
  7
STANDARD
  9
$DIMAUNIT
 70
     0
  9
$LUNITS
 70
     2
  9
$LUPREC
 70
     4
  9
$SKETCHINC
 40
0.1
  9
$FILLETRAD
 40
0.0
  9
$AUNITS
 70
     0
  9
$AUPREC
 70
     0
  9
$MENU
  1
acad
  9
$ELEVATION
 40
0.0
  9
$PELEVATION
 40
0.0
  9
$THICKNESS
 40
0.0
  9
$LIMCHECK
 70
     0
  9
$BLIPMODE
 70
     0
  9
$CHAMFERA
 40
0.0
  9
$CHAMFERB
 40
0.0
  9
$CHAMFERC
 40
0.0
  9
$CHAMFERD
 40
0.0
  9
$SKPOLY
 70
     0
  9
$TDCREATE
 40
2452480.626307870
  9
$TDUPDATE
 40
2452481.554696597
  9
$TDINDWG
 40
0.0030161690
  9
$TDUSRTIMER
 40
0.0030161690
  9
$USRTIMER
 70
     1
  9
$ANGBASE
 50
0.0
  9
$ANGDIR
 70
     0
  9
$PDMODE
 70
     0
  9
$PDSIZE
 40
0.0
  9
$PLINEWID
 40
0.0
  9
$COORDS
 70
     1
  9
$SPLFRAME
 70
     0
  9
$SPLINETYPE
 70
     6
  9
$SPLINESEGS
 70
    10
  9
$ATTDIA
 70
     0
  9
$ATTREQ
 70
     1
  9
$HANDLING
 70
 10241
  9
$HANDSEED
  5
F5
  9
$SURFTAB1
 70
     6
  9
$SURFTAB2
 70
     6
  9
$SURFTYPE
 70
     6
  9
$SURFU
 70
     6
  9
$SURFV
 70
     6
  9
$UCSNAME
  2

  9
$UCSORG
 10
0.0
 20
0.0
 30
0.0
  9
$UCSXDIR
 10
1.0
 20
0.0
 30
0.0
  9
$UCSYDIR
 10
0.0
 20
1.0
 30
0.0
  9
$PUCSNAME
  2

  9
$PUCSORG
 10
0.0
 20
0.0
 30
0.0
  9
$PUCSXDIR
 10
1.0
 20
0.0
 30
0.0
  9
$PUCSYDIR
 10
0.0
 20
1.0
 30
0.0
  9
$USERI1
 70
     0
  9
$USERI2
 70
     0
  9
$USERI3
 70
     0
  9
$USERI4
 70
     0
  9
$USERI5
 70
     0
  9
$USERR1
 40
0.0
  9
$USERR2
 40
0.0
  9
$USERR3
 40
0.0
  9
$USERR4
 40
0.0
  9
$USERR5
 40
0.0
  9
$WORLDVIEW
 70
     1
  9
$SHADEDGE
 70
     3
  9
$SHADEDIF
 70
    70
  9
$TILEMODE
 70
     1
  9
$MAXACTVP
 70
    16
  9
$PINSBASE
 10
0.0
 20
0.0
 30
0.0
  9
$PLIMCHECK
 70
     0
  9
$PEXTMIN
 10
-1.000000000000000E+20
 20
-1.000000000000000E+20
 30
-1.000000000000000E+20
  9
$PEXTMAX
 10
-1.000000000000000E+20
 20
-1.000000000000000E+20
 30
-1.000000000000000E+20
  9
$PLIMMIN
 10
0.0
 20
0.0
  9
$PLIMMAX
 10
12.0
 20
9.0
  9
$UNITMODE
 70
     0
  9
$VISRETAIN
 70
     0
  9
$PLINEGEN
 70
     1
  9
$PSLTSCALE
 70
     0
  9
$TREEDEPTH
 70
  3020
  9
$PICKSTYLE
 70
     1
  9
$CMLSTYLE
  2
STANDARD
  9
$CMLJUST
 70
     0
  9
$CMLSCALE
 40
1.0
  9
$PROXYGRAPHICS
 70
     0
  9
$MEASUREMENT
 70
     0
  0
ENDSEC
  0
SECTION
  2
CLASSES
  0
CLASS
  1
LWPOLYLINE
  2
AcDbPolyline
  3
AutoCAD 2000
 90
        0
280
     0
281
     1
  0
CLASS
  1
IMAGE
  2
AcDbRasterImage
  3
ISM
 90
      127
280
     0
281
     1
  0
CLASS
  1
OLE2FRAME
  2
AcDbOle2Frame
  3
AutoCAD 2000
 90
        0
280
     0
281
     1
  0
CLASS
  1
HATCH
  2
AcDbHatch
  3
AutoCAD 2000
 90
        0
280
     0
281
     1
  0
CLASS
  1
DICTIONARYVAR
  2
AcDbDictionaryVar
  3
AutoCAD 2000
 90
        0
280
     0
281
     0
  0
CLASS
  1
RASTERVARIABLES
  2
AcDbRasterVariables
  3
ISM
 90
        0
280
     0
281
     0
  0
CLASS
  1
IMAGEDEF
  2
AcDbRasterImageDef
  3
ISM
 90
        0
280
     0
281
     0
  0
CLASS
  1
IMAGEDEF_REACTOR
  2
AcDbRasterImageDefReactor
  3
ISM
 90
        1
280
     0
281
     0
  0
CLASS
  1
IDBUFFER
  2
AcDbIdBuffer
  3
AutoCAD 2000
 90
        0
280
     0
281
     0
  0
CLASS
  1
SPATIAL_FILTER
  2
AcDbSpatialFilter
  3
AutoCAD 2000
 90
        0
280
     0
281
     0
  0
CLASS
  1
XRECORD
  2
AcDbXrecord
  3
AutoCAD 2000
 90
        0
280
     0
281
     0
  0
CLASS
  1
SORTENTSTABLE
  2
AcDbSortentsTable
  3
AutoCAD 2000
 90
        0
280
     0
281
     0
  0
CLASS
  1
LAYER_INDEX
  2
AcDbLayerIndex
  3
AutoCAD 2000
 90
        0
280
     0
281
     0
  0
CLASS
  1
SPATIAL_INDEX
  2
AcDbSpatialIndex
  3
AutoCAD 2000
 90
        0
280
     0
281
     0
  0
CLASS
  1
OBJECT_PTR
  2
CAseDLPNTableRecord
  3
ASE-LPNTableRecord
 90
        1
280
     0
281
     0
  0
CLASS
  1
ACDBDICTIONARYWDFLT
  2
AcDbDictionaryWithDefault
  3
AutoCAD 2000
 90
        0
280
     0
281
     0
  0
CLASS
  1
ACDBPLACEHOLDER
  2
AcDbPlaceHolder
  3
AutoCAD 2000
 90
        0
280
     0
281
     0
  0
CLASS
  1
LAYOUT
  2
AcDbLayout
  3
AutoCAD 2000
 90
        0
280
     0
281
     0
  0
CLASS
  1
LONG_TRANSACTION
  2
AcDbLongTransaction
  3
AutoCAD 2000
 90
        0
280
     0
281
     0
  0
CLASS
  1
LWPOLYLINE
  2
AcDbPolyline
  3
AutoCAD 2000
 90
        0
280
     0
281
     1
  0
CLASS
  1
HATCH
  2
AcDbHatch
  3
AutoCAD 2000
 90
        0
280
     0
281
     1
  0
CLASS
  1
XRECORD
  2
AcDbXrecord
  3
AutoCAD 2000
 90
        0
280
     0
281
     0
  0
ENDSEC
  0
SECTION
  2
TABLES
  0
TABLE
  2
VPORT
  5
7
330
0
100
AcDbSymbolTable
 70
     2
  0
VPORT
  5
D0
330
7
100
AcDbSymbolTableRecord
100
AcDbViewportTableRecord
  2
*ACTIVE
 70
     0
 10
0.0
 20
0.0
 11
1.0
 21
1.0
 12
32.73395572354211
 22
11.03703932878663
 13
0.0
 23
0.0
 14
0.0
 24
0.0
 15
0.0
 25
0.0
 16
0.0
 26
0.0
 36
1.0
 17
-28.00895572354212
 27
-3.5009
 37
107374.1824
 40
16.67420779143153
 41
1.421313506815365
 42
50.0
 43
4.579200000007148
 44
-4.579199999992852
 50
0.0
 51
0.0
 71
    22
 72
   100
 73
     1
 74
     0
 75
     0
 76
     0
 77
     0
 78
     0
  0
ENDTAB
  0
TABLE
  2
LTYPE
  5
4
330
0
100
AcDbSymbolTable
 70
     7
  0
LTYPE
  5
11
330
4
100
AcDbSymbolTableRecord
100
AcDbLinetypeTableRecord
  2
BYBLOCK
 70
     0
  3

 72
    65
 73
     0
 40
0.0
  0
LTYPE
  5
12
330
4
100
AcDbSymbolTableRecord
100
AcDbLinetypeTableRecord
  2
BYLAYER
 70
     0
  3

 72
    65
 73
     0
 40
0.0
  0
LTYPE
  5
13
330
4
100
AcDbSymbolTableRecord
100
AcDbLinetypeTableRecord
  2
CONTINUOUS
 70
     0
  3
Solid line
 72
    65
 73
     0
 40
0.0
  0
LTYPE
  5
22
330
4
100
AcDbSymbolTableRecord
100
AcDbLinetypeTableRecord
  2
DOT
 70
    32
  3
. . . . . . . . . . . . . . . . . . . . . . . . . . . . . . . . .
 72
    65
 73
     2
 40
0.25
 49
0.0
 74
     0
 49
-0.25
 74
     0
  0
LTYPE
  5
23
330
4
100
AcDbSymbolTableRecord
100
AcDbLinetypeTableRecord
  2
HIDDEN
 70
    32
  3
__ __ __ __ __ __ __ __ __ __ __ __ __ __ __ __ __ __ __ __ __ 
 72
    65
 73
     2
 40
0.375
 49
0.25
 74
     0
 49
-0.125
 74
     0
  0
LTYPE
  5
24
330
4
100
AcDbSymbolTableRecord
100
AcDbLinetypeTableRecord
  2
DASHED
 70
    32
  3
__ __ __ __ __ __ __ __ __ __ __ __ __ __ __ __ __ __ __ __ __
 72
    65
 73
     2
 40
0.75
 49
0.5
 74
     0
 49
-0.25
 74
     0
  0
LTYPE
  5
25
330
4
100
AcDbSymbolTableRecord
100
AcDbLinetypeTableRecord
  2
DASHDOT
 70
    32
  3
__ . __ . __ . __ . __ . __ . __ . __ . __ . __ . __ . __ . _
 72
    65
 73
     4
 40
1.0
 49
0.5
 74
     0
 49
-0.25
 74
     0
 49
0.0
 74
     0
 49
-0.25
 74
     0
  0
LTYPE
  5
26
330
4
100
AcDbSymbolTableRecord
100
AcDbLinetypeTableRecord
  2
DIVIDE
 70
    32
  3
____ . . ____ . . ____ . . ____ . . ____ . . ____ . . ____ . .
 72
    65
 73
     6
 40
1.25
 49
0.5
 74
     0
 49
-0.25
 74
     0
 49
0.0
 74
     0
 49
-0.25
 74
     0
 49
0.0
 74
     0
 49
-0.25
 74
     0
  0
LTYPE
  5
27
330
4
100
AcDbSymbolTableRecord
100
AcDbLinetypeTableRecord
  2
CENTER
 70
    32
  3
____ _ ____ _ ____ _ ____ _ ____ _ ____ _ ____ _ ____ _ ____ _
 72
    65
 73
     4
 40
2.0
 49
1.25
 74
     0
 49
-0.25
 74
     0
 49
0.25
 74
     0
 49
-0.25
 74
     0
  0
ENDTAB
  0
TABLE
  2
LAYER
  5
2
330
0
100
AcDbSymbolTable
 70
     4
  0
LAYER
  5
14
330
2
100
AcDbSymbolTableRecord
100
AcDbLayerTableRecord
  2
0
 70
    32
 62
     7
  6
CONTINUOUS
  0
LAYER
  5
1E
330
2
100
AcDbSymbolTableRecord
100
AcDbLayerTableRecord
  2
CONSTRUCTION_CLASS
 70
    32
 62
     7
  6
CONTINUOUS
  0
LAYER
  5
1F
330
2
100
AcDbSymbolTableRecord
100
AcDbLayerTableRecord
  2
PATTERN_CLASS
 70
    32
 62
     7
  6
CONTINUOUS
  0
LAYER
  5
31
330
2
100
AcDbSymbolTableRecord
100
AcDbLayerTableRecord
  2
1
 70
    32
 62
     7
  6
CONTINUOUS
  0
ENDTAB
  0
TABLE
  2
STYLE
  5
3
330
0
100
AcDbSymbolTable
 70
     2
  0
STYLE
  5
17
330
3
100
AcDbSymbolTableRecord
100
AcDbTextStyleTableRecord
  2
STANDARD
 70
     0
 40
0.0
 41
1.0
 50
0.0
 71
     0
 42
0.0
  3
txt
  4

  0
STYLE
  5
2A
330
3
100
AcDbSymbolTableRecord
100
AcDbTextStyleTableRecord
  2
ROMANC
 70
    32
 40
0.2
 41
1.0
 50
0.0
 71
     0
 42
0.2
  3
ROMANC
  4

  0
ENDTAB
  0
TABLE
  2
VIEW
  5
5
330
0
100
AcDbSymbolTable
 70
     0
  0
ENDTAB
  0
TABLE
  2
UCS
  5
6
330
0
100
AcDbSymbolTable
 70
     0
  0
ENDTAB
  0
TABLE
  2
APPID
  5
8
330
0
100
AcDbSymbolTable
 70
     2
  0
APPID
  5
16
330
8
100
AcDbSymbolTableRecord
100
AcDbRegAppTableRecord
  2
ACAD
 70
     0
  0
APPID
  5
C9
330
8
100
AcDbSymbolTableRecord
100
AcDbRegAppTableRecord
  2
DCO15
 70
     0
  0
ENDTAB
  0
TABLE
  2
DIMSTYLE
  5
9
330
0
100
AcDbSymbolTable
 70
     1
  0
DIMSTYLE
105
18
330
9
100
AcDbSymbolTableRecord
100
AcDbDimStyleTableRecord
  2
STANDARD
 70
     0
  3

  4

  5

  6

  7

 40
1.0
 41
0.18
 42
0.0625
 43
0.38
 44
0.18
 45
0.0
 46
0.0
 47
0.0
 48
0.0
140
0.18
141
0.09
142
0.0
143
25.4
144
1.0
145
0.0
146
1.0
147
0.09
 71
     0
 72
     0
 73
     1
 74
     1
 75
     0
 76
     0
 77
     0
 78
     0
170
     0
171
     2
172
     0
173
     0
174
     0
175
     0
176
     0
177
     0
178
     0
270
     2
271
     4
272
     4
273
     2
274
     2
340
17
275
     0
280
     0
281
     0
282
     0
283
     1
284
     0
285
     0
286
     0
287
     0
288
     0
  0
ENDTAB
  0
TABLE
  2
BLOCK_RECORD
  5
1
330
0
100
AcDbSymbolTable
 70
     0
  0
BLOCK_RECORD
  5
A
102
{ACAD_XDICTIONARY
360
F1
102
}
330
1
100
AcDbSymbolTableRecord
100
AcDbBlockTableRecord
  2
*MODEL_SPACE
  0
BLOCK_RECORD
  5
B
102
{ACAD_XDICTIONARY
360
F3
102
}
330
1
100
AcDbSymbolTableRecord
100
AcDbBlockTableRecord
  2
*PAPER_SPACE
  0
ENDTAB
  0
ENDSEC
  0
SECTION
  2
BLOCKS
  0
BLOCK
  5
D
330
A
100
AcDbEntity
  8
0
100
AcDbBlockBegin
  2
*MODEL_SPACE
 70
     0
 10
0.0
 20
0.0
 30
0.0
  3
*MODEL_SPACE
  1

  0
ENDBLK
  5
E
330
A
100
AcDbEntity
  8
0
100
AcDbBlockEnd
  0
BLOCK
  5
F
330
B
100
AcDbEntity
 67
     1
  8
0
100
AcDbBlockBegin
  2
*PAPER_SPACE
 70
     0
 10
0.0
 20
0.0
 30
0.0
  3
*PAPER_SPACE
  1

  0
ENDBLK
  5
10
330
B
100
AcDbEntity
 67
     1
  8
0
100
AcDbBlockEnd
  0
ENDSEC
  0
SECTION
  2
ENTITIES
  0
TEXT
  5
2B
330
A
100
AcDbEntity
  8
0
  6
CONTINUOUS
 62
     7
100
AcDbText
 10
4.958999999999999
 20
10.6805
 30
107374.1824
 40
0.1
  1
2
  7
ROMANC
100
AcDbText
  0
TEXT
  5
2C
330
A
100
AcDbEntity
  8
0
  6
CONTINUOUS
 62
     7
100
AcDbText
 10
2.005
 20
11.1285
 30
107374.1824
 40
0.3
  1
ESCALA  1:50
  7
ROMANC
100
AcDbText
  0
LWPOLYLINE
  5
2D
330
A
100
AcDbEntity
  8
0
  6
CONTINUOUS
 62
     7
100
AcDbPolyline
 90
        4
 70
     1
 43
0.0
 38
107374.1823999999
 10
-0.5249999999999995
 20
14.1075
 10
9.975000000000001
 20
14.1075
 10
9.975000000000001
 20
-0.7425000000000006
 10
-0.5249999999999995
 20
-0.7425000000000006
  0
TEXT
  5
2E
330
A
100
AcDbEntity
  8
0
  6
CONTINUOUS
 62
     7
100
AcDbText
 10
2.024
 20
10.4595
 30
107374.1824
 40
0.3
  1
S = 147 dm
  7
ROMANC
100
AcDbText
  0
TEXT
  5
2F
330
A
100
AcDbEntity
  8
0
  6
CONTINUOUS
 62
     7
100
AcDbText
 10
2.000999999999999
 20
9.889500000000001
 30
107374.1824
 40
0.3
  1
P = 49 dm
  7
ROMANC
100
AcDbText
  0
TEXT
  5
30
330
A
100
AcDbEntity
  8
0
  6
CONTINUOUS
 62
     7
100
AcDbText
 10
2.005
 20
11.7415
 30
107374.1824
 40
0.3
  1
TIPUS   NT147B
  7
ROMANC
100
AcDbText
  0
LINE
  5
32
330
A
100
AcDbEntity
  8
1
  6
CONTINUOUS
 62
     7
100
AcDbLine
 10
3.678
 20
6.034500000000001
 30
107374.1824
 11
3.678
 21
4.874500000000001
 31
107374.1824
  0
LINE
  5
33
330
A
100
AcDbEntity
  8
1
  6
CONTINUOUS
 62
     7
100
AcDbLine
 10
3.667999999999999
 20
6.034500000000001
 30
107374.1824
 11
3.667999999999999
 21
4.864499999999999
 31
107374.1824
  0
LWPOLYLINE
  5
34
330
A
100
AcDbEntity
  8
1
  6
CONTINUOUS
 62
     7
100
AcDbPolyline
 90
       25
 70
     0
 43
0.0
 38
107374.1824000014
 10
4.597967652545476
 20
6.034493457410952
 42
0.0268429999999925
 10
4.594047652545445
 20
6.107388457411454
 42
0.0272919999998818
 10
4.582293652545569
 20
6.179432457411002
 42
0.0275909999999992
 10
4.563124652545574
 20
6.248266457411031
 42
0.0289270000000097
 10
4.536339652545359
 20
6.314493457411654
 42
0.0295179999999836
 10
4.503322652545618
 20
6.374725457411186
 42
0.0316530000001393
 10
4.463236652545206
 20
6.430473457411699
 42
0.0324840000001391
 10
4.418590652545513
 20
6.478192457411421
 42
0.0350860000001274
 10
4.367967652545317
 20
6.519467457411508
 42
0.0359830000001401
 10
4.3145546525456
 20
6.55155445741135
 42
0.0382810000001753
 10
4.257024652545741
 20
6.57541145741134
 42
0.0389010000001577
 10
4.198238652545692
 20
6.589626457411382
 42
0.0398469999999626
 10
4.137967652545782
 20
6.594493457411426
 42
0.0398469999999626
 10
4.07769665254546
 20
6.589626457411422
 42
0.0389010000001577
 10
4.018910652545454
 20
6.575411457411416
 42
0.0382810000001753
 10
3.961380652545228
 20
6.551554457411308
 42
0.0359830000001401
 10
3.907967652545623
 20
6.519467457411558
 42
0.0350860000001274
 10
3.857344652545401
 20
6.478192457411351
 42
0.0324840000001391
 10
3.812698652545431
 20
6.430473457411442
 42
0.0316530000001393
 10
3.77261265254553
 20
6.374725457411607
 42
0.0295179999999836
 10
3.739595652545266
 20
6.314493457411069
 42
0.0289270000000097
 10
3.712810652545332
 20
6.248266457411015
 42
0.0275909999999992
 10
3.6936416525454
 20
6.179432457411142
 42
0.0272919999998818
 10
3.681887652545378
 20
6.107388457410937
 42
0.0268429999999925
 10
3.677967652545437
 20
6.034493457410952
210
0.0000000003012591
220
0.0000000000609326
230
1.0
  0
LWPOLYLINE
  5
4F
330
A
100
AcDbEntity
  8
1
  6
CONTINUOUS
 62
     7
100
AcDbPolyline
 90
       25
 70
     0
 43
0.0
 38
107374.182399999
 10
4.608031103810282
 20
6.03449227981589
 42
0.0269460000000008
 10
4.604025103810188
 20
6.108692279815972
 42
0.0273889999998661
 10
4.592016103810317
 20
6.182019279815523
 42
0.0276849999999392
 10
4.572427103810303
 20
6.252091279815582
 42
0.0290019999998462
 10
4.54506310381021
 20
6.319492279815788
 42
0.0295840000000914
 10
4.511320103810239
 20
6.380811279815705
 42
0.0316839999999573
 10
4.47037110381005
 20
6.437543279815871
 42
0.0325000000001464
 10
4.424742103810067
 20
6.486125279815817
 42
0.0350499999999175
 10
4.373031103810537
 20
6.528126279815414
 42
0.0359269999998474
 10
4.318445103810129
 20
6.560792279815669
 42
0.0381700000000069
 10
4.25967610381012
 20
6.585070279815659
 42
0.0387739999998752
 10
4.19960710381002
 20
6.599540279815625
 42
0.0396939999999915
 10
4.138031103810607
 20
6.604492279815584
 42
0.0396939999999915
 10
4.076455103810324
 20
6.599540279815591
 42
0.0387739999998752
 10
4.016386103810404
 20
6.5850702798156
 42
0.0381700000000069
 10
3.957617103810334
 20
6.560792279815624
 42
0.0359269999998474
 10
3.903031103810422
 20
6.52812627981569
 42
0.0350499999999175
 10
3.851320103810187
 20
6.486125279815528
 42
0.0325000000001464
 10
3.805691103809987
 20
6.437543279815271
 42
0.0316839999999573
 10
3.764742103810323
 20
6.380811279815592
 42
0.0295840000000914
 10
3.730999103810141
 20
6.319492279815237
 42
0.0290019999998462
 10
3.703635103810197
 20
6.25209127981537
 42
0.0276849999999392
 10
3.684046103810273
 20
6.182019279815617
 42
0.0273889999998661
 10
3.67203710381033
 20
6.108692279815888
 42
0.0269460000000008
 10
3.668031103810294
 20
6.03449227981589
210
-0.0000000002896768
220
0.0000000000718998
230
1.0
  0
LINE
  5
6A
330
A
100
AcDbEntity
  8
1
  6
CONTINUOUS
 62
     7
100
AcDbLine
 10
4.597999999999998
 20
4.874500000000001
 30
107374.1824
 11
4.597999999999998
 21
6.034500000000001
 31
107374.1824
  0
LINE
  5
6B
330
A
100
AcDbEntity
  8
1
  6
CONTINUOUS
 62
     7
100
AcDbLine
 10
4.607999999999999
 20
4.864499999999999
 30
107374.1824
 11
4.607999999999999
 21
6.034500000000001
 31
107374.1824
  0
LINE
  5
6C
330
A
100
AcDbEntity
  8
1
  6
CONTINUOUS
 62
     7
100
AcDbLine
 10
4.344999999999999
 20
4.874500000000001
 30
107374.1824
 11
4.597999999999998
 21
4.874500000000001
 31
107374.1824
  0
LINE
  5
6D
330
A
100
AcDbEntity
  8
1
  6
CONTINUOUS
 62
     7
100
AcDbLine
 10
4.352
 20
4.864499999999999
 30
107374.1824
 11
4.607999999999999
 21
4.864499999999999
 31
107374.1824
  0
LINE
  5
6E
330
A
100
AcDbEntity
  8
1
  6
CONTINUOUS
 62
     7
100
AcDbLine
 10
3.678
 20
4.874500000000001
 30
107374.1824
 11
3.930999999999999
 21
4.874500000000001
 31
107374.1824
  0
LINE
  5
6F
330
A
100
AcDbEntity
  8
1
  6
CONTINUOUS
 62
     7
100
AcDbLine
 10
3.667999999999999
 20
4.864499999999999
 30
107374.1824
 11
3.923999999999999
 21
4.864499999999999
 31
107374.1824
  0
ARC
  5
70
330
A
100
AcDbEntity
  8
1
  6
CONTINUOUS
 62
     7
100
AcDbCircle
 10
4.137999999999999
 20
4.942832999999999
 30
107374.1824
 40
0.218333
100
AcDbArc
 50
198.2387359999728
 51
341.7612639999423
  0
ARC
  5
71
330
A
100
AcDbEntity
  8
1
  6
CONTINUOUS
 62
     7
100
AcDbCircle
 10
4.137999999999999
 20
4.942832999999999
 30
107374.1824
 40
0.228333
100
AcDbArc
 50
200.0637640000271
 51
339.9362360000576
  0
LINE
  5
72
330
A
100
AcDbEntity
  8
1
  6
CONTINUOUS
 62
     7
100
AcDbLine
 10
3.688
 20
4.8845
 30
107374.1824
 11
3.938
 21
4.8845
 31
107374.1824
  0
LINE
  5
73
330
A
100
AcDbEntity
  8
1
  6
CONTINUOUS
 62
     7
100
AcDbLine
 10
4.338
 20
4.8845
 30
107374.1824
 11
4.587999999999999
 21
4.8845
 31
107374.1824
  0
TEXT
  5
74
330
A
100
AcDbEntity
  8
1
  6
CONTINUOUS
 62
     7
100
AcDbText
 10
4.016
 20
4.460499999999999
 30
107374.1824
 40
0.075
  1
0.40
  7
ROMANC
100
AcDbText
  0
LINE
  5
75
330
A
100
AcDbEntity
  8
1
  6
CONTINUOUS
 62
     7
100
AcDbLine
 10
3.788
 20
4.498499999999999
 30
107374.1824
 11
3.938
 21
4.498499999999999
 31
107374.1824
  0
LINE
  5
76
330
A
100
AcDbEntity
  8
1
  6
CONTINUOUS
 62
     7
100
AcDbLine
 10
4.487999999999999
 20
4.498499999999999
 30
107374.1824
 11
4.338
 21
4.498499999999999
 31
107374.1824
  0
LINE
  5
77
330
A
100
AcDbEntity
  8
1
  6
CONTINUOUS
 62
     7
100
AcDbLine
 10
3.975
 20
4.5175
 30
107374.1824
 11
3.901
 21
4.479499999999999
 31
107374.1824
  0
LINE
  5
78
330
A
100
AcDbEntity
  8
1
  6
CONTINUOUS
 62
     7
100
AcDbLine
 10
4.301
 20
4.479499999999999
 30
107374.1824
 11
4.375
 21
4.5175
 31
107374.1824
  0
LINE
  5
79
330
A
100
AcDbEntity
  8
1
  6
CONTINUOUS
 62
     7
100
AcDbLine
 10
3.938
 20
4.8465
 30
107374.1824
 11
3.938
 21
4.460499999999999
 31
107374.1824
  0
LINE
  5
7A
330
A
100
AcDbEntity
  8
1
  6
CONTINUOUS
 62
     7
100
AcDbLine
 10
4.338
 20
4.8465
 30
107374.1824
 11
4.338
 21
4.460499999999999
 31
107374.1824
  0
LINE
  5
7B
330
A
100
AcDbEntity
  8
1
  6
CONTINUOUS
 62
     7
100
AcDbLine
 10
4.587999999999999
 20
4.8845
 30
107374.1824
 11
4.587999999999999
 21
6.034500000000001
 31
107374.1824
  0
TEXT
  5
7C
330
A
100
AcDbEntity
  8
1
  6
CONTINUOUS
 62
     7
100
AcDbText
 10
4.019
 20
4.1525
 30
107374.1824
 40
0.075
  1
0.90
  7
ROMANC
100
AcDbText
  0
LINE
  5
7D
330
A
100
AcDbEntity
  8
1
  6
CONTINUOUS
 62
     7
100
AcDbLine
 10
3.981
 20
4.1895
 30
107374.1824
 11
3.688
 21
4.1895
 31
107374.1824
  0
LINE
  5
7E
330
A
100
AcDbEntity
  8
1
  6
CONTINUOUS
 62
     7
100
AcDbLine
 10
4.292999999999999
 20
4.1895
 30
107374.1824
 11
4.587999999999999
 21
4.1895
 31
107374.1824
  0
LINE
  5
7F
330
A
100
AcDbEntity
  8
1
  6
CONTINUOUS
 62
     7
100
AcDbLine
 10
3.651
 20
4.1705
 30
107374.1824
 11
3.725
 21
4.2085
 31
107374.1824
  0
LINE
  5
80
330
A
100
AcDbEntity
  8
1
  6
CONTINUOUS
 62
     7
100
AcDbLine
 10
4.625
 20
4.2085
 30
107374.1824
 11
4.551
 21
4.1705
 31
107374.1824
  0
LINE
  5
81
330
A
100
AcDbEntity
  8
1
  6
CONTINUOUS
 62
     7
100
AcDbLine
 10
3.688
 20
4.8465
 30
107374.1824
 11
3.688
 21
4.1515
 31
107374.1824
  0
LINE
  5
82
330
A
100
AcDbEntity
  8
1
  6
CONTINUOUS
 62
     7
100
AcDbLine
 10
4.587999999999999
 20
4.8465
 30
107374.1824
 11
4.587999999999999
 21
4.1515
 31
107374.1824
  0
ARC
  5
83
330
A
100
AcDbEntity
  8
1
  6
CONTINUOUS
 62
     7
100
AcDbCircle
 10
4.137999999999999
 20
4.942832999999999
 30
107374.1824
 40
0.208333
100
AcDbArc
 50
196.2602060000237
 51
343.7397940000611
  0
TEXT
  5
84
330
A
100
AcDbEntity
  8
1
  6
CONTINUOUS
 62
     7
100
AcDbText
 10
5.020999999999999
 20
5.0715
 30
107374.1824
 40
0.075
  1
0.15
 50
90.0
  7
ROMANC
100
AcDbText
  0
LINE
  5
85
330
A
100
AcDbEntity
  8
1
  6
CONTINUOUS
 62
     7
100
AcDbLine
 10
4.983999999999999
 20
4.957500000000001
 30
107374.1824
 11
4.983999999999999
 21
4.8845
 31
107374.1824
  0
LINE
  5
86
330
A
100
AcDbEntity
  8
1
  6
CONTINUOUS
 62
     7
100
AcDbLine
 10
4.983999999999999
 20
4.584500000000001
 30
107374.1824
 11
4.983999999999999
 21
4.7345
 31
107374.1824
  0
LINE
  5
87
330
A
100
AcDbEntity
  8
1
  6
CONTINUOUS
 62
     7
100
AcDbLine
 10
5.003
 20
4.8465
 30
107374.1824
 11
4.964999999999999
 21
4.9225
 31
107374.1824
  0
LINE
  5
88
330
A
100
AcDbEntity
  8
1
  6
CONTINUOUS
 62
     7
100
AcDbLine
 10
4.964999999999999
 20
4.7725
 30
107374.1824
 11
5.003
 21
4.6965
 31
107374.1824
  0
LINE
  5
89
330
A
100
AcDbEntity
  8
1
  6
CONTINUOUS
 62
     7
100
AcDbLine
 10
4.625999999999999
 20
4.8845
 30
107374.1824
 11
5.021999999999999
 21
4.8845
 31
107374.1824
  0
LINE
  5
8A
330
A
100
AcDbEntity
  8
1
  6
CONTINUOUS
 62
     7
100
AcDbLine
 10
4.171999999999999
 20
4.7345
 30
107374.1824
 11
5.021999999999999
 21
4.7345
 31
107374.1824
  0
TEXT
  5
8B
330
A
100
AcDbEntity
  8
1
  6
CONTINUOUS
 62
     7
100
AcDbText
 10
5.320999999999999
 20
5.358500000000001
 30
107374.1824
 40
0.075
  1
1.15
 50
90.0
  7
ROMANC
100
AcDbText
  0
LINE
  5
8C
330
A
100
AcDbEntity
  8
1
  6
CONTINUOUS
 62
     7
100
AcDbLine
 10
5.282999999999999
 20
5.3205
 30
107374.1824
 11
5.282999999999999
 21
4.8845
 31
107374.1824
  0
LINE
  5
8D
330
A
100
AcDbEntity
  8
1
  6
CONTINUOUS
 62
     7
100
AcDbLine
 10
5.282999999999999
 20
5.5975
 30
107374.1824
 11
5.282999999999999
 21
6.034500000000001
 31
107374.1824
  0
LINE
  5
8E
330
A
100
AcDbEntity
  8
1
  6
CONTINUOUS
 62
     7
100
AcDbLine
 10
5.301999999999999
 20
4.8465
 30
107374.1824
 11
5.263999999999999
 21
4.9225
 31
107374.1824
  0
LINE
  5
8F
330
A
100
AcDbEntity
  8
1
  6
CONTINUOUS
 62
     7
100
AcDbLine
 10
5.263999999999999
 20
6.072499999999999
 30
107374.1824
 11
5.301999999999999
 21
5.996500000000001
 31
107374.1824
  0
LINE
  5
90
330
A
100
AcDbEntity
  8
1
  6
CONTINUOUS
 62
     7
100
AcDbLine
 10
4.625999999999999
 20
4.8845
 30
107374.1824
 11
5.320999999999999
 21
4.8845
 31
107374.1824
  0
LINE
  5
91
330
A
100
AcDbEntity
  8
1
  6
CONTINUOUS
 62
     7
100
AcDbLine
 10
4.625999999999999
 20
6.034500000000001
 30
107374.1824
 11
5.320999999999999
 21
6.034500000000001
 31
107374.1824
  0
LWPOLYLINE
  5
92
330
A
100
AcDbEntity
  8
1
  6
CONTINUOUS
 62
     7
100
AcDbPolyline
 90
       25
 70
     0
 43
0.0
 38
107374.1824000016
 10
4.587949498769068
 20
6.034499999999801
 42
0.0267369999999358
 10
4.584115498769139
 20
6.106089999999741
 42
0.0271909999999403
 10
4.572616498769086
 20
6.176850000000278
 42
0.0274940000000598
 10
4.553867498769193
 20
6.244445999999867
 42
0.0288490000001377
 10
4.527660498768931
 20
6.309500000000347
 42
0.0294490000000161
 10
4.495369498769103
 20
6.368644000000045
 42
0.031620000000074
 10
4.456147498769111
 20
6.423408999999982
 42
0.0324659999999481
 10
4.412484498769101
 20
6.470264000000014
 42
0.0351220000000623
 10
4.362949498769265
 20
6.510813999999891
 42
0.0360410000001738
 10
4.310710498769178
 20
6.542320999999954
 42
0.0383970000000043
 10
4.254418498769288
 20
6.565758999999942
 42
0.0390339999998521
 10
4.196916498769215
 20
6.579718999999984
 42
0.0400059999998877
 10
4.13794949876935
 20
6.584499999999996
 42
0.0400059999998877
 10
4.078982498769228
 20
6.579719000000027
 42
0.0390339999998521
 10
4.021480498768997
 20
6.565758999999967
 42
0.0383970000000043
 10
3.965188498769157
 20
6.542321000000045
 42
0.0360410000001738
 10
3.912949498769172
 20
6.510814000000081
 42
0.0351220000000623
 10
3.86341449876898
 20
6.470263999999914
 42
0.0324659999999481
 10
3.819751498769187
 20
6.423409000000159
 42
0.031620000000074
 10
3.780529498768854
 20
6.368643999999641
 42
0.0294490000000161
 10
3.748238498769122
 20
6.309500000000173
 42
0.0288490000001377
 10
3.722031498769195
 20
6.244446000000416
 42
0.0274940000000598
 10
3.703282498768946
 20
6.176849999999592
 42
0.0271909999999403
 10
3.691783498769121
 20
6.106089999999632
 42
0.0267369999999358
 10
3.68794949876912
 20
6.034499999999801
210
0.0000000004703294
220
0.0
230
1.0
  0
TEXT
  5
AD
330
A
100
AcDbEntity
  8
1
  6
CONTINUOUS
 62
     7
100
AcDbText
 10
3.185
 20
5.5495
 30
107374.1824
 40
0.075
  1
1.85
 50
90.0
  7
ROMANC
100
AcDbText
  0
LINE
  5
AE
330
A
100
AcDbEntity
  8
1
  6
CONTINUOUS
 62
     7
100
AcDbLine
 10
3.148
 20
5.5115
 30
107374.1824
 11
3.148
 21
4.7345
 31
107374.1824
  0
LINE
  5
AF
330
A
100
AcDbEntity
  8
1
  6
CONTINUOUS
 62
     7
100
AcDbLine
 10
3.148
 20
5.8065
 30
107374.1824
 11
3.148
 21
6.5845
 31
107374.1824
  0
LINE
  5
B0
330
A
100
AcDbEntity
  8
1
  6
CONTINUOUS
 62
     7
100
AcDbLine
 10
3.167
 20
4.6965
 30
107374.1824
 11
3.129
 21
4.7725
 31
107374.1824
  0
LINE
  5
B1
330
A
100
AcDbEntity
  8
1
  6
CONTINUOUS
 62
     7
100
AcDbLine
 10
3.129
 20
6.6225
 30
107374.1824
 11
3.167
 21
6.546500000000001
 31
107374.1824
  0
LINE
  5
B2
330
A
100
AcDbEntity
  8
1
  6
CONTINUOUS
 62
     7
100
AcDbLine
 10
4.099
 20
4.7345
 30
107374.1824
 11
3.11
 21
4.7345
 31
107374.1824
  0
LINE
  5
B3
330
A
100
AcDbEntity
  8
1
  6
CONTINUOUS
 62
     7
100
AcDbLine
 10
4.115999999999999
 20
6.5845
 30
107374.1824
 11
3.11
 21
6.5845
 31
107374.1824
  0
LINE
  5
B4
330
A
100
AcDbEntity
  8
1
  6
CONTINUOUS
 62
     7
100
AcDbLine
 10
3.688
 20
6.034500000000001
 30
107374.1824
 11
3.688
 21
4.8845
 31
107374.1824
  0
TEXT
  5
B5
330
A
100
AcDbEntity
  8
1
  6
CONTINUOUS
 62
     7
100
AcDbText
 10
4.019
 20
6.8765
 30
107374.1824
 40
0.075
  1
0.90
  7
ROMANC
100
AcDbText
  0
LINE
  5
B6
330
A
100
AcDbEntity
  8
1
  6
CONTINUOUS
 62
     7
100
AcDbLine
 10
3.981
 20
6.9135
 30
107374.1824
 11
3.688
 21
6.9135
 31
107374.1824
  0
LINE
  5
B7
330
A
100
AcDbEntity
  8
1
  6
CONTINUOUS
 62
     7
100
AcDbLine
 10
4.292999999999999
 20
6.9135
 30
107374.1824
 11
4.587999999999999
 21
6.9135
 31
107374.1824
  0
LINE
  5
B8
330
A
100
AcDbEntity
  8
1
  6
CONTINUOUS
 62
     7
100
AcDbLine
 10
3.651
 20
6.8945
 30
107374.1824
 11
3.725
 21
6.9325
 31
107374.1824
  0
LINE
  5
B9
330
A
100
AcDbEntity
  8
1
  6
CONTINUOUS
 62
     7
100
AcDbLine
 10
4.625
 20
6.9325
 30
107374.1824
 11
4.551
 21
6.8945
 31
107374.1824
  0
LINE
  5
BA
330
A
100
AcDbEntity
  8
1
  6
CONTINUOUS
 62
     7
100
AcDbLine
 10
3.688
 20
6.072499999999999
 30
107374.1824
 11
3.688
 21
6.951500000000001
 31
107374.1824
  0
LINE
  5
BB
330
A
100
AcDbEntity
  8
1
  6
CONTINUOUS
 62
     7
100
AcDbLine
 10
4.587999999999999
 20
6.072499999999999
 30
107374.1824
 11
4.587999999999999
 21
6.951500000000001
 31
107374.1824
  0
ENDSEC
  0
SECTION
  2
OBJECTS
  0
DICTIONARY
  5
19
330
0
100
AcDbDictionary
  3
ACAD_GROUP
350
1A
  3
ACAD_LAYOUT
350
C0
  3
ACAD_MLINESTYLE
350
1B
  3
ACAD_PLOTSETTINGS
350
C1
  3
ACAD_PLOTSTYLENAME
350
BE
  3
ASE_INDEX_DICTIONARY
350
C8
  3
ACDBHEADERROUNDTRIPXREC
350
D1
  0
DICTIONARY
  5
F1
330
A
100
AcDbDictionary
280
     1
  3
ACAD_LAYOUTSELFREF
360
F2
  0
DICTIONARY
  5
F3
330
B
100
AcDbDictionary
280
     1
  3
ACAD_LAYOUTSELFREF
360
F4
  0
DICTIONARY
  5
1A
102
{ACAD_REACTORS
330
19
102
}
330
19
100
AcDbDictionary
  0
DICTIONARY
  5
C0
102
{ACAD_REACTORS
330
19
102
}
330
19
100
AcDbDictionary
  0
DICTIONARY
  5
1B
102
{ACAD_REACTORS
330
19
102
}
330
19
100
AcDbDictionary
  3
STANDARD
350
1C
  0
DICTIONARY
  5
C1
102
{ACAD_REACTORS
330
19
102
}
330
19
100
AcDbDictionary
  0
ACDBDICTIONARYWDFLT
  5
BE
102
{ACAD_REACTORS
330
19
102
}
330
19
100
AcDbDictionary
281
     1
  3
Normal
350
BF
100
AcDbDictionaryWithDefault
340
BF
  0
DICTIONARY
  5
C8
102
{ACAD_REACTORS
330
19
102
}
330
19
100
AcDbDictionary
  3
ASEBLOCKHIERARCHYINDEXRECORD
350
CA
1001
DCO15
1040
1440929449.968
  0
DICTIONARY
  5
D1
102
{ACAD_REACTORS
330
19
102
}
330
19
100
AcDbDictionary
  3
TSTACKALIGN
350
D2
  3
TSTACKSIZE
350
D3
  3
HYPERLINKBASE
350
D4
  3
STYLESHEET
350
D5
  3
LAYOUTDICT
350
D6
  3
PLOTSETDICT
350
D7
  3
PLOTSTYLNAMDICT
350
D8
  3
LWETCUNION
350
D9
  3
INSUNITS
350
DA
  3
CEPSNTYPE
350
DB
  3
FINGERPRINTGUID
350
DC
  3
VERSIONGUID
350
DD
  3
PSVPSCALE
350
DE
  3
PUCSORTHOREF
350
DF
  3
PUCSORTHOVIEW
350
E0
  3
PUCSBASE
350
E1
  3
PUCSORGTOP
350
E2
  3
PUCSORGBOTTOM
350
E3
  3
PUCSORGLEFT
350
E4
  3
PUCSORGRIGHT
350
E5
  3
PUCSORGFRONT
350
E6
  3
PUCSORGBACK
350
E7
  3
UCSORTHOREF
350
E8
  3
UCSORTHOVIEW
350
E9
  3
UCSBASE
350
EA
  3
UCSORGTOP
350
EB
  3
UCSORGBOTTOM
350
EC
  3
UCSORGLEFT
350
ED
  3
UCSORGRIGHT
350
EE
  3
UCSORGFRONT
350
EF
  3
UCSORGBACK
350
F0
  0
XRECORD
  5
F2
102
{ACAD_REACTORS
330
F1
102
}
330
F1
100
AcDbXrecord
340
A
  0
XRECORD
  5
F4
102
{ACAD_REACTORS
330
F3
102
}
330
F3
100
AcDbXrecord
340
B
  0
MLINESTYLE
  5
1C
102
{ACAD_REACTORS
330
1B
102
}
330
1B
100
AcDbMlineStyle
  2
STANDARD
 70
     0
  3

 62
     0
 51
90.00000000000019
 52
90.00000000000019
 71
     2
 49
0.5
 62
   256
  6
BYLAYER
 49
-0.5
 62
   256
  6
BYLAYER
  0
ACDBPLACEHOLDER
  5
BF
102
{ACAD_REACTORS
330
BE
102
}
330
BE
100
AcDbPlaceHolder
280
     0
  0
XRECORD
  5
CA
102
{ACAD_REACTORS
330
C8
102
}
330
C8
100
AcDbXrecord
  0
XRECORD
  5
D2
102
{ACAD_REACTORS
330
D1
102
}
330
D1
100
AcDbXrecord
 90
        1
  0
XRECORD
  5
D3
102
{ACAD_REACTORS
330
D1
102
}
330
D1
100
AcDbXrecord
 90
       70
  0
XRECORD
  5
D4
102
{ACAD_REACTORS
330
D1
102
}
330
D1
100
AcDbXrecord
  1

  0
XRECORD
  5
D5
102
{ACAD_REACTORS
330
D1
102
}
330
D1
100
AcDbXrecord
  1

  0
XRECORD
  5
D6
102
{ACAD_REACTORS
330
D1
102
}
330
D1
100
AcDbXrecord
340
C0
  0
XRECORD
  5
D7
102
{ACAD_REACTORS
330
D1
102
}
330
D1
100
AcDbXrecord
340
C1
  0
XRECORD
  5
D8
102
{ACAD_REACTORS
330
D1
102
}
330
D1
100
AcDbXrecord
340
BE
  0
XRECORD
  5
D9
102
{ACAD_REACTORS
330
D1
102
}
330
D1
100
AcDbXrecord
 90
    14877
  0
XRECORD
  5
DA
102
{ACAD_REACTORS
330
D1
102
}
330
D1
100
AcDbXrecord
 90
        0
  0
XRECORD
  5
DB
102
{ACAD_REACTORS
330
D1
102
}
330
D1
100
AcDbXrecord
 90
        0
  0
XRECORD
  5
DC
102
{ACAD_REACTORS
330
D1
102
}
330
D1
100
AcDbXrecord
  1
{B0007B3C-5C9D-4A55-81C0-B0B2CBDA52F0}
  0
XRECORD
  5
DD
102
{ACAD_REACTORS
330
D1
102
}
330
D1
100
AcDbXrecord
  1
{2BF357E3-8B49-4718-B981-F9620A13F9E3}
  0
XRECORD
  5
DE
102
{ACAD_REACTORS
330
D1
102
}
330
D1
100
AcDbXrecord
 40
0.0
  0
XRECORD
  5
DF
102
{ACAD_REACTORS
330
D1
102
}
330
D1
100
AcDbXrecord
340
0
  0
XRECORD
  5
E0
102
{ACAD_REACTORS
330
D1
102
}
330
D1
100
AcDbXrecord
 70
     0
  0
XRECORD
  5
E1
102
{ACAD_REACTORS
330
D1
102
}
330
D1
100
AcDbXrecord
340
0
  0
XRECORD
  5
E2
102
{ACAD_REACTORS
330
D1
102
}
330
D1
100
AcDbXrecord
 10
0.0
 20
0.0
 30
0.0
  0
XRECORD
  5
E3
102
{ACAD_REACTORS
330
D1
102
}
330
D1
100
AcDbXrecord
 10
0.0
 20
0.0
 30
0.0
  0
XRECORD
  5
E4
102
{ACAD_REACTORS
330
D1
102
}
330
D1
100
AcDbXrecord
 10
0.0
 20
0.0
 30
0.0
  0
XRECORD
  5
E5
102
{ACAD_REACTORS
330
D1
102
}
330
D1
100
AcDbXrecord
 10
0.0
 20
0.0
 30
0.0
  0
XRECORD
  5
E6
102
{ACAD_REACTORS
330
D1
102
}
330
D1
100
AcDbXrecord
 10
0.0
 20
0.0
 30
0.0
  0
XRECORD
  5
E7
102
{ACAD_REACTORS
330
D1
102
}
330
D1
100
AcDbXrecord
 10
0.0
 20
0.0
 30
0.0
  0
XRECORD
  5
E8
102
{ACAD_REACTORS
330
D1
102
}
330
D1
100
AcDbXrecord
340
0
  0
XRECORD
  5
E9
102
{ACAD_REACTORS
330
D1
102
}
330
D1
100
AcDbXrecord
 70
     0
  0
XRECORD
  5
EA
102
{ACAD_REACTORS
330
D1
102
}
330
D1
100
AcDbXrecord
340
0
  0
XRECORD
  5
EB
102
{ACAD_REACTORS
330
D1
102
}
330
D1
100
AcDbXrecord
 10
0.0
 20
0.0
 30
0.0
  0
XRECORD
  5
EC
102
{ACAD_REACTORS
330
D1
102
}
330
D1
100
AcDbXrecord
 10
0.0
 20
0.0
 30
0.0
  0
XRECORD
  5
ED
102
{ACAD_REACTORS
330
D1
102
}
330
D1
100
AcDbXrecord
 10
0.0
 20
0.0
 30
0.0
  0
XRECORD
  5
EE
102
{ACAD_REACTORS
330
D1
102
}
330
D1
100
AcDbXrecord
 10
0.0
 20
0.0
 30
0.0
  0
XRECORD
  5
EF
102
{ACAD_REACTORS
330
D1
102
}
330
D1
100
AcDbXrecord
 10
0.0
 20
0.0
 30
0.0
  0
XRECORD
  5
F0
102
{ACAD_REACTORS
330
D1
102
}
330
D1
100
AcDbXrecord
 10
0.0
 20
0.0
 30
0.0
  0
ENDSEC
  0
EOF
