  0
SECTION
  2
HEADER
  9
$ACADVER
  1
AC1009
  9
$INSBASE
 10
105.464027
 20
-4.528761
 30
0.0
  9
$EXTMIN
 10
280.96095
 20
29.423763
 30
0.0
  9
$EXTMAX
 10
291.46095
 20
44.273763
 30
0.0
  9
$LIMMIN
 10
0.0
 20
0.0
  9
$LIMMAX
 10
410.0
 20
287.0
  9
$ORTHOMODE
 70
     1
  9
$REGENMODE
 70
     1
  9
$FILLMODE
 70
     1
  9
$QTEXTMODE
 70
     0
  9
$MIRRTEXT
 70
     1
  9
$DRAGMODE
 70
     2
  9
$LTSCALE
 40
25.0
  9
$OSMODE
 70
     0
  9
$ATTMODE
 70
     1
  9
$TEXTSIZE
 40
0.1
  9
$TRACEWID
 40
1.0
  9
$TEXTSTYLE
  7
ROMANC
  9
$CLAYER
  8
0
  9
$CELTYPE
  6
BYLAYER
  9
$CECOLOR
 62
   256
  9
$DIMSCALE
 40
1.5
  9
$DIMASZ
 40
0.1
  9
$DIMEXO
 40
0.01
  9
$DIMDLI
 40
7.0
  9
$DIMRND
 40
0.0
  9
$DIMDLE
 40
0.0
  9
$DIMEXE
 40
0.01
  9
$DIMTP
 40
0.0
  9
$DIMTM
 40
0.0
  9
$DIMTXT
 40
0.05
  9
$DIMCEN
 40
0.1
  9
$DIMTSZ
 40
0.0
  9
$DIMTOL
 70
     0
  9
$DIMLIM
 70
     0
  9
$DIMTIH
 70
     0
  9
$DIMTOH
 70
     0
  9
$DIMSE1
 70
     0
  9
$DIMSE2
 70
     0
  9
$DIMTAD
 70
     1
  9
$DIMZIN
 70
     0
  9
$DIMBLK
  1

  9
$DIMASO
 70
     1
  9
$DIMSHO
 70
     0
  9
$DIMPOST
  1

  9
$DIMAPOST
  1

  9
$DIMALT
 70
     0
  9
$DIMALTD
 70
     2
  9
$DIMALTF
 40
25.4
  9
$DIMLFAC
 40
1.0
  9
$DIMTOFL
 70
     1
  9
$DIMTVP
 40
0.0
  9
$DIMTIX
 70
     1
  9
$DIMSOXD
 70
     0
  9
$DIMSAH
 70
     0
  9
$DIMBLK1
  1

  9
$DIMBLK2
  1

  9
$DIMSTYLE
  2
*UNNAMED
  9
$DIMCLRD
 70
     0
  9
$DIMCLRE
 70
     0
  9
$DIMCLRT
 70
     0
  9
$DIMTFAC
 40
70.0
  9
$DIMGAP
 40
0.09
  9
$LUNITS
 70
     2
  9
$LUPREC
 70
     2
  9
$SKETCHINC
 40
1.0
  9
$FILLETRAD
 40
0.0
  9
$AUNITS
 70
     0
  9
$AUPREC
 70
     0
  9
$MENU
  1
acad
  9
$ELEVATION
 40
0.0
  9
$PELEVATION
 40
0.0
  9
$THICKNESS
 40
0.0
  9
$LIMCHECK
 70
     0
  9
$BLIPMODE
 70
     0
  9
$CHAMFERA
 40
0.0
  9
$CHAMFERB
 40
0.0
  9
$SKPOLY
 70
     0
  9
$TDCREATE
 40
2450305.554557986
  9
$TDUPDATE
 40
2450827.474148727
  9
$TDINDWG
 40
0.0882596065
  9
$TDUSRTIMER
 40
0.0882596065
  9
$USRTIMER
 70
     1
  9
$ANGBASE
 50
0.0
  9
$ANGDIR
 70
     0
  9
$PDMODE
 70
     0
  9
$PDSIZE
 40
0.0
  9
$PLINEWID
 40
0.0
  9
$COORDS
 70
     2
  9
$SPLFRAME
 70
     0
  9
$SPLINETYPE
 70
     6
  9
$SPLINESEGS
 70
     8
  9
$ATTDIA
 70
     0
  9
$ATTREQ
 70
     1
  9
$HANDLING
 70
     0
  9
$HANDSEED
  5
0
  9
$SURFTAB1
 70
     6
  9
$SURFTAB2
 70
     6
  9
$SURFTYPE
 70
     6
  9
$SURFU
 70
     6
  9
$SURFV
 70
     6
  9
$UCSNAME
  2

  9
$UCSORG
 10
0.0
 20
0.0
 30
0.0
  9
$UCSXDIR
 10
1.0
 20
0.0
 30
0.0
  9
$UCSYDIR
 10
0.0
 20
1.0
 30
0.0
  9
$PUCSNAME
  2

  9
$PUCSORG
 10
0.0
 20
0.0
 30
0.0
  9
$PUCSXDIR
 10
1.0
 20
0.0
 30
0.0
  9
$PUCSYDIR
 10
0.0
 20
1.0
 30
0.0
  9
$USERI1
 70
     0
  9
$USERI2
 70
     0
  9
$USERI3
 70
     0
  9
$USERI4
 70
     0
  9
$USERI5
 70
     0
  9
$USERR1
 40
0.0
  9
$USERR2
 40
0.0
  9
$USERR3
 40
0.0
  9
$USERR4
 40
0.0
  9
$USERR5
 40
0.0
  9
$WORLDVIEW
 70
     1
  9
$SHADEDGE
 70
     3
  9
$SHADEDIF
 70
    70
  9
$TILEMODE
 70
     1
  9
$MAXACTVP
 70
    16
  9
$PINSBASE
 10
0.0
 20
0.0
 30
0.0
  9
$PLIMCHECK
 70
     0
  9
$PEXTMIN
 10
1.000000E+20
 20
1.000000E+20
 30
1.000000E+20
  9
$PEXTMAX
 10
-1.000000E+20
 20
-1.000000E+20
 30
-1.000000E+20
  9
$PLIMMIN
 10
0.0
 20
0.0
  9
$PLIMMAX
 10
12.0
 20
9.0
  9
$UNITMODE
 70
     0
  9
$VISRETAIN
 70
     0
  9
$PLINEGEN
 70
     0
  9
$PSLTSCALE
 70
     0
  9
$TREEDEPTH
 70
  3020
  9
$DWGCODEPAGE
  3
iso8859-1
  0
ENDSEC
  0
SECTION
  2
TABLES
  0
TABLE
  2
VPORT
 70
     2
  0
VPORT
  2
*ACTIVE
 70
     0
 10
0.0
 20
0.0
 11
1.0
 21
1.0
 12
292.9228
 22
36.848763
 13
0.0
 23
0.0
 14
1.0
 24
1.0
 15
10.0
 25
10.0
 16
0.0
 26
0.0
 36
1.0
 17
0.0
 27
0.0
 37
0.0
 40
14.85
 41
1.611024
 42
50.0
 43
0.0
 44
0.0
 50
0.0
 51
0.0
 71
     0
 72
   100
 73
     1
 74
     0
 75
     0
 76
     0
 77
     0
 78
     1
  0
ENDTAB
  0
TABLE
  2
LTYPE
 70
     1
  0
LTYPE
  2
CONTINUOUS
 70
    64
  3
Solid line
 72
    65
 73
     0
 40
0.0
  0
ENDTAB
  0
TABLE
  2
LAYER
 70
     3
  0
LAYER
  2
0
 70
    64
 62
     7
  6
CONTINUOUS
  0
LAYER
  2
MESURA
 70
     0
 62
     7
  6
CONTINUOUS
  0
LAYER
  2
DEFPOINTS
 70
    64
 62
     7
  6
CONTINUOUS
  0
ENDTAB
  0
TABLE
  2
STYLE
 70
     2
  0
STYLE
  2
STANDARD
 70
     0
 40
0.0
 41
1.0
 50
0.0
 71
     0
 42
0.1
  3
txt
  4

  0
STYLE
  2
ROMANC
 70
    64
 40
0.0
 41
1.0
 50
0.0
 71
     0
 42
0.1
  3
romanc
  4

  0
ENDTAB
  0
TABLE
  2
VIEW
 70
     0
  0
ENDTAB
  0
TABLE
  2
UCS
 70
     0
  0
ENDTAB
  0
TABLE
  2
APPID
 70
     1
  0
APPID
  2
ACAD
 70
    64
  0
ENDTAB
  0
TABLE
  2
DIMSTYLE
 70
     1
  0
DIMSTYLE
  2
SILVIA
 70
     0
  3

  4

  5

  6

  7

 40
1.5
 41
0.1
 42
0.01
 43
7.0
 44
0.01
 45
0.0
 46
0.0
 47
0.0
 48
0.0
140
0.05
141
0.1
142
0.0
143
25.4
144
1.0
145
0.0
146
70.0
147
0.09
 71
     0
 72
     0
 73
     0
 74
     0
 75
     0
 76
     0
 77
     1
 78
     0
170
     0
171
     2
172
     1
173
     0
174
     1
175
     0
176
     0
177
     0
178
     0
  0
ENDTAB
  0
ENDSEC
  0
SECTION
  2
BLOCKS
  0
BLOCK
  8
0
  2
*D1
 70
    65
 10
0.0
 20
0.0
 30
0.0
  3
*D
  0
LINE
  8
0
  6
BYBLOCK
 62
     0
 10
286.152221
 20
34.958082
 30
0.0
 11
286.152221
 21
34.507374
 31
0.0
  0
LINE
  8
0
  6
BYBLOCK
 62
     0
 10
286.552221
 20
34.958082
 30
0.0
 11
286.552221
 21
34.507374
 31
0.0
  0
LINE
  8
0
  6
BYBLOCK
 62
     0
 10
286.002221
 20
34.522374
 30
0.0
 11
285.852221
 21
34.522374
 31
0.0
  0
LINE
  8
0
  6
BYBLOCK
 62
     0
 10
286.702221
 20
34.522374
 30
0.0
 11
286.852221
 21
34.522374
 31
0.0
  0
SOLID
  8
0
  6
BYBLOCK
 62
     0
 10
286.002221
 20
34.547374
 30
0.0
 11
286.002221
 21
34.497374
 31
0.0
 12
286.152221
 22
34.522374
 32
0.0
 13
286.152221
 23
34.522374
 33
0.0
  0
SOLID
  8
0
  6
BYBLOCK
 62
     0
 10
286.702221
 20
34.547374
 30
0.0
 11
286.702221
 21
34.497374
 31
0.0
 12
286.552221
 22
34.522374
 32
0.0
 13
286.552221
 23
34.522374
 33
0.0
  0
LINE
  8
0
  6
BYBLOCK
 62
     0
 10
286.152221
 20
34.522374
 30
0.0
 11
286.552221
 21
34.522374
 31
0.0
  0
TEXT
  8
0
  6
BYBLOCK
 62
     0
 10
286.227221
 20
34.559874
 30
0.0
 40
0.075
  1
0.40
  7
ROMANC
 72
     1
 11
286.352221
 21
34.597374
 31
0.0
 73
     2
  0
POINT
  8
DEFPOINTS
  6
BYBLOCK
 62
     0
 10
286.152221
 20
34.973082
 30
0.0
  0
POINT
  8
DEFPOINTS
  6
BYBLOCK
 62
     0
 10
286.552221
 20
34.973082
 30
0.0
  0
POINT
  8
DEFPOINTS
  6
BYBLOCK
 62
     0
 10
286.552221
 20
34.522374
 30
0.0
  0
ENDBLK
  8
0
  0
BLOCK
  8
0
  2
*D2
 70
    65
 10
0.0
 20
0.0
 30
0.0
  3
*D
  0
LINE
  8
0
  6
BYBLOCK
 62
     0
 10
285.652221
 20
34.958082
 30
0.0
 11
285.652221
 21
34.210004
 31
0.0
  0
LINE
  8
0
  6
BYBLOCK
 62
     0
 10
287.052221
 20
34.958082
 30
0.0
 11
287.052221
 21
34.210004
 31
0.0
  0
LINE
  8
0
  6
BYBLOCK
 62
     0
 10
285.802221
 20
34.225004
 30
0.0
 11
286.902221
 21
34.225004
 31
0.0
  0
SOLID
  8
0
  6
BYBLOCK
 62
     0
 10
285.802221
 20
34.250004
 30
0.0
 11
285.802221
 21
34.200004
 31
0.0
 12
285.652221
 22
34.225004
 32
0.0
 13
285.652221
 23
34.225004
 33
0.0
  0
SOLID
  8
0
  6
BYBLOCK
 62
     0
 10
286.902221
 20
34.250004
 30
0.0
 11
286.902221
 21
34.200004
 31
0.0
 12
287.052221
 22
34.225004
 32
0.0
 13
287.052221
 23
34.225004
 33
0.0
  0
TEXT
  8
0
  6
BYBLOCK
 62
     0
 10
286.221863
 20
34.262504
 30
0.0
 40
0.075
  1
1.40
  7
ROMANC
 72
     1
 11
286.352221
 21
34.300004
 31
0.0
 73
     2
  0
POINT
  8
DEFPOINTS
  6
BYBLOCK
 62
     0
 10
285.652221
 20
34.973082
 30
0.0
  0
POINT
  8
DEFPOINTS
  6
BYBLOCK
 62
     0
 10
287.052221
 20
34.973082
 30
0.0
  0
POINT
  8
DEFPOINTS
  6
BYBLOCK
 62
     0
 10
287.052221
 20
34.225004
 30
0.0
  0
ENDBLK
  8
0
  0
BLOCK
  8
0
  2
*D6
 70
    65
 10
0.0
 20
0.0
 30
0.0
  3
*D
  0
LINE
  8
0
  6
BYBLOCK
 62
     0
 10
287.117221
 20
35.573082
 30
0.0
 11
287.487983
 21
35.573082
 31
0.0
  0
LINE
  8
0
  6
BYBLOCK
 62
     0
 10
287.067221
 20
34.973082
 30
0.0
 11
287.487983
 21
34.973082
 31
0.0
  0
LINE
  8
0
  6
BYBLOCK
 62
     0
 10
287.472983
 20
35.723082
 30
0.0
 11
287.472983
 21
35.873082
 31
0.0
  0
LINE
  8
0
  6
BYBLOCK
 62
     0
 10
287.472983
 20
34.823082
 30
0.0
 11
287.472983
 21
34.673082
 31
0.0
  0
SOLID
  8
0
  6
BYBLOCK
 62
     0
 10
287.447983
 20
35.723082
 30
0.0
 11
287.497983
 21
35.723082
 31
0.0
 12
287.472983
 22
35.573082
 32
0.0
 13
287.472983
 23
35.573082
 33
0.0
  0
SOLID
  8
0
  6
BYBLOCK
 62
     0
 10
287.447983
 20
34.823082
 30
0.0
 11
287.497983
 21
34.823082
 31
0.0
 12
287.472983
 22
34.973082
 32
0.0
 13
287.472983
 23
34.973082
 33
0.0
  0
LINE
  8
0
  6
BYBLOCK
 62
     0
 10
287.472983
 20
35.573082
 30
0.0
 11
287.472983
 21
34.973082
 31
0.0
  0
TEXT
  8
0
  6
BYBLOCK
 62
     0
 10
287.435483
 20
35.148082
 30
0.0
 40
0.075
  1
0.60
 50
90.0
  7
ROMANC
 72
     1
 11
287.397983
 21
35.273082
 31
0.0
 73
     2
  0
POINT
  8
DEFPOINTS
  6
BYBLOCK
 62
     0
 10
287.102221
 20
35.573082
 30
0.0
  0
POINT
  8
DEFPOINTS
  6
BYBLOCK
 62
     0
 10
287.052221
 20
34.973082
 30
0.0
  0
POINT
  8
DEFPOINTS
  6
BYBLOCK
 62
     0
 10
287.472983
 20
34.973082
 30
0.0
  0
ENDBLK
  8
0
  0
BLOCK
  8
0
  2
*D9
 70
    65
 10
0.0
 20
0.0
 30
0.0
  3
*D
  0
LINE
  8
0
  6
BYBLOCK
 62
     0
 10
286.567221
 20
34.973082
 30
0.0
 11
287.487983
 21
34.973082
 31
0.0
  0
LINE
  8
0
  6
BYBLOCK
 62
     0
 10
286.367221
 20
34.823082
 30
0.0
 11
287.487983
 21
34.823082
 31
0.0
  0
LINE
  8
0
  6
BYBLOCK
 62
     0
 10
287.472983
 20
35.123082
 30
0.0
 11
287.472983
 21
35.273082
 31
0.0
  0
LINE
  8
0
  6
BYBLOCK
 62
     0
 10
287.472983
 20
34.673082
 30
0.0
 11
287.472983
 21
34.523082
 31
0.0
  0
SOLID
  8
0
  6
BYBLOCK
 62
     0
 10
287.447983
 20
35.123082
 30
0.0
 11
287.497983
 21
35.123082
 31
0.0
 12
287.472983
 22
34.973082
 32
0.0
 13
287.472983
 23
34.973082
 33
0.0
  0
SOLID
  8
0
  6
BYBLOCK
 62
     0
 10
287.447983
 20
34.673082
 30
0.0
 11
287.497983
 21
34.673082
 31
0.0
 12
287.472983
 22
34.823082
 32
0.0
 13
287.472983
 23
34.823082
 33
0.0
  0
LINE
  8
0
  6
BYBLOCK
 62
     0
 10
287.472983
 20
34.973082
 30
0.0
 11
287.472983
 21
34.823082
 31
0.0
  0
TEXT
  8
0
  6
BYBLOCK
 62
     0
 10
287.435483
 20
34.551015
 30
0.0
 40
0.075
  1
0.15
 50
90.0
  7
ROMANC
 72
     1
 11
287.397983
 21
34.676015
 31
0.0
 73
     2
  0
POINT
  8
DEFPOINTS
  6
BYBLOCK
 62
     0
 10
286.552221
 20
34.973082
 30
0.0
  0
POINT
  8
DEFPOINTS
  6
BYBLOCK
 62
     0
 10
286.352221
 20
34.823082
 30
0.0
  0
POINT
  8
DEFPOINTS
  6
BYBLOCK
 62
     0
 10
287.472983
 20
34.823082
 30
0.0
  0
ENDBLK
  8
0
  0
BLOCK
  8
0
  2
*D11
 70
    65
 10
0.0
 20
0.0
 30
0.0
  3
*D
  0
LINE
  8
0
  6
BYBLOCK
 62
     0
 10
285.602221
 20
35.588082
 30
0.0
 11
285.602221
 21
36.381436
 31
0.0
  0
LINE
  8
0
  6
BYBLOCK
 62
     0
 10
287.102221
 20
35.588082
 30
0.0
 11
287.102221
 21
36.381436
 31
0.0
  0
LINE
  8
0
  6
BYBLOCK
 62
     0
 10
285.752221
 20
36.366436
 30
0.0
 11
286.952221
 21
36.366436
 31
0.0
  0
SOLID
  8
0
  6
BYBLOCK
 62
     0
 10
285.752221
 20
36.391436
 30
0.0
 11
285.752221
 21
36.341436
 31
0.0
 12
285.602221
 22
36.366436
 32
0.0
 13
285.602221
 23
36.366436
 33
0.0
  0
SOLID
  8
0
  6
BYBLOCK
 62
     0
 10
286.952221
 20
36.391436
 30
0.0
 11
286.952221
 21
36.341436
 31
0.0
 12
287.102221
 22
36.366436
 32
0.0
 13
287.102221
 23
36.366436
 33
0.0
  0
TEXT
  8
0
  6
BYBLOCK
 62
     0
 10
286.221863
 20
36.403936
 30
0.0
 40
0.075
  1
1.50
  7
ROMANC
 72
     1
 11
286.352221
 21
36.441436
 31
0.0
 73
     2
  0
POINT
  8
DEFPOINTS
  6
BYBLOCK
 62
     0
 10
285.602221
 20
35.573082
 30
0.0
  0
POINT
  8
DEFPOINTS
  6
BYBLOCK
 62
     0
 10
287.102221
 20
35.573082
 30
0.0
  0
POINT
  8
DEFPOINTS
  6
BYBLOCK
 62
     0
 10
287.102221
 20
36.366436
 30
0.0
  0
ENDBLK
  8
0
  0
BLOCK
  8
0
  2
*D12
 70
    65
 10
0.0
 20
0.0
 30
0.0
  3
*D
  0
LINE
  8
0
  6
BYBLOCK
 62
     0
 10
286.367221
 20
36.173082
 30
0.0
 11
287.858448
 21
36.173082
 31
0.0
  0
LINE
  8
0
  6
BYBLOCK
 62
     0
 10
286.367221
 20
34.823082
 30
0.0
 11
287.858448
 21
34.823082
 31
0.0
  0
LINE
  8
0
  6
BYBLOCK
 62
     0
 10
287.843448
 20
36.023082
 30
0.0
 11
287.843448
 21
34.973082
 31
0.0
  0
SOLID
  8
0
  6
BYBLOCK
 62
     0
 10
287.818448
 20
36.023082
 30
0.0
 11
287.868448
 21
36.023082
 31
0.0
 12
287.843448
 22
36.173082
 32
0.0
 13
287.843448
 23
36.173082
 33
0.0
  0
SOLID
  8
0
  6
BYBLOCK
 62
     0
 10
287.818448
 20
34.973082
 30
0.0
 11
287.868448
 21
34.973082
 31
0.0
 12
287.843448
 22
34.823082
 32
0.0
 13
287.843448
 23
34.823082
 33
0.0
  0
TEXT
  8
0
  6
BYBLOCK
 62
     0
 10
287.805948
 20
35.367724
 30
0.0
 40
0.075
  1
1.35
 50
90.0
  7
ROMANC
 72
     1
 11
287.768448
 21
35.498082
 31
0.0
 73
     2
  0
POINT
  8
DEFPOINTS
  6
BYBLOCK
 62
     0
 10
286.352221
 20
36.173082
 30
0.0
  0
POINT
  8
DEFPOINTS
  6
BYBLOCK
 62
     0
 10
286.352221
 20
34.823082
 30
0.0
  0
POINT
  8
DEFPOINTS
  6
BYBLOCK
 62
     0
 10
287.843448
 20
34.823082
 30
0.0
  0
ENDBLK
  8
0
  0
BLOCK
  8
0
  2
*D13
 70
    65
 10
0.0
 20
0.0
 30
0.0
  3
*D
  0
LINE
  8
0
  6
BYBLOCK
 62
     0
 10
285.948001
 20
35.934577
 30
0.0
 11
285.948001
 21
36.596221
 31
0.0
  0
LINE
  8
0
  6
BYBLOCK
 62
     0
 10
286.948001
 20
35.934577
 30
0.0
 11
286.948001
 21
36.596221
 31
0.0
  0
LINE
  8
0
  6
BYBLOCK
 62
     0
 10
286.098001
 20
36.581221
 30
0.0
 11
286.798001
 21
36.581221
 31
0.0
  0
SOLID
  8
0
  6
BYBLOCK
 62
     0
 10
286.098001
 20
36.606221
 30
0.0
 11
286.098001
 21
36.556221
 31
0.0
 12
285.948001
 22
36.581221
 32
0.0
 13
285.948001
 23
36.581221
 33
0.0
  0
SOLID
  8
0
  6
BYBLOCK
 62
     0
 10
286.798001
 20
36.606221
 30
0.0
 11
286.798001
 21
36.556221
 31
0.0
 12
286.948001
 22
36.581221
 32
0.0
 13
286.948001
 23
36.581221
 33
0.0
  0
TEXT
  8
0
  6
BYBLOCK
 62
     0
 10
286.317644
 20
36.618721
 30
0.0
 40
0.075
  1
1.00
  7
ROMANC
 72
     1
 11
286.448001
 21
36.656221
 31
0.0
 73
     2
  0
POINT
  8
DEFPOINTS
  6
BYBLOCK
 62
     0
 10
285.948001
 20
35.919577
 30
0.0
  0
POINT
  8
DEFPOINTS
  6
BYBLOCK
 62
     0
 10
286.948001
 20
35.919577
 30
0.0
  0
POINT
  8
DEFPOINTS
  6
BYBLOCK
 62
     0
 10
286.948001
 20
36.581221
 30
0.0
  0
ENDBLK
  8
0
  0
BLOCK
  8
0
  2
*D14
 70
    65
 10
0.0
 20
0.0
 30
0.0
  3
*D
  0
LINE
  8
0
  6
BYBLOCK
 62
     0
 10
286.048001
 20
34.804577
 30
0.0
 11
286.048001
 21
34.110972
 31
0.0
  0
LINE
  8
0
  6
BYBLOCK
 62
     0
 10
286.848001
 20
34.804577
 30
0.0
 11
286.848001
 21
34.110972
 31
0.0
  0
LINE
  8
0
  6
BYBLOCK
 62
     0
 10
286.198001
 20
34.125972
 30
0.0
 11
286.698001
 21
34.125972
 31
0.0
  0
SOLID
  8
0
  6
BYBLOCK
 62
     0
 10
286.198001
 20
34.150972
 30
0.0
 11
286.198001
 21
34.100972
 31
0.0
 12
286.048001
 22
34.125972
 32
0.0
 13
286.048001
 23
34.125972
 33
0.0
  0
SOLID
  8
0
  6
BYBLOCK
 62
     0
 10
286.698001
 20
34.150972
 30
0.0
 11
286.698001
 21
34.100972
 31
0.0
 12
286.848001
 22
34.125972
 32
0.0
 13
286.848001
 23
34.125972
 33
0.0
  0
TEXT
  8
0
  6
BYBLOCK
 62
     0
 10
286.323001
 20
34.163472
 30
0.0
 40
0.075
  1
0.80
  7
ROMANC
 72
     1
 11
286.448001
 21
34.200972
 31
0.0
 73
     2
  0
POINT
  8
DEFPOINTS
  6
BYBLOCK
 62
     0
 10
286.048001
 20
34.819577
 30
0.0
  0
POINT
  8
DEFPOINTS
  6
BYBLOCK
 62
     0
 10
286.848001
 20
34.819577
 30
0.0
  0
POINT
  8
DEFPOINTS
  6
BYBLOCK
 62
     0
 10
286.848001
 20
34.125972
 30
0.0
  0
ENDBLK
  8
0
  0
BLOCK
  8
0
  2
*D15
 70
    65
 10
0.0
 20
0.0
 30
0.0
  3
*D
  0
LINE
  8
0
  6
BYBLOCK
 62
     0
 10
286.248001
 20
34.804577
 30
0.0
 11
286.248001
 21
34.307567
 31
0.0
  0
LINE
  8
0
  6
BYBLOCK
 62
     0
 10
286.648001
 20
34.804577
 30
0.0
 11
286.648001
 21
34.307567
 31
0.0
  0
LINE
  8
0
  6
BYBLOCK
 62
     0
 10
286.098001
 20
34.322567
 30
0.0
 11
285.948001
 21
34.322567
 31
0.0
  0
LINE
  8
0
  6
BYBLOCK
 62
     0
 10
286.798001
 20
34.322567
 30
0.0
 11
286.948001
 21
34.322567
 31
0.0
  0
SOLID
  8
0
  6
BYBLOCK
 62
     0
 10
286.098001
 20
34.347567
 30
0.0
 11
286.098001
 21
34.297567
 31
0.0
 12
286.248001
 22
34.322567
 32
0.0
 13
286.248001
 23
34.322567
 33
0.0
  0
SOLID
  8
0
  6
BYBLOCK
 62
     0
 10
286.798001
 20
34.347567
 30
0.0
 11
286.798001
 21
34.297567
 31
0.0
 12
286.648001
 22
34.322567
 32
0.0
 13
286.648001
 23
34.322567
 33
0.0
  0
LINE
  8
0
  6
BYBLOCK
 62
     0
 10
286.248001
 20
34.322567
 30
0.0
 11
286.648001
 21
34.322567
 31
0.0
  0
TEXT
  8
0
  6
BYBLOCK
 62
     0
 10
286.323001
 20
34.360067
 30
0.0
 40
0.075
  1
0.40
  7
ROMANC
 72
     1
 11
286.448001
 21
34.397567
 31
0.0
 73
     2
  0
POINT
  8
DEFPOINTS
  6
BYBLOCK
 62
     0
 10
286.248001
 20
34.819577
 30
0.0
  0
POINT
  8
DEFPOINTS
  6
BYBLOCK
 62
     0
 10
286.648001
 20
34.819577
 30
0.0
  0
POINT
  8
DEFPOINTS
  6
BYBLOCK
 62
     0
 10
286.648001
 20
34.322567
 30
0.0
  0
ENDBLK
  8
0
  0
BLOCK
  8
0
  2
*D16
 70
    65
 10
0.0
 20
0.0
 30
0.0
  3
*D
  0
LINE
  8
0
  6
BYBLOCK
 62
     0
 10
286.048001
 20
34.804577
 30
0.0
 11
286.048001
 21
34.023597
 31
0.0
  0
LINE
  8
0
  6
BYBLOCK
 62
     0
 10
286.848001
 20
34.804577
 30
0.0
 11
286.848001
 21
34.023597
 31
0.0
  0
LINE
  8
0
  6
BYBLOCK
 62
     0
 10
286.198001
 20
34.038597
 30
0.0
 11
286.698001
 21
34.038597
 31
0.0
  0
SOLID
  8
0
  6
BYBLOCK
 62
     0
 10
286.198001
 20
34.063597
 30
0.0
 11
286.198001
 21
34.013597
 31
0.0
 12
286.048001
 22
34.038597
 32
0.0
 13
286.048001
 23
34.038597
 33
0.0
  0
SOLID
  8
0
  6
BYBLOCK
 62
     0
 10
286.698001
 20
34.063597
 30
0.0
 11
286.698001
 21
34.013597
 31
0.0
 12
286.848001
 22
34.038597
 32
0.0
 13
286.848001
 23
34.038597
 33
0.0
  0
TEXT
  8
0
  6
BYBLOCK
 62
     0
 10
286.323001
 20
34.076097
 30
0.0
 40
0.075
  1
0.80
  7
ROMANC
 72
     1
 11
286.448001
 21
34.113597
 31
0.0
 73
     2
  0
POINT
  8
DEFPOINTS
  6
BYBLOCK
 62
     0
 10
286.048001
 20
34.819577
 30
0.0
  0
POINT
  8
DEFPOINTS
  6
BYBLOCK
 62
     0
 10
286.848001
 20
34.819577
 30
0.0
  0
POINT
  8
DEFPOINTS
  6
BYBLOCK
 62
     0
 10
286.848001
 20
34.038597
 30
0.0
  0
ENDBLK
  8
0
  0
BLOCK
  8
0
  2
*D17
 70
    65
 10
0.0
 20
0.0
 30
0.0
  3
*D
  0
LINE
  8
0
  6
BYBLOCK
 62
     0
 10
286.463001
 20
34.569577
 30
0.0
 11
287.359133
 21
34.569577
 31
0.0
  0
LINE
  8
0
  6
BYBLOCK
 62
     0
 10
286.663001
 20
34.819577
 30
0.0
 11
287.359133
 21
34.819577
 31
0.0
  0
LINE
  8
0
  6
BYBLOCK
 62
     0
 10
287.344133
 20
34.419577
 30
0.0
 11
287.344133
 21
34.269577
 31
0.0
  0
LINE
  8
0
  6
BYBLOCK
 62
     0
 10
287.344133
 20
34.969577
 30
0.0
 11
287.344133
 21
35.119577
 31
0.0
  0
SOLID
  8
0
  6
BYBLOCK
 62
     0
 10
287.319133
 20
34.419577
 30
0.0
 11
287.369133
 21
34.419577
 31
0.0
 12
287.344133
 22
34.569577
 32
0.0
 13
287.344133
 23
34.569577
 33
0.0
  0
SOLID
  8
0
  6
BYBLOCK
 62
     0
 10
287.319133
 20
34.969577
 30
0.0
 11
287.369133
 21
34.969577
 31
0.0
 12
287.344133
 22
34.819577
 32
0.0
 13
287.344133
 23
34.819577
 33
0.0
  0
LINE
  8
0
  6
BYBLOCK
 62
     0
 10
287.344133
 20
34.569577
 30
0.0
 11
287.344133
 21
34.819577
 31
0.0
  0
TEXT
  8
0
  6
BYBLOCK
 62
     0
 10
287.306633
 20
34.569577
 30
0.0
 40
0.075
  1
0.25
 50
90.0
  7
ROMANC
 72
     1
 11
287.269133
 21
34.694577
 31
0.0
 73
     2
  0
POINT
  8
DEFPOINTS
  6
BYBLOCK
 62
     0
 10
286.448001
 20
34.569577
 30
0.0
  0
POINT
  8
DEFPOINTS
  6
BYBLOCK
 62
     0
 10
286.648001
 20
34.819577
 30
0.0
  0
POINT
  8
DEFPOINTS
  6
BYBLOCK
 62
     0
 10
287.344133
 20
34.819577
 30
0.0
  0
ENDBLK
  8
0
  0
BLOCK
  8
0
  2
*D18
 70
    65
 10
0.0
 20
0.0
 30
0.0
  3
*D
  0
LINE
  8
0
  6
BYBLOCK
 62
     0
 10
286.963001
 20
35.919577
 30
0.0
 11
287.359133
 21
35.919577
 31
0.0
  0
LINE
  8
0
  6
BYBLOCK
 62
     0
 10
286.863001
 20
34.819577
 30
0.0
 11
287.359133
 21
34.819577
 31
0.0
  0
LINE
  8
0
  6
BYBLOCK
 62
     0
 10
287.344133
 20
35.769577
 30
0.0
 11
287.344133
 21
34.969577
 31
0.0
  0
SOLID
  8
0
  6
BYBLOCK
 62
     0
 10
287.319133
 20
35.769577
 30
0.0
 11
287.369133
 21
35.769577
 31
0.0
 12
287.344133
 22
35.919577
 32
0.0
 13
287.344133
 23
35.919577
 33
0.0
  0
SOLID
  8
0
  6
BYBLOCK
 62
     0
 10
287.319133
 20
34.969577
 30
0.0
 11
287.369133
 21
34.969577
 31
0.0
 12
287.344133
 22
34.819577
 32
0.0
 13
287.344133
 23
34.819577
 33
0.0
  0
TEXT
  8
0
  6
BYBLOCK
 62
     0
 10
287.306633
 20
35.23922
 30
0.0
 40
0.075
  1
1.10
 50
90.0
  7
ROMANC
 72
     1
 11
287.269133
 21
35.369577
 31
0.0
 73
     2
  0
POINT
  8
DEFPOINTS
  6
BYBLOCK
 62
     0
 10
286.948001
 20
35.919577
 30
0.0
  0
POINT
  8
DEFPOINTS
  6
BYBLOCK
 62
     0
 10
286.848001
 20
34.819577
 30
0.0
  0
POINT
  8
DEFPOINTS
  6
BYBLOCK
 62
     0
 10
287.344133
 20
34.819577
 30
0.0
  0
ENDBLK
  8
0
  0
BLOCK
  8
0
  2
*D19
 70
    65
 10
0.0
 20
0.0
 30
0.0
  3
*D
  0
LINE
  8
0
  6
BYBLOCK
 62
     0
 10
286.478001
 20
34.569577
 30
0.0
 11
287.708844
 21
34.569577
 31
0.0
  0
LINE
  8
0
  6
BYBLOCK
 62
     0
 10
286.463001
 20
36.419577
 30
0.0
 11
287.708844
 21
36.419577
 31
0.0
  0
LINE
  8
0
  6
BYBLOCK
 62
     0
 10
287.693844
 20
34.719577
 30
0.0
 11
287.693844
 21
36.269577
 31
0.0
  0
SOLID
  8
0
  6
BYBLOCK
 62
     0
 10
287.668844
 20
34.719577
 30
0.0
 11
287.718844
 21
34.719577
 31
0.0
 12
287.693844
 22
34.569577
 32
0.0
 13
287.693844
 23
34.569577
 33
0.0
  0
SOLID
  8
0
  6
BYBLOCK
 62
     0
 10
287.668844
 20
36.269577
 30
0.0
 11
287.718844
 21
36.269577
 31
0.0
 12
287.693844
 22
36.419577
 32
0.0
 13
287.693844
 23
36.419577
 33
0.0
  0
TEXT
  8
0
  6
BYBLOCK
 62
     0
 10
287.656344
 20
35.36422
 30
0.0
 40
0.075
  1
1.85
 50
90.0
  7
ROMANC
 72
     1
 11
287.618844
 21
35.494577
 31
0.0
 73
     2
  0
POINT
  8
DEFPOINTS
  6
BYBLOCK
 62
     0
 10
286.463001
 20
34.569577
 30
0.0
  0
POINT
  8
DEFPOINTS
  6
BYBLOCK
 62
     0
 10
286.448001
 20
36.419577
 30
0.0
  0
POINT
  8
DEFPOINTS
  6
BYBLOCK
 62
     0
 10
287.693844
 20
36.419577
 30
0.0
  0
ENDBLK
  8
0
  0
BLOCK
  8
0
  2
*D20
 70
    65
 10
0.0
 20
0.0
 30
0.0
  3
*D
  0
LINE
  8
0
  6
BYBLOCK
 62
     0
 10
285.948001
 20
35.934577
 30
0.0
 11
285.948001
 21
35.934577
 31
0.0
  0
LINE
  8
0
  6
BYBLOCK
 62
     0
 10
286.948001
 20
35.934577
 30
0.0
 11
286.948001
 21
35.934577
 31
0.0
  0
LINE
  8
0
  6
BYBLOCK
 62
     0
 10
286.098001
 20
35.919577
 30
0.0
 11
286.798001
 21
35.919577
 31
0.0
  0
SOLID
  8
0
  6
BYBLOCK
 62
     0
 10
286.098001
 20
35.944577
 30
0.0
 11
286.098001
 21
35.894577
 31
0.0
 12
285.948001
 22
35.919577
 32
0.0
 13
285.948001
 23
35.919577
 33
0.0
  0
SOLID
  8
0
  6
BYBLOCK
 62
     0
 10
286.798001
 20
35.944577
 30
0.0
 11
286.798001
 21
35.894577
 31
0.0
 12
286.948001
 22
35.919577
 32
0.0
 13
286.948001
 23
35.919577
 33
0.0
  0
TEXT
  8
0
  6
BYBLOCK
 62
     0
 10
286.317644
 20
35.957077
 30
0.0
 40
0.075
  1
1.00
  7
ROMANC
 72
     1
 11
286.448001
 21
35.994577
 31
0.0
 73
     2
  0
POINT
  8
DEFPOINTS
  6
BYBLOCK
 62
     0
 10
285.948001
 20
35.919577
 30
0.0
  0
POINT
  8
DEFPOINTS
  6
BYBLOCK
 62
     0
 10
286.948001
 20
35.919577
 30
0.0
  0
POINT
  8
DEFPOINTS
  6
BYBLOCK
 62
     0
 10
286.948001
 20
35.919577
 30
0.0
  0
ENDBLK
  8
0
  0
ENDSEC
  0
SECTION
  2
ENTITIES
  0
TEXT
  8
0
 10
283.887846
 20
40.56142
 30
0.0
 40
0.3
  1
P = 49.1 dm
  7
ROMANC
  0
TEXT
  8
0
 10
286.935368
 20
41.564915
 30
0.0
 40
0.1
  1
2
  7
ROMANC
  0
TEXT
  8
0
 10
283.925768
 20
41.857589
 30
0.0
 40
0.3
  1
ESCALA  1:50
  7
ROMANC
  0
TEXT
  8
0
 10
283.925768
 20
42.343303
 30
0.0
 40
0.3
  1
TIPUS   NT147A
  7
ROMANC
  0
TEXT
  8
0
 10
283.938862
 20
41.258999
 30
0.0
 40
0.3
  1
S= 147 dm
  7
ROMANC
  0
LINE
  8
0
 10
286.042522
 20
34.813577
 30
0.0
 11
286.240637
 21
34.813577
 31
0.0
  0
ARC
  8
0
 10
286.448001
 20
34.774577
 30
0.0
 40
0.211
 50
169.348538
 51
10.651462
  0
LINE
  8
0
 10
286.655365
 20
34.813577
 30
0.0
 11
286.85348
 21
34.813577
 31
0.0
  0
LINE
  8
0
 10
286.85348
 20
34.813577
 30
0.0
 11
286.954001
 21
35.919304
 31
0.0
  0
ARC
  8
0
 10
286.448001
 20
35.919577
 30
0.0
 40
0.506
 50
359.969091
 51
180.030909
  0
LINE
  8
0
 10
285.942001
 20
35.919304
 30
0.0
 11
286.042522
 21
34.813577
 31
0.0
  0
LINE
  8
0
 10
286.045261
 20
34.816577
 30
0.0
 11
286.244286
 21
34.816577
 31
0.0
  0
ARC
  8
0
 10
286.448001
 20
34.774577
 30
0.0
 40
0.208
 50
168.350562
 51
11.649438
  0
LINE
  8
0
 10
286.651717
 20
34.816577
 30
0.0
 11
286.850741
 21
34.816577
 31
0.0
  0
LINE
  8
0
 10
286.850741
 20
34.816577
 30
0.0
 11
286.951001
 21
35.91944
 31
0.0
  0
ARC
  8
0
 10
286.448001
 20
35.919577
 30
0.0
 40
0.503
 50
359.984478
 51
180.015522
  0
LINE
  8
0
 10
285.945001
 20
35.91944
 30
0.0
 11
286.045261
 21
34.816577
 31
0.0
  0
LINE
  8
0
 10
286.048001
 20
34.819577
 30
0.0
 11
286.248001
 21
34.819577
 31
0.0
  0
ARC
  8
0
 10
286.448001
 20
34.774577
 30
0.0
 40
0.205
 50
167.319617
 51
12.680383
  0
LINE
  8
0
 10
286.648001
 20
34.819577
 30
0.0
 11
286.848001
 21
34.819577
 31
0.0
  0
LINE
  8
0
 10
286.848001
 20
34.819577
 30
0.0
 11
286.948001
 21
35.919577
 31
0.0
  0
ARC
  8
0
 10
286.448001
 20
35.919577
 30
0.0
 40
0.5
 50
360.0
 51
180.0
  0
LINE
  8
0
 10
285.948001
 20
35.919577
 30
0.0
 11
286.048001
 21
34.819577
 31
0.0
  0
LINE
  8
0
  6
BYBLOCK
 62
     0
 10
286.478001
 20
34.569577
 30
0.0
 11
287.708844
 21
34.569577
 31
0.0
  0
LINE
  8
0
  6
BYBLOCK
 62
     0
 10
286.463001
 20
36.419577
 30
0.0
 11
287.708844
 21
36.419577
 31
0.0
  0
LINE
  8
0
  6
BYBLOCK
 62
     0
 10
287.693844
 20
34.719577
 30
0.0
 11
287.693844
 21
36.269577
 31
0.0
  0
SOLID
  8
0
  6
BYBLOCK
 62
     0
 10
287.668844
 20
34.719577
 30
0.0
 11
287.718844
 21
34.719577
 31
0.0
 12
287.693844
 22
34.569577
 32
0.0
 13
287.693844
 23
34.569577
 33
0.0
  0
SOLID
  8
0
  6
BYBLOCK
 62
     0
 10
287.668844
 20
36.269577
 30
0.0
 11
287.718844
 21
36.269577
 31
0.0
 12
287.693844
 22
36.419577
 32
0.0
 13
287.693844
 23
36.419577
 33
0.0
  0
TEXT
  8
0
  6
BYBLOCK
 62
     0
 10
287.656344
 20
35.36422
 30
0.0
 40
0.075
  1
1.85
 50
90.0
  7
ROMANC
 72
     1
 11
287.618844
 21
35.494577
 31
0.0
 73
     2
  0
POINT
  8
DEFPOINTS
  6
BYBLOCK
 62
     0
 10
286.463001
 20
34.569577
 30
0.0
  0
POINT
  8
DEFPOINTS
  6
BYBLOCK
 62
     0
 10
286.448001
 20
36.419577
 30
0.0
  0
POINT
  8
DEFPOINTS
  6
BYBLOCK
 62
     0
 10
287.693844
 20
36.419577
 30
0.0
  0
LINE
  8
0
  6
BYBLOCK
 62
     0
 10
286.963001
 20
35.919577
 30
0.0
 11
287.359133
 21
35.919577
 31
0.0
  0
LINE
  8
0
  6
BYBLOCK
 62
     0
 10
286.863001
 20
34.819577
 30
0.0
 11
287.359133
 21
34.819577
 31
0.0
  0
LINE
  8
0
  6
BYBLOCK
 62
     0
 10
287.344133
 20
35.769577
 30
0.0
 11
287.344133
 21
34.969577
 31
0.0
  0
SOLID
  8
0
  6
BYBLOCK
 62
     0
 10
287.319133
 20
35.769577
 30
0.0
 11
287.369133
 21
35.769577
 31
0.0
 12
287.344133
 22
35.919577
 32
0.0
 13
287.344133
 23
35.919577
 33
0.0
  0
SOLID
  8
0
  6
BYBLOCK
 62
     0
 10
287.319133
 20
34.969577
 30
0.0
 11
287.369133
 21
34.969577
 31
0.0
 12
287.344133
 22
34.819577
 32
0.0
 13
287.344133
 23
34.819577
 33
0.0
  0
TEXT
  8
0
  6
BYBLOCK
 62
     0
 10
287.306633
 20
35.23922
 30
0.0
 40
0.075
  1
1.10
 50
90.0
  7
ROMANC
 72
     1
 11
287.269133
 21
35.369577
 31
0.0
 73
     2
  0
POINT
  8
DEFPOINTS
  6
BYBLOCK
 62
     0
 10
286.948001
 20
35.919577
 30
0.0
  0
POINT
  8
DEFPOINTS
  6
BYBLOCK
 62
     0
 10
286.848001
 20
34.819577
 30
0.0
  0
POINT
  8
DEFPOINTS
  6
BYBLOCK
 62
     0
 10
287.344133
 20
34.819577
 30
0.0
  0
LINE
  8
0
  6
BYBLOCK
 62
     0
 10
286.463001
 20
34.569577
 30
0.0
 11
287.359133
 21
34.569577
 31
0.0
  0
LINE
  8
0
  6
BYBLOCK
 62
     0
 10
286.663001
 20
34.819577
 30
0.0
 11
287.359133
 21
34.819577
 31
0.0
  0
LINE
  8
0
  6
BYBLOCK
 62
     0
 10
287.344133
 20
34.419577
 30
0.0
 11
287.344133
 21
34.269577
 31
0.0
  0
LINE
  8
0
  6
BYBLOCK
 62
     0
 10
287.344133
 20
34.969577
 30
0.0
 11
287.344133
 21
35.119577
 31
0.0
  0
SOLID
  8
0
  6
BYBLOCK
 62
     0
 10
287.319133
 20
34.419577
 30
0.0
 11
287.369133
 21
34.419577
 31
0.0
 12
287.344133
 22
34.569577
 32
0.0
 13
287.344133
 23
34.569577
 33
0.0
  0
SOLID
  8
0
  6
BYBLOCK
 62
     0
 10
287.319133
 20
34.969577
 30
0.0
 11
287.369133
 21
34.969577
 31
0.0
 12
287.344133
 22
34.819577
 32
0.0
 13
287.344133
 23
34.819577
 33
0.0
  0
LINE
  8
0
  6
BYBLOCK
 62
     0
 10
287.344133
 20
34.569577
 30
0.0
 11
287.344133
 21
34.819577
 31
0.0
  0
TEXT
  8
0
  6
BYBLOCK
 62
     0
 10
287.306633
 20
34.569577
 30
0.0
 40
0.075
  1
0.25
 50
90.0
  7
ROMANC
 72
     1
 11
287.269133
 21
34.694577
 31
0.0
 73
     2
  0
POINT
  8
DEFPOINTS
  6
BYBLOCK
 62
     0
 10
286.448001
 20
34.569577
 30
0.0
  0
POINT
  8
DEFPOINTS
  6
BYBLOCK
 62
     0
 10
286.648001
 20
34.819577
 30
0.0
  0
POINT
  8
DEFPOINTS
  6
BYBLOCK
 62
     0
 10
287.344133
 20
34.819577
 30
0.0
  0
LINE
  8
0
  6
BYBLOCK
 62
     0
 10
286.248001
 20
34.804577
 30
0.0
 11
286.248001
 21
34.307567
 31
0.0
  0
LINE
  8
0
  6
BYBLOCK
 62
     0
 10
286.648001
 20
34.804577
 30
0.0
 11
286.648001
 21
34.307567
 31
0.0
  0
LINE
  8
0
  6
BYBLOCK
 62
     0
 10
286.098001
 20
34.322567
 30
0.0
 11
285.948001
 21
34.322567
 31
0.0
  0
LINE
  8
0
  6
BYBLOCK
 62
     0
 10
286.798001
 20
34.322567
 30
0.0
 11
286.948001
 21
34.322567
 31
0.0
  0
SOLID
  8
0
  6
BYBLOCK
 62
     0
 10
286.098001
 20
34.347567
 30
0.0
 11
286.098001
 21
34.297567
 31
0.0
 12
286.248001
 22
34.322567
 32
0.0
 13
286.248001
 23
34.322567
 33
0.0
  0
SOLID
  8
0
  6
BYBLOCK
 62
     0
 10
286.798001
 20
34.347567
 30
0.0
 11
286.798001
 21
34.297567
 31
0.0
 12
286.648001
 22
34.322567
 32
0.0
 13
286.648001
 23
34.322567
 33
0.0
  0
LINE
  8
0
  6
BYBLOCK
 62
     0
 10
286.248001
 20
34.322567
 30
0.0
 11
286.648001
 21
34.322567
 31
0.0
  0
TEXT
  8
0
  6
BYBLOCK
 62
     0
 10
286.323001
 20
34.360067
 30
0.0
 40
0.075
  1
0.40
  7
ROMANC
 72
     1
 11
286.448001
 21
34.397567
 31
0.0
 73
     2
  0
POINT
  8
DEFPOINTS
  6
BYBLOCK
 62
     0
 10
286.248001
 20
34.819577
 30
0.0
  0
POINT
  8
DEFPOINTS
  6
BYBLOCK
 62
     0
 10
286.648001
 20
34.819577
 30
0.0
  0
POINT
  8
DEFPOINTS
  6
BYBLOCK
 62
     0
 10
286.648001
 20
34.322567
 30
0.0
  0
LINE
  8
0
  6
BYBLOCK
 62
     0
 10
286.048001
 20
34.804577
 30
0.0
 11
286.048001
 21
34.023597
 31
0.0
  0
LINE
  8
0
  6
BYBLOCK
 62
     0
 10
286.848001
 20
34.804577
 30
0.0
 11
286.848001
 21
34.023597
 31
0.0
  0
LINE
  8
0
  6
BYBLOCK
 62
     0
 10
286.198001
 20
34.038597
 30
0.0
 11
286.698001
 21
34.038597
 31
0.0
  0
SOLID
  8
0
  6
BYBLOCK
 62
     0
 10
286.198001
 20
34.063597
 30
0.0
 11
286.198001
 21
34.013597
 31
0.0
 12
286.048001
 22
34.038597
 32
0.0
 13
286.048001
 23
34.038597
 33
0.0
  0
SOLID
  8
0
  6
BYBLOCK
 62
     0
 10
286.698001
 20
34.063597
 30
0.0
 11
286.698001
 21
34.013597
 31
0.0
 12
286.848001
 22
34.038597
 32
0.0
 13
286.848001
 23
34.038597
 33
0.0
  0
TEXT
  8
0
  6
BYBLOCK
 62
     0
 10
286.323001
 20
34.076097
 30
0.0
 40
0.075
  1
0.80
  7
ROMANC
 72
     1
 11
286.448001
 21
34.113597
 31
0.0
 73
     2
  0
POINT
  8
DEFPOINTS
  6
BYBLOCK
 62
     0
 10
286.048001
 20
34.819577
 30
0.0
  0
POINT
  8
DEFPOINTS
  6
BYBLOCK
 62
     0
 10
286.848001
 20
34.819577
 30
0.0
  0
POINT
  8
DEFPOINTS
  6
BYBLOCK
 62
     0
 10
286.848001
 20
34.038597
 30
0.0
  0
LINE
  8
0
  6
BYBLOCK
 62
     0
 10
285.948001
 20
35.934577
 30
0.0
 11
285.948001
 21
35.934577
 31
0.0
  0
LINE
  8
0
  6
BYBLOCK
 62
     0
 10
286.948001
 20
35.934577
 30
0.0
 11
286.948001
 21
35.934577
 31
0.0
  0
LINE
  8
0
  6
BYBLOCK
 62
     0
 10
286.098001
 20
35.919577
 30
0.0
 11
286.798001
 21
35.919577
 31
0.0
  0
SOLID
  8
0
  6
BYBLOCK
 62
     0
 10
286.098001
 20
35.944577
 30
0.0
 11
286.098001
 21
35.894577
 31
0.0
 12
285.948001
 22
35.919577
 32
0.0
 13
285.948001
 23
35.919577
 33
0.0
  0
SOLID
  8
0
  6
BYBLOCK
 62
     0
 10
286.798001
 20
35.944577
 30
0.0
 11
286.798001
 21
35.894577
 31
0.0
 12
286.948001
 22
35.919577
 32
0.0
 13
286.948001
 23
35.919577
 33
0.0
  0
TEXT
  8
0
  6
BYBLOCK
 62
     0
 10
286.317644
 20
35.957077
 30
0.0
 40
0.075
  1
1.00
  7
ROMANC
 72
     1
 11
286.448001
 21
35.994577
 31
0.0
 73
     2
  0
POINT
  8
DEFPOINTS
  6
BYBLOCK
 62
     0
 10
285.948001
 20
35.919577
 30
0.0
  0
POINT
  8
DEFPOINTS
  6
BYBLOCK
 62
     0
 10
286.948001
 20
35.919577
 30
0.0
  0
POINT
  8
DEFPOINTS
  6
BYBLOCK
 62
     0
 10
286.948001
 20
35.919577
 30
0.0
  0
LINE
  8
0
 10
280.96095
 20
29.423763
 30
0.0
 11
280.96095
 21
44.273763
 31
0.0
  0
LINE
  8
0
 10
280.96095
 20
44.273763
 30
0.0
 11
291.46095
 21
44.273763
 31
0.0
  0
LINE
  8
0
 10
291.46095
 20
44.273763
 30
0.0
 11
291.46095
 21
29.423763
 31
0.0
  0
LINE
  8
0
 10
291.46095
 20
29.423763
 30
0.0
 11
280.96095
 21
29.423763
 31
0.0
  0
ENDSEC
  0
EOF
