  0
SECTION
  2
HEADER
  9
$ACADVER
  1
AC1009
  9
$INSBASE
 10
189.55699
 20
-4.229234
 30
0.0
  9
$EXTMIN
 10
281.396
 20
29.897
 30
0.0
  9
$EXTMAX
 10
291.896
 20
44.747
 30
0.0
  9
$LIMMIN
 10
0.0
 20
0.0
  9
$LIMMAX
 10
410.0
 20
287.0
  9
$ORTHOMODE
 70
     1
  9
$REGENMODE
 70
     1
  9
$FILLMODE
 70
     1
  9
$QTEXTMODE
 70
     0
  9
$MIRRTEXT
 70
     1
  9
$DRAGMODE
 70
     2
  9
$LTSCALE
 40
25.0
  9
$OSMODE
 70
    32
  9
$ATTMODE
 70
     1
  9
$TEXTSIZE
 40
0.1
  9
$TRACEWID
 40
1.0
  9
$TEXTSTYLE
  7
ROMANC
  9
$CLAYER
  8
0
  9
$CELTYPE
  6
BYLAYER
  9
$CECOLOR
 62
   256
  9
$DIMSCALE
 40
0.0
  9
$DIMASZ
 40
0.0
  9
$DIMEXO
 40
0.1
  9
$DIMDLI
 40
7.0
  9
$DIMRND
 40
0.0
  9
$DIMDLE
 40
0.0
  9
$DIMEXE
 40
1.8
  9
$DIMTP
 40
0.0
  9
$DIMTM
 40
0.0
  9
$DIMTXT
 40
0.03
  9
$DIMCEN
 40
1.5
  9
$DIMTSZ
 40
1.0
  9
$DIMTOL
 70
     0
  9
$DIMLIM
 70
     0
  9
$DIMTIH
 70
     0
  9
$DIMTOH
 70
     0
  9
$DIMSE1
 70
     0
  9
$DIMSE2
 70
     0
  9
$DIMTAD
 70
     0
  9
$DIMZIN
 70
     0
  9
$DIMBLK
  1

  9
$DIMASO
 70
     1
  9
$DIMSHO
 70
     0
  9
$DIMPOST
  1

  9
$DIMAPOST
  1

  9
$DIMALT
 70
     0
  9
$DIMALTD
 70
     2
  9
$DIMALTF
 40
25.4
  9
$DIMLFAC
 40
1.0
  9
$DIMTOFL
 70
     1
  9
$DIMTVP
 40
0.0
  9
$DIMTIX
 70
     1
  9
$DIMSOXD
 70
     0
  9
$DIMSAH
 70
     0
  9
$DIMBLK1
  1

  9
$DIMBLK2
  1

  9
$DIMSTYLE
  2
*UNNAMED
  9
$DIMCLRD
 70
     0
  9
$DIMCLRE
 70
     0
  9
$DIMCLRT
 70
     0
  9
$DIMTFAC
 40
116.666667
  9
$DIMGAP
 40
0.09
  9
$LUNITS
 70
     2
  9
$LUPREC
 70
     2
  9
$SKETCHINC
 40
1.0
  9
$FILLETRAD
 40
0.0
  9
$AUNITS
 70
     0
  9
$AUPREC
 70
     0
  9
$MENU
  1
acad
  9
$ELEVATION
 40
0.0
  9
$PELEVATION
 40
0.0
  9
$THICKNESS
 40
0.0
  9
$LIMCHECK
 70
     0
  9
$BLIPMODE
 70
     0
  9
$CHAMFERA
 40
0.0
  9
$CHAMFERB
 40
0.0
  9
$SKPOLY
 70
     0
  9
$TDCREATE
 40
2449967.712784722
  9
$TDUPDATE
 40
2450828.506049305
  9
$TDINDWG
 40
0.0060849537
  9
$TDUSRTIMER
 40
0.0060849537
  9
$USRTIMER
 70
     1
  9
$ANGBASE
 50
0.0
  9
$ANGDIR
 70
     0
  9
$PDMODE
 70
     0
  9
$PDSIZE
 40
0.0
  9
$PLINEWID
 40
0.0
  9
$COORDS
 70
     0
  9
$SPLFRAME
 70
     0
  9
$SPLINETYPE
 70
     6
  9
$SPLINESEGS
 70
     8
  9
$ATTDIA
 70
     0
  9
$ATTREQ
 70
     1
  9
$HANDLING
 70
     0
  9
$HANDSEED
  5
0
  9
$SURFTAB1
 70
     6
  9
$SURFTAB2
 70
     6
  9
$SURFTYPE
 70
     6
  9
$SURFU
 70
     6
  9
$SURFV
 70
     6
  9
$UCSNAME
  2

  9
$UCSORG
 10
0.0
 20
0.0
 30
0.0
  9
$UCSXDIR
 10
1.0
 20
0.0
 30
0.0
  9
$UCSYDIR
 10
0.0
 20
1.0
 30
0.0
  9
$PUCSNAME
  2

  9
$PUCSORG
 10
0.0
 20
0.0
 30
0.0
  9
$PUCSXDIR
 10
1.0
 20
0.0
 30
0.0
  9
$PUCSYDIR
 10
0.0
 20
1.0
 30
0.0
  9
$USERI1
 70
     0
  9
$USERI2
 70
     0
  9
$USERI3
 70
     0
  9
$USERI4
 70
     0
  9
$USERI5
 70
     0
  9
$USERR1
 40
0.0
  9
$USERR2
 40
0.0
  9
$USERR3
 40
0.0
  9
$USERR4
 40
0.0
  9
$USERR5
 40
0.0
  9
$WORLDVIEW
 70
     1
  9
$SHADEDGE
 70
     3
  9
$SHADEDIF
 70
    70
  9
$TILEMODE
 70
     1
  9
$MAXACTVP
 70
    16
  9
$PINSBASE
 10
0.0
 20
0.0
 30
0.0
  9
$PLIMCHECK
 70
     0
  9
$PEXTMIN
 10
1.000000E+20
 20
1.000000E+20
 30
1.000000E+20
  9
$PEXTMAX
 10
-1.000000E+20
 20
-1.000000E+20
 30
-1.000000E+20
  9
$PLIMMIN
 10
0.0
 20
0.0
  9
$PLIMMAX
 10
12.0
 20
9.0
  9
$UNITMODE
 70
     0
  9
$VISRETAIN
 70
     0
  9
$PLINEGEN
 70
     0
  9
$PSLTSCALE
 70
     0
  9
$TREEDEPTH
 70
  3020
  9
$DWGCODEPAGE
  3
iso8859-1
  0
ENDSEC
  0
SECTION
  2
TABLES
  0
TABLE
  2
VPORT
 70
     2
  0
VPORT
  2
*ACTIVE
 70
     0
 10
0.0
 20
0.0
 11
1.0
 21
1.0
 12
293.35785
 22
37.322
 13
0.0
 23
0.0
 14
1.0
 24
1.0
 15
10.0
 25
10.0
 16
0.0
 26
0.0
 36
1.0
 17
0.0
 27
0.0
 37
0.0
 40
14.85
 41
1.611024
 42
50.0
 43
0.0
 44
0.0
 50
0.0
 51
0.0
 71
     0
 72
   100
 73
     1
 74
     0
 75
     0
 76
     0
 77
     0
 78
     1
  0
ENDTAB
  0
TABLE
  2
LTYPE
 70
     1
  0
LTYPE
  2
CONTINUOUS
 70
    64
  3
Solid line
 72
    65
 73
     0
 40
0.0
  0
ENDTAB
  0
TABLE
  2
LAYER
 70
     3
  0
LAYER
  2
0
 70
    64
 62
     7
  6
CONTINUOUS
  0
LAYER
  2
1
 70
    64
 62
     7
  6
CONTINUOUS
  0
LAYER
  2
DEFPOINTS
 70
    64
 62
     7
  6
CONTINUOUS
  0
ENDTAB
  0
TABLE
  2
STYLE
 70
     2
  0
STYLE
  2
STANDARD
 70
     0
 40
0.0
 41
1.0
 50
0.0
 71
     0
 42
0.1
  3
txt
  4

  0
STYLE
  2
ROMANC
 70
    64
 40
0.0
 41
1.0
 50
0.0
 71
     0
 42
0.1
  3
romanc
  4

  0
ENDTAB
  0
TABLE
  2
VIEW
 70
     0
  0
ENDTAB
  0
TABLE
  2
UCS
 70
     0
  0
ENDTAB
  0
TABLE
  2
APPID
 70
     1
  0
APPID
  2
ACAD
 70
    64
  0
ENDTAB
  0
TABLE
  2
DIMSTYLE
 70
     0
  0
ENDTAB
  0
ENDSEC
  0
SECTION
  2
BLOCKS
  0
BLOCK
  8
0
  2
*D0
 70
    65
 10
0.0
 20
0.0
 30
0.0
  3
*D
  0
LINE
  8
0
  6
BYBLOCK
 62
     0
 10
286.669
 20
33.138
 30
0.0
 11
286.669
 21
35.09247
 31
0.0
  0
LINE
  8
0
  6
BYBLOCK
 62
     0
 10
287.165391
 20
33.146755
 30
0.0
 11
287.165391
 21
35.09247
 31
0.0
  0
LINE
  8
0
  6
BYBLOCK
 62
     0
 10
286.669
 20
33.29247
 30
0.0
 11
284.669
 21
33.29247
 31
0.0
  0
LINE
  8
0
  6
BYBLOCK
 62
     0
 10
287.165391
 20
33.29247
 30
0.0
 11
289.165391
 21
33.29247
 31
0.0
  0
LINE
  8
0
  6
BYBLOCK
 62
     0
 10
285.669
 20
32.29247
 30
0.0
 11
287.669
 21
34.29247
 31
0.0
  0
LINE
  8
0
  6
BYBLOCK
 62
     0
 10
286.165391
 20
32.29247
 30
0.0
 11
288.165391
 21
34.29247
 31
0.0
  0
LINE
  8
0
  6
BYBLOCK
 62
     0
 10
286.669
 20
33.29247
 30
0.0
 11
287.165391
 21
33.29247
 31
0.0
  0
TEXT
  8
0
  6
BYBLOCK
 62
     0
 10
286.867195
 20
33.27747
 30
0.0
 40
0.03
  1
0.50
  7
ROMANC
 72
     1
 11
286.917195
 21
33.29247
 31
0.0
 73
     2
  0
POINT
  8
DEFPOINTS
  6
BYBLOCK
 62
     0
 10
286.669
 20
33.038
 30
0.0
  0
POINT
  8
DEFPOINTS
  6
BYBLOCK
 62
     0
 10
287.165391
 20
33.046755
 30
0.0
  0
POINT
  8
DEFPOINTS
  6
BYBLOCK
 62
     0
 10
287.165391
 20
33.29247
 30
0.0
  0
ENDBLK
  8
0
  0
ENDSEC
  0
SECTION
  2
ENTITIES
  0
TEXT
  8
0
  6
CONTINUOUS
 10
286.909
 20
41.324
 30
0.0
 40
0.1
  1
2
  7
ROMANC
  0
TEXT
  8
0
  6
CONTINUOUS
 10
283.926
 20
41.768
 30
0.0
 40
0.3
  1
ESCALA  1:50
  7
ROMANC
  0
ARC
  8
1
  6
CONTINUOUS
 10
286.644
 20
33.962375
 30
0.0
 40
0.525625
 50
2.794364
 51
177.205639
  0
LINE
  8
1
  6
CONTINUOUS
 10
286.669
 20
33.038
 30
0.0
 11
286.119
 21
33.038
 31
0.0
  0
TEXT
  8
0
  6
CONTINUOUS
 10
283.922
 20
40.529
 30
0.0
 40
0.3
  1
P = 47 dm
  7
ROMANC
  0
TEXT
  8
0
  6
CONTINUOUS
 10
283.945
 20
41.099
 30
0.0
 40
0.3
  1
S = 146 dm
  7
ROMANC
  0
LINE
  8
1
  6
CONTINUOUS
 10
286.119
 20
33.038
 30
0.0
 11
286.119
 21
33.988
 31
0.0
  0
LINE
  8
1
  6
CONTINUOUS
 10
287.169
 20
33.988
 30
0.0
 11
287.169
 21
33.038
 31
0.0
  0
TEXT
  8
1
  6
CONTINUOUS
 10
286.534
 20
32.490544
 30
0.0
 40
0.075
  1
1.05
  7
ROMANC
  0
LINE
  8
1
  6
CONTINUOUS
 10
286.496
 20
32.528544
 30
0.0
 11
286.119
 21
32.528544
 31
0.0
  0
LINE
  8
1
  6
CONTINUOUS
 10
286.791
 20
32.528544
 30
0.0
 11
287.169
 21
32.528544
 31
0.0
  0
LINE
  8
1
  6
CONTINUOUS
 10
286.082
 20
32.509544
 30
0.0
 11
286.156
 21
32.547544
 31
0.0
  0
LINE
  8
1
  6
CONTINUOUS
 10
287.206
 20
32.547544
 30
0.0
 11
287.132
 21
32.509544
 31
0.0
  0
LINE
  8
1
  6
CONTINUOUS
 10
286.119
 20
33.0
 30
0.0
 11
286.119
 21
32.490544
 31
0.0
  0
LINE
  8
1
  6
CONTINUOUS
 10
287.169
 20
33.0
 30
0.0
 11
287.169
 21
32.490544
 31
0.0
  0
ARC
  8
1
  6
CONTINUOUS
 10
286.919
 20
33.171333
 30
0.0
 40
0.283333
 50
208.072486
 51
331.927511
  0
TEXT
  8
1
  6
CONTINUOUS
 10
287.378
 20
33.23
 30
0.0
 40
0.075
  1
0.15
 50
90.0
  7
ROMANC
  0
LINE
  8
1
  6
CONTINUOUS
 10
287.341
 20
32.738
 30
0.0
 11
287.341
 21
32.888
 31
0.0
  0
LINE
  8
1
  6
CONTINUOUS
 10
287.341
 20
33.192
 30
0.0
 11
287.341
 21
33.038
 31
0.0
  0
LINE
  8
1
  6
CONTINUOUS
 10
287.322
 20
32.926
 30
0.0
 11
287.36
 21
32.85
 31
0.0
  0
LINE
  8
1
  6
CONTINUOUS
 10
287.36
 20
33.0
 30
0.0
 11
287.322
 21
33.076
 31
0.0
  0
LINE
  8
1
  6
CONTINUOUS
 10
286.957
 20
32.888
 30
0.0
 11
287.379
 21
32.888
 31
0.0
  0
LINE
  8
1
  6
CONTINUOUS
 10
287.207
 20
33.038
 30
0.0
 11
287.379
 21
33.038
 31
0.0
  0
TEXT
  8
1
  6
CONTINUOUS
 10
287.558
 20
33.394
 30
0.0
 40
0.075
  1
0.95
 50
90.0
  7
ROMANC
  0
LINE
  8
1
  6
CONTINUOUS
 10
287.52
 20
33.356
 30
0.0
 11
287.52
 21
33.038
 31
0.0
  0
LINE
  8
1
  6
CONTINUOUS
 10
287.52
 20
33.668
 30
0.0
 11
287.52
 21
33.988
 31
0.0
  0
LINE
  8
1
  6
CONTINUOUS
 10
287.539
 20
33.0
 30
0.0
 11
287.501
 21
33.076
 31
0.0
  0
LINE
  8
1
  6
CONTINUOUS
 10
287.501
 20
34.026
 30
0.0
 11
287.539
 21
33.95
 31
0.0
  0
LINE
  8
1
  6
CONTINUOUS
 10
287.207
 20
33.038
 30
0.0
 11
287.558
 21
33.038
 31
0.0
  0
LINE
  8
1
  6
CONTINUOUS
 10
287.207
 20
33.988
 30
0.0
 11
287.558
 21
33.988
 31
0.0
  0
TEXT
  8
1
  6
CONTINUOUS
 10
287.754
 20
33.578
 30
0.0
 40
0.075
  1
1.60
 50
90.0
  7
ROMANC
  0
LINE
  8
1
  6
CONTINUOUS
 10
287.716
 20
33.54
 30
0.0
 11
287.716
 21
32.888
 31
0.0
  0
LINE
  8
1
  6
CONTINUOUS
 10
287.716
 20
33.835
 30
0.0
 11
287.716
 21
34.488
 31
0.0
  0
LINE
  8
1
  6
CONTINUOUS
 10
287.735
 20
32.85
 30
0.0
 11
287.697
 21
32.926
 31
0.0
  0
LINE
  8
1
  6
CONTINUOUS
 10
287.697
 20
34.526
 30
0.0
 11
287.735
 21
34.45
 31
0.0
  0
LINE
  8
1
  6
CONTINUOUS
 10
286.957
 20
32.888
 30
0.0
 11
287.754
 21
32.888
 31
0.0
  0
LINE
  8
1
  6
CONTINUOUS
 10
286.682
 20
34.488
 30
0.0
 11
287.754
 21
34.488
 31
0.0
  0
ARC
  8
1
  6
CONTINUOUS
 10
286.644
 20
33.962375
 30
0.0
 40
0.535625
 50
2.794364
 51
177.205639
  0
ARC
  8
1
  6
CONTINUOUS
 10
286.644
 20
33.962375
 30
0.0
 40
0.545625
 50
2.794364
 51
177.205639
  0
LINE
  8
1
  6
CONTINUOUS
 10
287.179
 20
33.988
 30
0.0
 11
287.179
 21
33.036
 31
0.0
  0
LINE
  8
1
  6
CONTINUOUS
 10
287.189
 20
33.988
 30
0.0
 11
287.189
 21
33.033
 31
0.0
  0
ARC
  8
1
  6
CONTINUOUS
 10
286.919
 20
33.171333
 30
0.0
 40
0.293333
 50
209.250994
 51
332.4198
  0
ARC
  8
1
  6
CONTINUOUS
 10
286.919
 20
33.171333
 30
0.0
 40
0.303333
 50
210.364183
 51
332.887058
  0
LINE
  8
1
  6
CONTINUOUS
 10
286.663
 20
33.028
 30
0.0
 11
286.109
 21
33.028
 31
0.0
  0
LINE
  8
1
  6
CONTINUOUS
 10
286.657
 20
33.018
 30
0.0
 11
286.099
 21
33.018
 31
0.0
  0
LINE
  8
1
  6
CONTINUOUS
 10
286.109
 20
33.028
 30
0.0
 11
286.109
 21
33.988
 31
0.0
  0
LINE
  8
1
  6
CONTINUOUS
 10
286.099
 20
33.018
 30
0.0
 11
286.099
 21
33.988
 31
0.0
  0
TEXT
  8
0
  6
CONTINUOUS
 10
283.926
 20
42.381
 30
0.0
 40
0.3
  1
TIPUS   NT146A
  7
ROMANC
  0
LINE
  8
1
  6
CONTINUOUS
 10
286.669
 20
33.0
 30
0.0
 11
286.669
 21
32.661715
 31
0.0
  0
LINE
  8
1
  6
CONTINUOUS
 10
286.632
 20
32.684331
 30
0.0
 11
286.706
 21
32.722331
 31
0.0
  0
LINE
  8
1
  6
CONTINUOUS
 10
287.206
 20
32.724865
 30
0.0
 11
287.132
 21
32.686865
 31
0.0
  0
LINE
  8
1
  6
CONTINUOUS
 10
286.669
 20
32.705865
 30
0.0
 11
286.780839
 21
32.705865
 31
0.0
  0
TEXT
  8
1
  6
CONTINUOUS
 10
286.782397
 20
32.672931
 30
0.0
 40
0.075
  1
0.50
  7
ROMANC
  0
LINE
  8
1
  6
CONTINUOUS
 10
287.037494
 20
32.705865
 30
0.0
 11
287.169
 21
32.705865
 31
0.0
  0
TEXT
  8
1
  6
CONTINUOUS
 10
286.534
 20
33.946236
 30
0.0
 40
0.075
  1
1.05
  7
ROMANC
  0
LINE
  8
1
  6
CONTINUOUS
 10
286.496
 20
33.984236
 30
0.0
 11
286.119
 21
33.984236
 31
0.0
  0
LINE
  8
1
  6
CONTINUOUS
 10
286.791
 20
33.984236
 30
0.0
 11
287.169
 21
33.984236
 31
0.0
  0
LINE
  8
1
  6
CONTINUOUS
 10
286.082
 20
33.965236
 30
0.0
 11
286.156
 21
34.003236
 31
0.0
  0
LINE
  8
1
  6
CONTINUOUS
 10
287.206
 20
34.003236
 30
0.0
 11
287.132
 21
33.965236
 31
0.0
  0
LINE
  8
0
  6
CONTINUOUS
 10
281.396
 20
44.747
 30
0.0
 11
291.896
 21
44.747
 31
0.0
  0
LINE
  8
0
  6
CONTINUOUS
 10
291.896
 20
44.747
 30
0.0
 11
291.896
 21
29.897
 31
0.0
  0
LINE
  8
0
  6
CONTINUOUS
 10
291.896
 20
29.897
 30
0.0
 11
281.396
 21
29.897
 31
0.0
  0
LINE
  8
0
  6
CONTINUOUS
 10
281.396
 20
29.897
 30
0.0
 11
281.396
 21
44.747
 31
0.0
  0
ENDSEC
  0
EOF
