  0
SECTION
  2
HEADER
  9
$ACADVER
  1
AC1009
  9
$INSBASE
 10
189.55699
 20
-4.229234
 30
0.0
  9
$EXTMIN
 10
140.175068
 20
-27.532393
 30
0.0
  9
$EXTMAX
 10
351.54669
 20
43.022959
 30
0.0
  9
$LIMMIN
 10
0.0
 20
0.0
  9
$LIMMAX
 10
410.0
 20
287.0
  9
$ORTHOMODE
 70
     0
  9
$REGENMODE
 70
     1
  9
$FILLMODE
 70
     1
  9
$QTEXTMODE
 70
     0
  9
$MIRRTEXT
 70
     1
  9
$DRAGMODE
 70
     2
  9
$LTSCALE
 40
25.0
  9
$OSMODE
 70
    32
  9
$ATTMODE
 70
     1
  9
$TEXTSIZE
 40
0.1
  9
$TRACEWID
 40
1.0
  9
$TEXTSTYLE
  7
ROMANC
  9
$CLAYER
  8
0
  9
$CELTYPE
  6
BYLAYER
  9
$CECOLOR
 62
   256
  9
$DIMSCALE
 40
0.0
  9
$DIMASZ
 40
0.0
  9
$DIMEXO
 40
0.1
  9
$DIMDLI
 40
7.0
  9
$DIMRND
 40
0.0
  9
$DIMDLE
 40
0.0
  9
$DIMEXE
 40
1.8
  9
$DIMTP
 40
0.0
  9
$DIMTM
 40
0.0
  9
$DIMTXT
 40
0.03
  9
$DIMCEN
 40
1.5
  9
$DIMTSZ
 40
1.0
  9
$DIMTOL
 70
     0
  9
$DIMLIM
 70
     0
  9
$DIMTIH
 70
     0
  9
$DIMTOH
 70
     0
  9
$DIMSE1
 70
     0
  9
$DIMSE2
 70
     0
  9
$DIMTAD
 70
     0
  9
$DIMZIN
 70
     0
  9
$DIMBLK
  1

  9
$DIMASO
 70
     1
  9
$DIMSHO
 70
     0
  9
$DIMPOST
  1

  9
$DIMAPOST
  1

  9
$DIMALT
 70
     0
  9
$DIMALTD
 70
     2
  9
$DIMALTF
 40
25.4
  9
$DIMLFAC
 40
1.0
  9
$DIMTOFL
 70
     1
  9
$DIMTVP
 40
0.0
  9
$DIMTIX
 70
     1
  9
$DIMSOXD
 70
     0
  9
$DIMSAH
 70
     0
  9
$DIMBLK1
  1

  9
$DIMBLK2
  1

  9
$DIMSTYLE
  2
*UNNAMED
  9
$DIMCLRD
 70
     0
  9
$DIMCLRE
 70
     0
  9
$DIMCLRT
 70
     0
  9
$DIMTFAC
 40
116.666667
  9
$DIMGAP
 40
0.09
  9
$LUNITS
 70
     2
  9
$LUPREC
 70
     2
  9
$SKETCHINC
 40
1.0
  9
$FILLETRAD
 40
0.0
  9
$AUNITS
 70
     0
  9
$AUPREC
 70
     0
  9
$MENU
  1
acad
  9
$ELEVATION
 40
0.0
  9
$PELEVATION
 40
0.0
  9
$THICKNESS
 40
0.0
  9
$LIMCHECK
 70
     0
  9
$BLIPMODE
 70
     0
  9
$CHAMFERA
 40
0.0
  9
$CHAMFERB
 40
0.0
  9
$SKPOLY
 70
     0
  9
$TDCREATE
 40
2449967.712784722
  9
$TDUPDATE
 40
2450207.424539004
  9
$TDINDWG
 40
0.0002256944
  9
$TDUSRTIMER
 40
0.0002256944
  9
$USRTIMER
 70
     1
  9
$ANGBASE
 50
0.0
  9
$ANGDIR
 70
     0
  9
$PDMODE
 70
     0
  9
$PDSIZE
 40
0.0
  9
$PLINEWID
 40
0.0
  9
$COORDS
 70
     0
  9
$SPLFRAME
 70
     0
  9
$SPLINETYPE
 70
     6
  9
$SPLINESEGS
 70
     8
  9
$ATTDIA
 70
     0
  9
$ATTREQ
 70
     1
  9
$HANDLING
 70
     0
  9
$HANDSEED
  5
0
  9
$SURFTAB1
 70
     6
  9
$SURFTAB2
 70
     6
  9
$SURFTYPE
 70
     6
  9
$SURFU
 70
     6
  9
$SURFV
 70
     6
  9
$UCSNAME
  2

  9
$UCSORG
 10
0.0
 20
0.0
 30
0.0
  9
$UCSXDIR
 10
1.0
 20
0.0
 30
0.0
  9
$UCSYDIR
 10
0.0
 20
1.0
 30
0.0
  9
$PUCSNAME
  2

  9
$PUCSORG
 10
0.0
 20
0.0
 30
0.0
  9
$PUCSXDIR
 10
1.0
 20
0.0
 30
0.0
  9
$PUCSYDIR
 10
0.0
 20
1.0
 30
0.0
  9
$USERI1
 70
     0
  9
$USERI2
 70
     0
  9
$USERI3
 70
     0
  9
$USERI4
 70
     0
  9
$USERI5
 70
     0
  9
$USERR1
 40
0.0
  9
$USERR2
 40
0.0
  9
$USERR3
 40
0.0
  9
$USERR4
 40
0.0
  9
$USERR5
 40
0.0
  9
$WORLDVIEW
 70
     1
  9
$SHADEDGE
 70
     3
  9
$SHADEDIF
 70
    70
  9
$TILEMODE
 70
     1
  9
$MAXACTVP
 70
    16
  9
$PINSBASE
 10
0.0
 20
0.0
 30
0.0
  9
$PLIMCHECK
 70
     0
  9
$PEXTMIN
 10
1.000000E+20
 20
1.000000E+20
 30
1.000000E+20
  9
$PEXTMAX
 10
-1.000000E+20
 20
-1.000000E+20
 30
-1.000000E+20
  9
$PLIMMIN
 10
0.0
 20
0.0
  9
$PLIMMAX
 10
12.0
 20
9.0
  9
$UNITMODE
 70
     0
  9
$VISRETAIN
 70
     0
  9
$PLINEGEN
 70
     0
  9
$PSLTSCALE
 70
     0
  9
$TREEDEPTH
 70
  3020
  9
$DWGCODEPAGE
  3
iso8859-1
  0
ENDSEC
  0
SECTION
  2
TABLES
  0
TABLE
  2
VPORT
 70
     1
  0
VPORT
  2
*ACTIVE
 70
     0
 10
0.0
 20
0.0
 11
1.0
 21
1.0
 12
202.404232
 22
3.578298
 13
0.0
 23
0.0
 14
1.0
 24
1.0
 15
10.0
 25
10.0
 16
0.0
 26
0.0
 36
1.0
 17
0.0
 27
0.0
 37
0.0
 40
18.513349
 41
1.65
 42
50.0
 43
0.0
 44
0.0
 50
0.0
 51
0.0
 71
     0
 72
   100
 73
     1
 74
     0
 75
     0
 76
     0
 77
     0
 78
     1
  0
ENDTAB
  0
TABLE
  2
LTYPE
 70
     1
  0
LTYPE
  2
CONTINUOUS
 70
    64
  3
Solid line
 72
    65
 73
     0
 40
0.0
  0
ENDTAB
  0
TABLE
  2
LAYER
 70
     1
  0
LAYER
  2
0
 70
    64
 62
     7
  6
CONTINUOUS
  0
ENDTAB
  0
TABLE
  2
STYLE
 70
     2
  0
STYLE
  2
STANDARD
 70
     0
 40
0.0
 41
1.0
 50
0.0
 71
     0
 42
0.1
  3
txt
  4

  0
STYLE
  2
ROMANC
 70
    64
 40
0.0
 41
1.0
 50
0.0
 71
     0
 42
0.1
  3
romanc
  4

  0
ENDTAB
  0
TABLE
  2
VIEW
 70
     0
  0
ENDTAB
  0
TABLE
  2
UCS
 70
     0
  0
ENDTAB
  0
TABLE
  2
APPID
 70
     1
  0
APPID
  2
ACAD
 70
    64
  0
ENDTAB
  0
TABLE
  2
DIMSTYLE
 70
     0
  0
ENDTAB
  0
ENDSEC
  0
SECTION
  2
BLOCKS
  0
ENDSEC
  0
SECTION
  2
ENTITIES
  0
LINE
  8
0
 10
200.05699
 20
10.620766
 30
0.0
 11
189.55699
 21
10.620766
 31
0.0
  0
LINE
  8
0
 10
189.55699
 20
-4.229234
 30
0.0
 11
200.05699
 21
-4.229234
 31
0.0
  0
LINE
  8
0
 10
189.55699
 20
10.620766
 30
0.0
 11
189.55699
 21
-4.229234
 31
0.0
  0
LINE
  8
0
 10
194.415004
 20
0.142983
 30
0.0
 11
194.541167
 21
0.281447
 31
0.0
  0
TEXT
  8
0
 10
194.79604
 20
-0.129709
 30
0.0
 40
0.1
  1
0.9
  7
ROMANC
  0
LINE
  8
0
 10
195.315217
 20
0.142983
 30
0.0
 11
195.44138
 21
0.281447
 31
0.0
  0
LINE
  8
0
 10
195.713505
 20
0.463244
 30
0.0
 11
195.839668
 21
0.601708
 31
0.0
  0
TEXT
  8
0
 10
192.04904
 20
6.434742
 30
0.0
 40
0.3
  1
P = 48.6 dm
  7
ROMANC
  0
LINE
  8
0
 10
195.713505
 20
1.825354
 30
0.0
 11
195.839668
 21
1.963818
 31
0.0
  0
LINE
  8
0
 10
195.713505
 20
2.179238
 30
0.0
 11
195.839668
 21
2.317702
 31
0.0
  0
TEXT
  8
0
 10
196.007095
 20
1.154655
 30
0.0
 40
0.1
  1
1.35
  7
ROMANC
  0
TEXT
  8
0
 10
196.007095
 20
2.056181
 30
0.0
 40
0.1
  1
0.35
  7
ROMANC
  0
TEXT
  8
0
 10
192.100056
 20
7.132322
 30
0.0
 40
0.3
  1
S = 146  dm
  7
ROMANC
  0
TEXT
  8
0
 10
192.086962
 20
8.216626
 30
0.0
 40
0.3
  1
TIPUS   NT146
  7
ROMANC
  0
TEXT
  8
0
 10
192.086962
 20
7.730911
 30
0.0
 40
0.3
  1
ESCALA  1:50
  7
ROMANC
  0
TEXT
  8
0
 10
195.617885
 20
7.438238
 30
0.0
 40
0.1
  1
2
  7
ROMANC
  0
LINE
  8
0
 10
200.05699
 20
-4.229234
 30
0.0
 11
200.05699
 21
10.620766
 31
0.0
  0
LINE
  8
0
 10
194.913828
 20
2.24847
 30
0.0
 11
195.776587
 21
2.24847
 31
0.0
  0
LINE
  8
0
 10
195.776587
 20
2.24847
 30
0.0
 11
195.776587
 21
1.894586
 31
0.0
  0
LINE
  8
0
 10
194.478086
 20
0.532476
 30
0.0
 11
194.478086
 21
0.212215
 31
0.0
  0
LINE
  8
0
 10
194.478086
 20
0.212215
 30
0.0
 11
195.378298
 21
0.212215
 31
0.0
  0
LINE
  8
0
 10
195.378298
 20
0.212215
 30
0.0
 11
195.378086
 21
0.532476
 31
0.0
  0
LINE
  8
0
 10
195.378086
 20
0.532476
 30
0.0
 11
195.776587
 21
0.532476
 31
0.0
  0
LINE
  8
0
 10
195.776587
 20
0.532476
 30
0.0
 11
195.776587
 21
1.894586
 31
0.0
  0
LINE
  8
0
 10
195.776587
 20
1.894586
 30
0.0
 11
195.377871
 21
1.893333
 31
0.0
  0
LINE
  8
0
 10
194.478086
 20
1.882476
 30
0.0
 11
194.478086
 21
0.532476
 31
0.0
  0
LINE
  8
0
 10
194.478086
 20
0.532476
 30
0.0
 11
195.378086
 21
0.532476
 31
0.0
  0
LINE
  8
0
 10
195.378086
 20
0.532476
 30
0.0
 11
195.378086
 21
1.882476
 31
0.0
  0
ARC
  8
0
 10
195.10323
 20
1.882476
 30
0.0
 40
0.274856
 50
360.0
 51
28.037993
  0
ARC
  8
0
 10
195.018837
 20
1.837532
 30
0.0
 40
0.370471
 50
28.037993
 51
52.125016
  0
ARC
  8
0
 10
194.963911
 20
1.766913
 30
0.0
 40
0.459934
 50
52.125016
 51
72.142819
  0
ARC
  8
0
 10
194.928086
 20
1.655711
 30
0.0
 40
0.576765
 50
72.142819
 51
90.0
  0
ARC
  8
0
 10
194.928086
 20
1.655711
 30
0.0
 40
0.576765
 50
90.0
 51
107.857181
  0
ARC
  8
0
 10
194.89226
 20
1.766913
 30
0.0
 40
0.459934
 50
107.857181
 51
127.874984
  0
ARC
  8
0
 10
194.837335
 20
1.837532
 30
0.0
 40
0.370471
 50
127.874984
 51
151.962007
  0
ARC
  8
0
 10
194.752941
 20
1.882476
 30
0.0
 40
0.274856
 50
151.962007
 51
180.0
  0
LINE
  8
0
 10
194.468086
 20
1.882476
 30
0.0
 11
194.468086
 21
0.522476
 31
0.0
  0
LINE
  8
0
 10
194.468086
 20
0.522476
 30
0.0
 11
195.388086
 21
0.522476
 31
0.0
  0
LINE
  8
0
 10
195.388086
 20
0.522476
 30
0.0
 11
195.388086
 21
1.882476
 31
0.0
  0
ARC
  8
0
 10
195.10323
 20
1.882476
 30
0.0
 40
0.284856
 50
360.0
 51
28.037993
  0
ARC
  8
0
 10
195.018837
 20
1.837532
 30
0.0
 40
0.380471
 50
28.037993
 51
52.125016
  0
ARC
  8
0
 10
194.963911
 20
1.766913
 30
0.0
 40
0.469934
 50
52.125016
 51
72.142819
  0
ARC
  8
0
 10
194.928086
 20
1.655711
 30
0.0
 40
0.586765
 50
72.142819
 51
90.0
  0
ARC
  8
0
 10
194.928086
 20
1.655711
 30
0.0
 40
0.586765
 50
90.0
 51
107.857181
  0
ARC
  8
0
 10
194.89226
 20
1.766913
 30
0.0
 40
0.469934
 50
107.857181
 51
127.874984
  0
ARC
  8
0
 10
194.837335
 20
1.837532
 30
0.0
 40
0.380471
 50
127.874984
 51
151.962007
  0
ARC
  8
0
 10
194.752941
 20
1.882476
 30
0.0
 40
0.284856
 50
151.962007
 51
180.0
  0
LINE
  8
0
 10
194.458086
 20
1.882476
 30
0.0
 11
194.458086
 21
0.512476
 31
0.0
  0
LINE
  8
0
 10
194.458086
 20
0.512476
 30
0.0
 11
195.398086
 21
0.512476
 31
0.0
  0
LINE
  8
0
 10
195.398086
 20
0.512476
 30
0.0
 11
195.398086
 21
1.882476
 31
0.0
  0
ARC
  8
0
 10
195.10323
 20
1.882476
 30
0.0
 40
0.294856
 50
360.0
 51
28.037993
  0
ARC
  8
0
 10
195.018837
 20
1.837532
 30
0.0
 40
0.390471
 50
28.037993
 51
52.125016
  0
ARC
  8
0
 10
194.963911
 20
1.766913
 30
0.0
 40
0.479934
 50
52.125016
 51
72.142819
  0
ARC
  8
0
 10
194.928086
 20
1.655711
 30
0.0
 40
0.596765
 50
72.142819
 51
90.0
  0
ARC
  8
0
 10
194.928086
 20
1.655711
 30
0.0
 40
0.596765
 50
90.0
 51
107.857181
  0
ARC
  8
0
 10
194.89226
 20
1.766913
 30
0.0
 40
0.479934
 50
107.857181
 51
127.874984
  0
ARC
  8
0
 10
194.837335
 20
1.837532
 30
0.0
 40
0.390471
 50
127.874984
 51
151.962007
  0
ARC
  8
0
 10
194.752941
 20
1.882476
 30
0.0
 40
0.294856
 50
151.962007
 51
180.0
  0
ENDSEC
  0
EOF
