  0
SECTION
  2
HEADER
  9
$ACADVER
  1
AC1009
  9
$INSBASE
 10
105.464027
 20
-4.528761
 30
0.0
  9
$EXTMIN
 10
281.395795
 20
29.897444
 30
0.0
  9
$EXTMAX
 10
291.895795
 20
44.747444
 30
0.0
  9
$LIMMIN
 10
0.0
 20
0.0
  9
$LIMMAX
 10
410.0
 20
287.0
  9
$ORTHOMODE
 70
     1
  9
$REGENMODE
 70
     1
  9
$FILLMODE
 70
     1
  9
$QTEXTMODE
 70
     0
  9
$MIRRTEXT
 70
     1
  9
$DRAGMODE
 70
     2
  9
$LTSCALE
 40
25.0
  9
$OSMODE
 70
     0
  9
$ATTMODE
 70
     1
  9
$TEXTSIZE
 40
0.1
  9
$TRACEWID
 40
1.0
  9
$TEXTSTYLE
  7
ROMANC
  9
$CLAYER
  8
0
  9
$CELTYPE
  6
BYLAYER
  9
$CECOLOR
 62
   256
  9
$DIMSCALE
 40
1.5
  9
$DIMASZ
 40
0.1
  9
$DIMEXO
 40
0.01
  9
$DIMDLI
 40
7.0
  9
$DIMRND
 40
0.0
  9
$DIMDLE
 40
0.0
  9
$DIMEXE
 40
0.01
  9
$DIMTP
 40
0.0
  9
$DIMTM
 40
0.0
  9
$DIMTXT
 40
0.05
  9
$DIMCEN
 40
0.1
  9
$DIMTSZ
 40
0.0
  9
$DIMTOL
 70
     0
  9
$DIMLIM
 70
     0
  9
$DIMTIH
 70
     0
  9
$DIMTOH
 70
     0
  9
$DIMSE1
 70
     0
  9
$DIMSE2
 70
     0
  9
$DIMTAD
 70
     1
  9
$DIMZIN
 70
     0
  9
$DIMBLK
  1

  9
$DIMASO
 70
     1
  9
$DIMSHO
 70
     0
  9
$DIMPOST
  1

  9
$DIMAPOST
  1

  9
$DIMALT
 70
     0
  9
$DIMALTD
 70
     2
  9
$DIMALTF
 40
25.4
  9
$DIMLFAC
 40
1.0
  9
$DIMTOFL
 70
     1
  9
$DIMTVP
 40
0.0
  9
$DIMTIX
 70
     1
  9
$DIMSOXD
 70
     0
  9
$DIMSAH
 70
     0
  9
$DIMBLK1
  1

  9
$DIMBLK2
  1

  9
$DIMSTYLE
  2
*UNNAMED
  9
$DIMCLRD
 70
     0
  9
$DIMCLRE
 70
     0
  9
$DIMCLRT
 70
     0
  9
$DIMTFAC
 40
70.0
  9
$DIMGAP
 40
0.09
  9
$LUNITS
 70
     2
  9
$LUPREC
 70
     2
  9
$SKETCHINC
 40
1.0
  9
$FILLETRAD
 40
0.0
  9
$AUNITS
 70
     0
  9
$AUPREC
 70
     0
  9
$MENU
  1
acad
  9
$ELEVATION
 40
0.0
  9
$PELEVATION
 40
0.0
  9
$THICKNESS
 40
0.0
  9
$LIMCHECK
 70
     0
  9
$BLIPMODE
 70
     0
  9
$CHAMFERA
 40
0.0
  9
$CHAMFERB
 40
0.0
  9
$SKPOLY
 70
     0
  9
$TDCREATE
 40
2450305.554557986
  9
$TDUPDATE
 40
2450827.754268055
  9
$TDINDWG
 40
0.0736466435
  9
$TDUSRTIMER
 40
0.0736466435
  9
$USRTIMER
 70
     1
  9
$ANGBASE
 50
0.0
  9
$ANGDIR
 70
     0
  9
$PDMODE
 70
     0
  9
$PDSIZE
 40
0.0
  9
$PLINEWID
 40
0.0
  9
$COORDS
 70
     2
  9
$SPLFRAME
 70
     0
  9
$SPLINETYPE
 70
     6
  9
$SPLINESEGS
 70
     8
  9
$ATTDIA
 70
     0
  9
$ATTREQ
 70
     1
  9
$HANDLING
 70
     0
  9
$HANDSEED
  5
0
  9
$SURFTAB1
 70
     6
  9
$SURFTAB2
 70
     6
  9
$SURFTYPE
 70
     6
  9
$SURFU
 70
     6
  9
$SURFV
 70
     6
  9
$UCSNAME
  2

  9
$UCSORG
 10
0.0
 20
0.0
 30
0.0
  9
$UCSXDIR
 10
1.0
 20
0.0
 30
0.0
  9
$UCSYDIR
 10
0.0
 20
1.0
 30
0.0
  9
$PUCSNAME
  2

  9
$PUCSORG
 10
0.0
 20
0.0
 30
0.0
  9
$PUCSXDIR
 10
1.0
 20
0.0
 30
0.0
  9
$PUCSYDIR
 10
0.0
 20
1.0
 30
0.0
  9
$USERI1
 70
     0
  9
$USERI2
 70
     0
  9
$USERI3
 70
     0
  9
$USERI4
 70
     0
  9
$USERI5
 70
     0
  9
$USERR1
 40
0.0
  9
$USERR2
 40
0.0
  9
$USERR3
 40
0.0
  9
$USERR4
 40
0.0
  9
$USERR5
 40
0.0
  9
$WORLDVIEW
 70
     1
  9
$SHADEDGE
 70
     3
  9
$SHADEDIF
 70
    70
  9
$TILEMODE
 70
     1
  9
$MAXACTVP
 70
    16
  9
$PINSBASE
 10
0.0
 20
0.0
 30
0.0
  9
$PLIMCHECK
 70
     0
  9
$PEXTMIN
 10
1.000000E+20
 20
1.000000E+20
 30
1.000000E+20
  9
$PEXTMAX
 10
-1.000000E+20
 20
-1.000000E+20
 30
-1.000000E+20
  9
$PLIMMIN
 10
0.0
 20
0.0
  9
$PLIMMAX
 10
12.0
 20
9.0
  9
$UNITMODE
 70
     0
  9
$VISRETAIN
 70
     0
  9
$PLINEGEN
 70
     0
  9
$PSLTSCALE
 70
     0
  9
$TREEDEPTH
 70
  3020
  9
$DWGCODEPAGE
  3
iso8859-1
  0
ENDSEC
  0
SECTION
  2
TABLES
  0
TABLE
  2
VPORT
 70
     2
  0
VPORT
  2
*ACTIVE
 70
     0
 10
0.0
 20
0.0
 11
1.0
 21
1.0
 12
293.357646
 22
37.322444
 13
0.0
 23
0.0
 14
1.0
 24
1.0
 15
10.0
 25
10.0
 16
0.0
 26
0.0
 36
1.0
 17
0.0
 27
0.0
 37
0.0
 40
14.85
 41
1.611024
 42
50.0
 43
0.0
 44
0.0
 50
0.0
 51
0.0
 71
     0
 72
   100
 73
     1
 74
     0
 75
     0
 76
     0
 77
     0
 78
     1
  0
ENDTAB
  0
TABLE
  2
LTYPE
 70
     1
  0
LTYPE
  2
CONTINUOUS
 70
    64
  3
Solid line
 72
    65
 73
     0
 40
0.0
  0
ENDTAB
  0
TABLE
  2
LAYER
 70
     3
  0
LAYER
  2
0
 70
    64
 62
     7
  6
CONTINUOUS
  0
LAYER
  2
MESURA
 70
     0
 62
     7
  6
CONTINUOUS
  0
LAYER
  2
DEFPOINTS
 70
     0
 62
     7
  6
CONTINUOUS
  0
ENDTAB
  0
TABLE
  2
STYLE
 70
     2
  0
STYLE
  2
STANDARD
 70
     0
 40
0.0
 41
1.0
 50
0.0
 71
     0
 42
0.1
  3
txt
  4

  0
STYLE
  2
ROMANC
 70
    64
 40
0.0
 41
1.0
 50
0.0
 71
     0
 42
0.1
  3
romanc
  4

  0
ENDTAB
  0
TABLE
  2
VIEW
 70
     0
  0
ENDTAB
  0
TABLE
  2
UCS
 70
     0
  0
ENDTAB
  0
TABLE
  2
APPID
 70
     1
  0
APPID
  2
ACAD
 70
    64
  0
ENDTAB
  0
TABLE
  2
DIMSTYLE
 70
     1
  0
DIMSTYLE
  2
SILVIA
 70
     0
  3

  4

  5

  6

  7

 40
1.5
 41
0.1
 42
0.01
 43
7.0
 44
0.01
 45
0.0
 46
0.0
 47
0.0
 48
0.0
140
0.05
141
0.1
142
0.0
143
25.4
144
1.0
145
0.0
146
70.0
147
0.09
 71
     0
 72
     0
 73
     0
 74
     0
 75
     0
 76
     0
 77
     1
 78
     0
170
     0
171
     2
172
     1
173
     0
174
     1
175
     0
176
     0
177
     0
178
     0
  0
ENDTAB
  0
ENDSEC
  0
SECTION
  2
BLOCKS
  0
BLOCK
  8
0
  2
*D0
 70
    65
 10
0.0
 20
0.0
 30
0.0
  3
*D
  0
LINE
  8
0
  6
BYBLOCK
 62
     0
 10
285.782576
 20
34.800466
 30
0.0
 11
285.782576
 21
34.553264
 31
0.0
  0
LINE
  8
0
  6
BYBLOCK
 62
     0
 10
286.982576
 20
34.800466
 30
0.0
 11
286.982576
 21
34.553264
 31
0.0
  0
LINE
  8
0
  6
BYBLOCK
 62
     0
 10
285.932576
 20
34.568264
 30
0.0
 11
286.832576
 21
34.568264
 31
0.0
  0
SOLID
  8
0
  6
BYBLOCK
 62
     0
 10
285.932576
 20
34.593264
 30
0.0
 11
285.932576
 21
34.543264
 31
0.0
 12
285.782576
 22
34.568264
 32
0.0
 13
285.782576
 23
34.568264
 33
0.0
  0
SOLID
  8
0
  6
BYBLOCK
 62
     0
 10
286.832576
 20
34.593264
 30
0.0
 11
286.832576
 21
34.543264
 31
0.0
 12
286.982576
 22
34.568264
 32
0.0
 13
286.982576
 23
34.568264
 33
0.0
  0
TEXT
  8
0
  6
BYBLOCK
 62
     0
 10
286.252219
 20
34.605764
 30
0.0
 40
0.075
  1
1.20
  7
ROMANC
 72
     1
 11
286.382576
 21
34.643264
 31
0.0
 73
     2
  0
POINT
  8
DEFPOINTS
  6
BYBLOCK
 62
     0
 10
285.782576
 20
34.815466
 30
0.0
  0
POINT
  8
DEFPOINTS
  6
BYBLOCK
 62
     0
 10
286.982576
 20
34.815466
 30
0.0
  0
POINT
  8
DEFPOINTS
  6
BYBLOCK
 62
     0
 10
286.982576
 20
34.568264
 30
0.0
  0
ENDBLK
  8
0
  0
BLOCK
  8
0
  2
*D1
 70
    65
 10
0.0
 20
0.0
 30
0.0
  3
*D
  0
LINE
  8
0
  6
BYBLOCK
 62
     0
 10
285.782576
 20
34.800466
 30
0.0
 11
285.782576
 21
34.460566
 31
0.0
  0
LINE
  8
0
  6
BYBLOCK
 62
     0
 10
286.982576
 20
34.800466
 30
0.0
 11
286.982576
 21
34.460566
 31
0.0
  0
LINE
  8
0
  6
BYBLOCK
 62
     0
 10
285.932576
 20
34.475566
 30
0.0
 11
286.832576
 21
34.475566
 31
0.0
  0
SOLID
  8
0
  6
BYBLOCK
 62
     0
 10
285.932576
 20
34.500566
 30
0.0
 11
285.932576
 21
34.450566
 31
0.0
 12
285.782576
 22
34.475566
 32
0.0
 13
285.782576
 23
34.475566
 33
0.0
  0
SOLID
  8
0
  6
BYBLOCK
 62
     0
 10
286.832576
 20
34.500566
 30
0.0
 11
286.832576
 21
34.450566
 31
0.0
 12
286.982576
 22
34.475566
 32
0.0
 13
286.982576
 23
34.475566
 33
0.0
  0
TEXT
  8
0
  6
BYBLOCK
 62
     0
 10
286.252219
 20
34.513066
 30
0.0
 40
0.075
  1
1.20
  7
ROMANC
 72
     1
 11
286.382576
 21
34.550566
 31
0.0
 73
     2
  0
POINT
  8
DEFPOINTS
  6
BYBLOCK
 62
     0
 10
285.782576
 20
34.815466
 30
0.0
  0
POINT
  8
DEFPOINTS
  6
BYBLOCK
 62
     0
 10
286.982576
 20
34.815466
 30
0.0
  0
POINT
  8
DEFPOINTS
  6
BYBLOCK
 62
     0
 10
286.982576
 20
34.475566
 30
0.0
  0
ENDBLK
  8
0
  0
BLOCK
  8
0
  2
*D2
 70
    65
 10
0.0
 20
0.0
 30
0.0
  3
*D
  0
LINE
  8
0
  6
BYBLOCK
 62
     0
 10
285.732576
 20
35.330466
 30
0.0
 11
285.732576
 21
35.330466
 31
0.0
  0
LINE
  8
0
  6
BYBLOCK
 62
     0
 10
287.032576
 20
35.330466
 30
0.0
 11
287.032576
 21
35.330466
 31
0.0
  0
LINE
  8
0
  6
BYBLOCK
 62
     0
 10
285.882576
 20
35.315466
 30
0.0
 11
286.882576
 21
35.315466
 31
0.0
  0
SOLID
  8
0
  6
BYBLOCK
 62
     0
 10
285.882576
 20
35.340466
 30
0.0
 11
285.882576
 21
35.290466
 31
0.0
 12
285.732576
 22
35.315466
 32
0.0
 13
285.732576
 23
35.315466
 33
0.0
  0
SOLID
  8
0
  6
BYBLOCK
 62
     0
 10
286.882576
 20
35.340466
 30
0.0
 11
286.882576
 21
35.290466
 31
0.0
 12
287.032576
 22
35.315466
 32
0.0
 13
287.032576
 23
35.315466
 33
0.0
  0
TEXT
  8
0
  6
BYBLOCK
 62
     0
 10
286.252219
 20
35.352966
 30
0.0
 40
0.075
  1
1.30
  7
ROMANC
 72
     1
 11
286.382576
 21
35.390466
 31
0.0
 73
     2
  0
POINT
  8
DEFPOINTS
  6
BYBLOCK
 62
     0
 10
285.732576
 20
35.315466
 30
0.0
  0
POINT
  8
DEFPOINTS
  6
BYBLOCK
 62
     0
 10
287.032576
 20
35.315466
 30
0.0
  0
POINT
  8
DEFPOINTS
  6
BYBLOCK
 62
     0
 10
287.032576
 20
35.315466
 30
0.0
  0
ENDBLK
  8
0
  0
BLOCK
  8
0
  2
*D3
 70
    65
 10
0.0
 20
0.0
 30
0.0
  3
*D
  0
LINE
  8
0
  6
BYBLOCK
 62
     0
 10
287.047576
 20
35.315466
 30
0.0
 11
287.31603
 21
35.315466
 31
0.0
  0
LINE
  8
0
  6
BYBLOCK
 62
     0
 10
286.997576
 20
34.815466
 30
0.0
 11
287.31603
 21
34.815466
 31
0.0
  0
LINE
  8
0
  6
BYBLOCK
 62
     0
 10
287.30103
 20
35.465466
 30
0.0
 11
287.30103
 21
35.615466
 31
0.0
  0
LINE
  8
0
  6
BYBLOCK
 62
     0
 10
287.30103
 20
34.665466
 30
0.0
 11
287.30103
 21
34.515466
 31
0.0
  0
SOLID
  8
0
  6
BYBLOCK
 62
     0
 10
287.27603
 20
35.465466
 30
0.0
 11
287.32603
 21
35.465466
 31
0.0
 12
287.30103
 22
35.315466
 32
0.0
 13
287.30103
 23
35.315466
 33
0.0
  0
SOLID
  8
0
  6
BYBLOCK
 62
     0
 10
287.27603
 20
34.665466
 30
0.0
 11
287.32603
 21
34.665466
 31
0.0
 12
287.30103
 22
34.815466
 32
0.0
 13
287.30103
 23
34.815466
 33
0.0
  0
LINE
  8
0
  6
BYBLOCK
 62
     0
 10
287.30103
 20
35.315466
 30
0.0
 11
287.30103
 21
34.815466
 31
0.0
  0
TEXT
  8
0
  6
BYBLOCK
 62
     0
 10
287.26353
 20
34.940466
 30
0.0
 40
0.075
  1
0.50
 50
90.0
  7
ROMANC
 72
     1
 11
287.22603
 21
35.065466
 31
0.0
 73
     2
  0
POINT
  8
DEFPOINTS
  6
BYBLOCK
 62
     0
 10
287.032576
 20
35.315466
 30
0.0
  0
POINT
  8
DEFPOINTS
  6
BYBLOCK
 62
     0
 10
286.982576
 20
34.815466
 30
0.0
  0
POINT
  8
DEFPOINTS
  6
BYBLOCK
 62
     0
 10
287.30103
 20
34.815466
 30
0.0
  0
ENDBLK
  8
0
  0
BLOCK
  8
0
  2
*D4
 70
    65
 10
0.0
 20
0.0
 30
0.0
  3
*D
  0
LINE
  8
0
  6
BYBLOCK
 62
     0
 10
286.397576
 20
36.115466
 30
0.0
 11
287.635104
 21
36.115466
 31
0.0
  0
LINE
  8
0
  6
BYBLOCK
 62
     0
 10
286.397576
 20
34.815466
 30
0.0
 11
287.635104
 21
34.815466
 31
0.0
  0
LINE
  8
0
  6
BYBLOCK
 62
     0
 10
287.620104
 20
35.965466
 30
0.0
 11
287.620104
 21
34.965466
 31
0.0
  0
SOLID
  8
0
  6
BYBLOCK
 62
     0
 10
287.595104
 20
35.965466
 30
0.0
 11
287.645104
 21
35.965466
 31
0.0
 12
287.620104
 22
36.115466
 32
0.0
 13
287.620104
 23
36.115466
 33
0.0
  0
SOLID
  8
0
  6
BYBLOCK
 62
     0
 10
287.595104
 20
34.965466
 30
0.0
 11
287.645104
 21
34.965466
 31
0.0
 12
287.620104
 22
34.815466
 32
0.0
 13
287.620104
 23
34.815466
 33
0.0
  0
TEXT
  8
0
  6
BYBLOCK
 62
     0
 10
287.582604
 20
35.335109
 30
0.0
 40
0.075
  1
1.30
 50
90.0
  7
ROMANC
 72
     1
 11
287.545104
 21
35.465466
 31
0.0
 73
     2
  0
POINT
  8
DEFPOINTS
  6
BYBLOCK
 62
     0
 10
286.382576
 20
36.115466
 30
0.0
  0
POINT
  8
DEFPOINTS
  6
BYBLOCK
 62
     0
 10
286.382576
 20
34.815466
 30
0.0
  0
POINT
  8
DEFPOINTS
  6
BYBLOCK
 62
     0
 10
287.620104
 20
34.815466
 30
0.0
  0
ENDBLK
  8
0
  0
ENDSEC
  0
SECTION
  2
ENTITIES
  0
TEXT
  8
0
 10
283.887846
 20
40.56142
 30
0.0
 40
0.3
  1
P = 44.9 dm
  7
ROMANC
  0
TEXT
  8
0
 10
287.196056
 20
41.564915
 30
0.0
 40
0.1
  1
2
  7
ROMANC
  0
TEXT
  8
0
 10
283.925768
 20
41.857589
 30
0.0
 40
0.3
  1
ESCALA  1:50
  7
ROMANC
  0
TEXT
  8
0
 10
283.925768
 20
42.343303
 30
0.0
 40
0.3
  1
TIPUS   NT144
  7
ROMANC
  0
TEXT
  8
0
 10
283.938862
 20
41.258999
 30
0.0
 40
0.3
  1
S = 144 dm
  7
ROMANC
  0
LINE
  8
0
 10
285.777146
 20
34.809466
 30
0.0
 11
286.988006
 21
34.809466
 31
0.0
  0
LINE
  8
0
 10
286.988006
 20
34.809466
 30
0.0
 11
287.038576
 21
35.315166
 31
0.0
  0
ARC
  8
0
 10
286.050779
 20
35.315466
 30
0.0
 40
0.987798
 50
359.982616
 51
18.600584
  0
ARC
  8
0
 10
286.213276
 20
35.370154
 30
0.0
 40
0.816344
 50
18.600584
 51
39.093859
  0
ARC
  8
0
 10
286.316627
 20
35.454127
 30
0.0
 40
0.68318
 50
39.093859
 51
62.987454
  0
ARC
  8
0
 10
286.382576
 20
35.58349
 30
0.0
 40
0.537976
 50
62.987454
 51
90.0
  0
ARC
  8
0
 10
286.382576
 20
35.58349
 30
0.0
 40
0.537976
 50
90.0
 51
117.012546
  0
ARC
  8
0
 10
286.448526
 20
35.454127
 30
0.0
 40
0.68318
 50
117.012546
 51
140.906141
  0
ARC
  8
0
 10
286.551877
 20
35.370154
 30
0.0
 40
0.816344
 50
140.906141
 51
161.399416
  0
ARC
  8
0
 10
286.714374
 20
35.315466
 30
0.0
 40
0.987798
 50
161.399416
 51
180.017384
  0
LINE
  8
0
 10
285.726576
 20
35.315166
 30
0.0
 11
285.777146
 21
34.809466
 31
0.0
  0
LINE
  8
0
 10
285.779861
 20
34.812466
 30
0.0
 11
286.985291
 21
34.812466
 31
0.0
  0
LINE
  8
0
 10
286.985291
 20
34.812466
 30
0.0
 11
287.035576
 21
35.315316
 31
0.0
  0
ARC
  8
0
 10
286.050779
 20
35.315466
 30
0.0
 40
0.984798
 50
359.991288
 51
18.600584
  0
ARC
  8
0
 10
286.213276
 20
35.370154
 30
0.0
 40
0.813344
 50
18.600584
 51
39.093859
  0
ARC
  8
0
 10
286.316627
 20
35.454127
 30
0.0
 40
0.68018
 50
39.093859
 51
62.987454
  0
ARC
  8
0
 10
286.382576
 20
35.58349
 30
0.0
 40
0.534976
 50
62.987454
 51
90.0
  0
ARC
  8
0
 10
286.382576
 20
35.58349
 30
0.0
 40
0.534976
 50
90.0
 51
117.012546
  0
ARC
  8
0
 10
286.448526
 20
35.454127
 30
0.0
 40
0.68018
 50
117.012546
 51
140.906141
  0
ARC
  8
0
 10
286.551877
 20
35.370154
 30
0.0
 40
0.813344
 50
140.906141
 51
161.399416
  0
ARC
  8
0
 10
286.714374
 20
35.315466
 30
0.0
 40
0.984798
 50
161.399416
 51
180.008712
  0
LINE
  8
0
 10
285.729576
 20
35.315316
 30
0.0
 11
285.779861
 21
34.812466
 31
0.0
  0
LINE
  8
0
  6
BYBLOCK
 62
     0
 10
286.397576
 20
36.115466
 30
0.0
 11
287.635104
 21
36.115466
 31
0.0
  0
LINE
  8
0
  6
BYBLOCK
 62
     0
 10
286.397576
 20
34.815466
 30
0.0
 11
287.635104
 21
34.815466
 31
0.0
  0
LINE
  8
0
  6
BYBLOCK
 62
     0
 10
287.620104
 20
35.965466
 30
0.0
 11
287.620104
 21
34.965466
 31
0.0
  0
SOLID
  8
0
  6
BYBLOCK
 62
     0
 10
287.595104
 20
35.965466
 30
0.0
 11
287.645104
 21
35.965466
 31
0.0
 12
287.620104
 22
36.115466
 32
0.0
 13
287.620104
 23
36.115466
 33
0.0
  0
SOLID
  8
0
  6
BYBLOCK
 62
     0
 10
287.595104
 20
34.965466
 30
0.0
 11
287.645104
 21
34.965466
 31
0.0
 12
287.620104
 22
34.815466
 32
0.0
 13
287.620104
 23
34.815466
 33
0.0
  0
TEXT
  8
0
  6
BYBLOCK
 62
     0
 10
287.582604
 20
35.335109
 30
0.0
 40
0.075
  1
1.30
 50
90.0
  7
ROMANC
 72
     1
 11
287.545104
 21
35.465466
 31
0.0
 73
     2
  0
POINT
  8
DEFPOINTS
  6
BYBLOCK
 62
     0
 10
286.382576
 20
36.115466
 30
0.0
  0
POINT
  8
DEFPOINTS
  6
BYBLOCK
 62
     0
 10
286.382576
 20
34.815466
 30
0.0
  0
POINT
  8
DEFPOINTS
  6
BYBLOCK
 62
     0
 10
287.620104
 20
34.815466
 30
0.0
  0
LINE
  8
0
  6
BYBLOCK
 62
     0
 10
287.047576
 20
35.315466
 30
0.0
 11
287.31603
 21
35.315466
 31
0.0
  0
LINE
  8
0
  6
BYBLOCK
 62
     0
 10
286.997576
 20
34.815466
 30
0.0
 11
287.31603
 21
34.815466
 31
0.0
  0
LINE
  8
0
  6
BYBLOCK
 62
     0
 10
287.30103
 20
35.465466
 30
0.0
 11
287.30103
 21
35.615466
 31
0.0
  0
LINE
  8
0
  6
BYBLOCK
 62
     0
 10
287.30103
 20
34.665466
 30
0.0
 11
287.30103
 21
34.515466
 31
0.0
  0
SOLID
  8
0
  6
BYBLOCK
 62
     0
 10
287.27603
 20
35.465466
 30
0.0
 11
287.32603
 21
35.465466
 31
0.0
 12
287.30103
 22
35.315466
 32
0.0
 13
287.30103
 23
35.315466
 33
0.0
  0
SOLID
  8
0
  6
BYBLOCK
 62
     0
 10
287.27603
 20
34.665466
 30
0.0
 11
287.32603
 21
34.665466
 31
0.0
 12
287.30103
 22
34.815466
 32
0.0
 13
287.30103
 23
34.815466
 33
0.0
  0
LINE
  8
0
  6
BYBLOCK
 62
     0
 10
287.30103
 20
35.315466
 30
0.0
 11
287.30103
 21
34.815466
 31
0.0
  0
TEXT
  8
0
  6
BYBLOCK
 62
     0
 10
287.26353
 20
34.940466
 30
0.0
 40
0.075
  1
0.50
 50
90.0
  7
ROMANC
 72
     1
 11
287.22603
 21
35.065466
 31
0.0
 73
     2
  0
POINT
  8
DEFPOINTS
  6
BYBLOCK
 62
     0
 10
287.032576
 20
35.315466
 30
0.0
  0
POINT
  8
DEFPOINTS
  6
BYBLOCK
 62
     0
 10
286.982576
 20
34.815466
 30
0.0
  0
POINT
  8
DEFPOINTS
  6
BYBLOCK
 62
     0
 10
287.30103
 20
34.815466
 30
0.0
  0
LINE
  8
0
  6
BYBLOCK
 62
     0
 10
285.732576
 20
35.330466
 30
0.0
 11
285.732576
 21
35.330466
 31
0.0
  0
LINE
  8
0
  6
BYBLOCK
 62
     0
 10
287.032576
 20
35.330466
 30
0.0
 11
287.032576
 21
35.330466
 31
0.0
  0
LINE
  8
0
  6
BYBLOCK
 62
     0
 10
285.882576
 20
35.315466
 30
0.0
 11
286.882576
 21
35.315466
 31
0.0
  0
SOLID
  8
0
  6
BYBLOCK
 62
     0
 10
285.882576
 20
35.340466
 30
0.0
 11
285.882576
 21
35.290466
 31
0.0
 12
285.732576
 22
35.315466
 32
0.0
 13
285.732576
 23
35.315466
 33
0.0
  0
SOLID
  8
0
  6
BYBLOCK
 62
     0
 10
286.882576
 20
35.340466
 30
0.0
 11
286.882576
 21
35.290466
 31
0.0
 12
287.032576
 22
35.315466
 32
0.0
 13
287.032576
 23
35.315466
 33
0.0
  0
TEXT
  8
0
  6
BYBLOCK
 62
     0
 10
286.252219
 20
35.352966
 30
0.0
 40
0.075
  1
1.30
  7
ROMANC
 72
     1
 11
286.382576
 21
35.390466
 31
0.0
 73
     2
  0
POINT
  8
DEFPOINTS
  6
BYBLOCK
 62
     0
 10
285.732576
 20
35.315466
 30
0.0
  0
POINT
  8
DEFPOINTS
  6
BYBLOCK
 62
     0
 10
287.032576
 20
35.315466
 30
0.0
  0
POINT
  8
DEFPOINTS
  6
BYBLOCK
 62
     0
 10
287.032576
 20
35.315466
 30
0.0
  0
LINE
  8
0
  6
BYBLOCK
 62
     0
 10
285.782576
 20
34.800466
 30
0.0
 11
285.782576
 21
34.460566
 31
0.0
  0
LINE
  8
0
  6
BYBLOCK
 62
     0
 10
286.982576
 20
34.800466
 30
0.0
 11
286.982576
 21
34.460566
 31
0.0
  0
LINE
  8
0
  6
BYBLOCK
 62
     0
 10
285.932576
 20
34.475566
 30
0.0
 11
286.832576
 21
34.475566
 31
0.0
  0
SOLID
  8
0
  6
BYBLOCK
 62
     0
 10
285.932576
 20
34.500566
 30
0.0
 11
285.932576
 21
34.450566
 31
0.0
 12
285.782576
 22
34.475566
 32
0.0
 13
285.782576
 23
34.475566
 33
0.0
  0
SOLID
  8
0
  6
BYBLOCK
 62
     0
 10
286.832576
 20
34.500566
 30
0.0
 11
286.832576
 21
34.450566
 31
0.0
 12
286.982576
 22
34.475566
 32
0.0
 13
286.982576
 23
34.475566
 33
0.0
  0
TEXT
  8
0
  6
BYBLOCK
 62
     0
 10
286.252219
 20
34.513066
 30
0.0
 40
0.075
  1
1.20
  7
ROMANC
 72
     1
 11
286.382576
 21
34.550566
 31
0.0
 73
     2
  0
POINT
  8
DEFPOINTS
  6
BYBLOCK
 62
     0
 10
285.782576
 20
34.815466
 30
0.0
  0
POINT
  8
DEFPOINTS
  6
BYBLOCK
 62
     0
 10
286.982576
 20
34.815466
 30
0.0
  0
POINT
  8
DEFPOINTS
  6
BYBLOCK
 62
     0
 10
286.982576
 20
34.475566
 30
0.0
  0
LINE
  8
0
 10
285.782576
 20
34.815466
 30
0.0
 11
286.982576
 21
34.815466
 31
0.0
  0
LINE
  8
0
 10
286.982576
 20
34.815466
 30
0.0
 11
287.032576
 21
35.315466
 31
0.0
  0
ARC
  8
0
 10
286.050779
 20
35.315466
 30
0.0
 40
0.981798
 50
0.0
 51
18.600584
  0
ARC
  8
0
 10
286.213276
 20
35.370154
 30
0.0
 40
0.810344
 50
18.600584
 51
39.093859
  0
ARC
  8
0
 10
286.316627
 20
35.454127
 30
0.0
 40
0.67718
 50
39.093859
 51
62.987454
  0
ARC
  8
0
 10
286.382576
 20
35.58349
 30
0.0
 40
0.531976
 50
62.987454
 51
90.0
  0
ARC
  8
0
 10
286.382576
 20
35.58349
 30
0.0
 40
0.531976
 50
90.0
 51
117.012546
  0
ARC
  8
0
 10
286.448526
 20
35.454127
 30
0.0
 40
0.67718
 50
117.012546
 51
140.906141
  0
ARC
  8
0
 10
286.551877
 20
35.370154
 30
0.0
 40
0.810344
 50
140.906141
 51
161.399416
  0
ARC
  8
0
 10
286.714374
 20
35.315466
 30
0.0
 40
0.981798
 50
161.399416
 51
180.0
  0
LINE
  8
0
 10
285.732576
 20
35.315466
 30
0.0
 11
285.782576
 21
34.815466
 31
0.0
  0
LINE
  8
0
 10
281.395795
 20
29.897444
 30
0.0
 11
281.395795
 21
44.747444
 31
0.0
  0
LINE
  8
0
 10
281.395795
 20
44.747444
 30
0.0
 11
291.895795
 21
44.747444
 31
0.0
  0
LINE
  8
0
 10
291.895795
 20
44.747444
 30
0.0
 11
291.895795
 21
29.897444
 31
0.0
  0
LINE
  8
0
 10
291.895795
 20
29.897444
 30
0.0
 11
281.395795
 21
29.897444
 31
0.0
  0
ENDSEC
  0
EOF
