  0
SECTION
  2
HEADER
  9
$ACADVER
  1
AC1009
  9
$INSBASE
 10
0.0
 20
0.0
 30
0.0
  9
$EXTMIN
 10
318.829805
 20
29.85788
 30
0.0
  9
$EXTMAX
 10
329.371339
 20
44.72551
 30
0.0
  9
$LIMMIN
 10
0.0
 20
0.0
  9
$LIMMAX
 10
410.0
 20
287.0
  9
$ORTHOMODE
 70
     1
  9
$REGENMODE
 70
     1
  9
$FILLMODE
 70
     1
  9
$QTEXTMODE
 70
     0
  9
$MIRRTEXT
 70
     1
  9
$DRAGMODE
 70
     2
  9
$LTSCALE
 40
25.0
  9
$OSMODE
 70
     0
  9
$ATTMODE
 70
     1
  9
$TEXTSIZE
 40
0.1
  9
$TRACEWID
 40
1.0
  9
$TEXTSTYLE
  7
ROMANC
  9
$CLAYER
  8
0
  9
$CELTYPE
  6
BYLAYER
  9
$CECOLOR
 62
   256
  9
$DIMSCALE
 40
1.5
  9
$DIMASZ
 40
0.1
  9
$DIMEXO
 40
0.01
  9
$DIMDLI
 40
7.0
  9
$DIMRND
 40
0.0
  9
$DIMDLE
 40
0.0
  9
$DIMEXE
 40
0.01
  9
$DIMTP
 40
0.0
  9
$DIMTM
 40
0.0
  9
$DIMTXT
 40
0.05
  9
$DIMCEN
 40
0.0
  9
$DIMTSZ
 40
0.0
  9
$DIMTOL
 70
     0
  9
$DIMLIM
 70
     0
  9
$DIMTIH
 70
     0
  9
$DIMTOH
 70
     0
  9
$DIMSE1
 70
     0
  9
$DIMSE2
 70
     0
  9
$DIMTAD
 70
     1
  9
$DIMZIN
 70
     0
  9
$DIMBLK
  1

  9
$DIMASO
 70
     1
  9
$DIMSHO
 70
     0
  9
$DIMPOST
  1

  9
$DIMAPOST
  1

  9
$DIMALT
 70
     0
  9
$DIMALTD
 70
     2
  9
$DIMALTF
 40
25.4
  9
$DIMLFAC
 40
1.0
  9
$DIMTOFL
 70
     1
  9
$DIMTVP
 40
0.0
  9
$DIMTIX
 70
     1
  9
$DIMSOXD
 70
     0
  9
$DIMSAH
 70
     0
  9
$DIMBLK1
  1

  9
$DIMBLK2
  1

  9
$DIMSTYLE
  2
MERITXELL
  9
$DIMCLRD
 70
     0
  9
$DIMCLRE
 70
     0
  9
$DIMCLRT
 70
     0
  9
$DIMTFAC
 40
70.0
  9
$DIMGAP
 40
0.025
  9
$LUNITS
 70
     2
  9
$LUPREC
 70
     2
  9
$SKETCHINC
 40
1.0
  9
$FILLETRAD
 40
0.0
  9
$AUNITS
 70
     0
  9
$AUPREC
 70
     0
  9
$MENU
  1
acad
  9
$ELEVATION
 40
0.0
  9
$PELEVATION
 40
0.0
  9
$THICKNESS
 40
0.0
  9
$LIMCHECK
 70
     0
  9
$BLIPMODE
 70
     0
  9
$CHAMFERA
 40
0.0
  9
$CHAMFERB
 40
0.0
  9
$SKPOLY
 70
     0
  9
$TDCREATE
 40
2450927.46195
  9
$TDUPDATE
 40
2450967.563976
  9
$TDINDWG
 40
0.050228
  9
$TDUSRTIMER
 40
0.050228
  9
$USRTIMER
 70
     1
  9
$ANGBASE
 50
0.0
  9
$ANGDIR
 70
     0
  9
$PDMODE
 70
     0
  9
$PDSIZE
 40
0.0
  9
$PLINEWID
 40
0.0
  9
$COORDS
 70
     2
  9
$SPLFRAME
 70
     0
  9
$SPLINETYPE
 70
     6
  9
$SPLINESEGS
 70
     8
  9
$ATTDIA
 70
     0
  9
$ATTREQ
 70
     1
  9
$HANDLING
 70
     1
  9
$HANDSEED
  5
52F
  9
$SURFTAB1
 70
     6
  9
$SURFTAB2
 70
     6
  9
$SURFTYPE
 70
     6
  9
$SURFU
 70
     6
  9
$SURFV
 70
     6
  9
$UCSNAME
  2

  9
$UCSORG
 10
0.0
 20
0.0
 30
0.0
  9
$UCSXDIR
 10
1.0
 20
0.0
 30
0.0
  9
$UCSYDIR
 10
0.0
 20
1.0
 30
0.0
  9
$PUCSNAME
  2

  9
$PUCSORG
 10
0.0
 20
0.0
 30
0.0
  9
$PUCSXDIR
 10
1.0
 20
0.0
 30
0.0
  9
$PUCSYDIR
 10
0.0
 20
1.0
 30
0.0
  9
$USERI1
 70
     0
  9
$USERI2
 70
     0
  9
$USERI3
 70
     0
  9
$USERI4
 70
     0
  9
$USERI5
 70
     0
  9
$USERR1
 40
0.0
  9
$USERR2
 40
0.0
  9
$USERR3
 40
0.0
  9
$USERR4
 40
0.0
  9
$USERR5
 40
0.0
  9
$WORLDVIEW
 70
     1
  9
$SHADEDGE
 70
     3
  9
$SHADEDIF
 70
    70
  9
$TILEMODE
 70
     1
  9
$MAXACTVP
 70
    16
  9
$PLIMCHECK
 70
     0
  9
$PEXTMIN
 10
1.000000E+020
 20
1.000000E+020
 30
1.000000E+020
  9
$PEXTMAX
 10
-1.000000E+020
 20
-1.000000E+020
 30
-1.000000E+020
  9
$PLIMMIN
 10
0.0
 20
0.0
  9
$PLIMMAX
 10
12.0
 20
9.0
  9
$UNITMODE
 70
     0
  9
$VISRETAIN
 70
     0
  9
$PLINEGEN
 70
     0
  9
$PSLTSCALE
 70
     0
  0
ENDSEC
  0
SECTION
  2
TABLES
  0
TABLE
  2
VPORT
 70
     5
  0
VPORT
  2
*ACTIVE
 70
     0
 10
0.0
 20
0.0
 11
1.0
 21
1.0
 12
324.100572
 22
37.291695
 13
0.0
 23
0.0
 14
1.0
 24
1.0
 15
10.0
 25
10.0
 16
0.0
 26
0.0
 36
1.0
 17
0.0
 27
0.0
 37
0.0
 40
14.996726
 41
1.662319
 42
50.0
 43
0.0
 44
0.0
 50
0.0
 51
0.0
 71
     0
 72
   100
 73
     1
 74
     0
 75
     0
 76
     0
 77
     0
 78
     1
  0
ENDTAB
  0
TABLE
  2
LTYPE
 70
     1
  0
LTYPE
  2
CONTINUOUS
 70
     0
  3
Solid line
 72
    65
 73
     0
 40
0.0
  0
ENDTAB
  0
TABLE
  2
LAYER
 70
     2
  0
LAYER
  2
0
 70
     0
 62
     7
  6
CONTINUOUS
  0
LAYER
  2
DEFPOINTS
 70
     0
 62
     7
  6
CONTINUOUS
  0
ENDTAB
  0
TABLE
  2
STYLE
 70
     2
  0
STYLE
  2
STANDARD
 70
     0
 40
0.0
 41
1.0
 50
0.0
 71
     0
 42
0.1
  3
txt
  4

  0
STYLE
  2
ROMANC
 70
     0
 40
0.0
 41
1.0
 50
0.0
 71
     0
 42
0.1
  3
romanc
  4

  0
ENDTAB
  0
TABLE
  2
VIEW
 70
     0
  0
ENDTAB
  0
TABLE
  2
UCS
 70
     0
  0
ENDTAB
  0
TABLE
  2
APPID
 70
     1
  0
APPID
  2
ACAD
 70
     0
  0
ENDTAB
  0
TABLE
  2
DIMSTYLE
 70
     1
  0
DIMSTYLE
  2
MERITXELL
 70
     0
  3

  4

  5

  6

  7

 40
1.5
 41
0.1
 42
0.01
 43
7.0
 44
0.01
 45
0.0
 46
0.0
 47
0.0
 48
0.0
140
0.05
141
0.1
142
0.0
143
25.4
144
1.0
145
0.0
146
70.0
147
0.09
 71
     0
 72
     0
 73
     0
 74
     0
 75
     0
 76
     0
 77
     1
 78
     0
170
     0
171
     2
172
     1
173
     0
174
     1
175
     0
176
     0
177
     0
178
     0
  0
ENDTAB
  0
ENDSEC
  0
SECTION
  2
BLOCKS
  0
BLOCK
  8
0
  2
$MODEL_SPACE
 70
     0
 10
0.0
 20
0.0
 30
0.0
  3
$MODEL_SPACE
  1

  0
ENDBLK
  5
24
  8
0
  0
BLOCK
 67
     1
  8
0
  2
$PAPER_SPACE
 70
     0
 10
0.0
 20
0.0
 30
0.0
  3
$PAPER_SPACE
  1

  0
ENDBLK
  5
22
 67
     1
  8
0
  0
BLOCK
  8
0
  2
*D3
 70
     1
 10
0.0
 20
0.0
 30
0.0
  3
*D3
  1

  0
LINE
  5
90
  8
0
  6
BYBLOCK
 62
     0
 10
324.645591
 20
36.219039
 30
0.0
 11
325.103622
 21
36.219039
 31
0.0
  0
LINE
  5
91
  8
0
  6
BYBLOCK
 62
     0
 10
324.645591
 20
34.519039
 30
0.0
 11
325.103622
 21
34.519039
 31
0.0
  0
LINE
  5
92
  8
0
  6
BYBLOCK
 62
     0
 10
325.088622
 20
36.069039
 30
0.0
 11
325.088622
 21
34.669039
 31
0.0
  0
SOLID
  5
93
  8
0
  6
BYBLOCK
 62
     0
 10
325.063622
 20
36.069039
 30
0.0
 11
325.113622
 21
36.069039
 31
0.0
 12
325.088622
 22
36.219039
 32
0.0
 13
325.088622
 23
36.219039
 33
0.0
  0
SOLID
  5
94
  8
0
  6
BYBLOCK
 62
     0
 10
325.063622
 20
34.669039
 30
0.0
 11
325.113622
 21
34.669039
 31
0.0
 12
325.088622
 22
34.519039
 32
0.0
 13
325.088622
 23
34.519039
 33
0.0
  0
TEXT
  8
0
  40
0.075
  5
1A1
  62
0
  72
0
  71
0
 10
324.864
 20
35.2363
 30
0.000000
  1
1.70
  7
ROMANC
  0
POINT
  5
96
  8
DEFPOINTS
  6
BYBLOCK
 62
     0
 10
324.630591
 20
36.219039
 30
0.0
  0
POINT
  5
97
  8
DEFPOINTS
  6
BYBLOCK
 62
     0
 10
324.630591
 20
34.519039
 30
0.0
  0
POINT
  5
98
  8
DEFPOINTS
  6
BYBLOCK
 62
     0
 10
325.088622
 20
34.519039
 30
0.0
  0
ENDBLK
  5
99
  8
0
  0
BLOCK
  8
0
  2
*D5
 70
     1
 10
0.0
 20
0.0
 30
0.0
  3
*D5
  1

  0
LINE
  5
C0
  8
0
  6
BYBLOCK
 62
     0
 10
322.730591
 20
34.504039
 30
0.0
 11
322.730591
 21
33.951746
 31
0.0
  0
LINE
  5
C1
  8
0
  6
BYBLOCK
 62
     0
 10
324.630591
 20
34.504039
 30
0.0
 11
324.630591
 21
33.951746
 31
0.0
  0
LINE
  5
C2
  8
0
  6
BYBLOCK
 62
     0
 10
322.880591
 20
33.966746
 30
0.0
 11
324.480591
 21
33.966746
 31
0.0
  0
SOLID
  5
C3
  8
0
  6
BYBLOCK
 62
     0
 10
322.880591
 20
33.991746
 30
0.0
 11
322.880591
 21
33.941746
 31
0.0
 12
322.730591
 22
33.966746
 32
0.0
 13
322.730591
 23
33.966746
 33
0.0
  0
SOLID
  5
C4
  8
0
  6
BYBLOCK
 62
     0
 10
324.480591
 20
33.991746
 30
0.0
 11
324.480591
 21
33.941746
 31
0.0
 12
324.630591
 22
33.966746
 32
0.0
 13
324.630591
 23
33.966746
 33
0.0
  0
TEXT
  8
0
  40
0.075
  5
1A2
  62
0
  72
0
  71
0
 10
323.531
 20
33.9090
 30
0.000000
  1
1.90
  7
ROMANC
  0
POINT
  5
C6
  8
DEFPOINTS
  6
BYBLOCK
 62
     0
 10
322.730591
 20
34.519039
 30
0.0
  0
POINT
  5
C7
  8
DEFPOINTS
  6
BYBLOCK
 62
     0
 10
324.630591
 20
34.519039
 30
0.0
  0
POINT
  5
C8
  8
DEFPOINTS
  6
BYBLOCK
 62
     0
 10
324.630591
 20
33.966746
 30
0.0
  0
ENDBLK
  5
C9
  8
0
  0
BLOCK
  8
0
  2
*D6
 70
     1
 10
0.0
 20
0.0
 30
0.0
  3
*D6
  1

  0
LINE
  5
107
  8
0
  6
BYBLOCK
 62
     0
 10
324.645591
 20
34.519039
 30
0.0
 11
325.103622
 21
34.519039
 31
0.0
  0
LINE
  5
108
  8
0
  6
BYBLOCK
 62
     0
 10
323.695591
 20
34.369039
 30
0.0
 11
325.103622
 21
34.369039
 31
0.0
  0
LINE
  5
109
  8
0
  6
BYBLOCK
 62
     0
 10
325.088622
 20
34.669039
 30
0.0
 11
325.088622
 21
34.819039
 31
0.0
  0
LINE
  5
10A
  8
0
  6
BYBLOCK
 62
     0
 10
325.088622
 20
34.219039
 30
0.0
 11
325.088622
 21
34.069039
 31
0.0
  0
TEXT
  8
0
  40
0.075
  5
1A3
  62
0
  72
0
  71
0
 10
324.851
 20
34.0793
 30
0.000000
  1
0.15
  7
ROMANC
  0
LINE
  5
10C
  8
0
  6
BYBLOCK
 62
     0
 10
325.088622
 20
34.519039
 30
0.0
 11
325.088622
 21
34.369039
 31
0.0
  0
LINE
  5
10D
  8
0
  6
BYBLOCK
 62
     0
 10
325.088622
 20
34.519039
 30
0.0
 11
325.088622
 21
34.369039
 31
0.0
  0
SOLID
  5
10E
  8
0
  6
BYBLOCK
 62
     0
 10
325.063622
 20
34.669039
 30
0.0
 11
325.113622
 21
34.669039
 31
0.0
 12
325.088622
 22
34.519039
 32
0.0
 13
325.088622
 23
34.519039
 33
0.0
  0
SOLID
  5
10F
  8
0
  6
BYBLOCK
 62
     0
 10
325.063622
 20
34.219039
 30
0.0
 11
325.113622
 21
34.219039
 31
0.0
 12
325.088622
 22
34.369039
 32
0.0
 13
325.088622
 23
34.369039
 33
0.0
  0
POINT
  5
110
  8
DEFPOINTS
  6
BYBLOCK
 62
     0
 10
324.630591
 20
34.519039
 30
0.0
  0
POINT
  5
111
  8
DEFPOINTS
  6
BYBLOCK
 62
     0
 10
323.680591
 20
34.369039
 30
0.0
  0
POINT
  5
112
  8
DEFPOINTS
  6
BYBLOCK
 62
     0
 10
325.088622
 20
34.369039
 30
0.0
  0
ENDBLK
  5
113
  8
0
  0
BLOCK
  8
0
  2
*D7
 70
     1
 10
0.0
 20
0.0
 30
0.0
  3
*D7
  1

  0
LINE
  5
116
  8
0
  6
BYBLOCK
 62
     0
 10
324.645591
 20
36.219039
 30
0.0
 11
325.501023
 21
36.219039
 31
0.0
  0
LINE
  5
117
  8
0
  6
BYBLOCK
 62
     0
 10
323.695591
 20
34.369039
 30
0.0
 11
325.501023
 21
34.369039
 31
0.0
  0
LINE
  5
118
  8
0
  6
BYBLOCK
 62
     0
 10
325.486023
 20
36.069039
 30
0.0
 11
325.486023
 21
34.519039
 31
0.0
  0
SOLID
  5
119
  8
0
  6
BYBLOCK
 62
     0
 10
325.461023
 20
36.069039
 30
0.0
 11
325.511023
 21
36.069039
 31
0.0
 12
325.486023
 22
36.219039
 32
0.0
 13
325.486023
 23
36.219039
 33
0.0
  0
SOLID
  5
11A
  8
0
  6
BYBLOCK
 62
     0
 10
325.461023
 20
34.519039
 30
0.0
 11
325.511023
 21
34.519039
 31
0.0
 12
325.486023
 22
34.369039
 32
0.0
 13
325.486023
 23
34.369039
 33
0.0
  0
TEXT
  8
0
  40
0.075
  5
1A4
  62
0
  72
0
  71
0
 10
325.261
 20
35.1613
 30
0.000000
  1
1.85
  7
ROMANC
  0
POINT
  5
11C
  8
DEFPOINTS
  6
BYBLOCK
 62
     0
 10
324.630591
 20
36.219039
 30
0.0
  0
POINT
  5
11D
  8
DEFPOINTS
  6
BYBLOCK
 62
     0
 10
323.680591
 20
34.369039
 30
0.0
  0
POINT
  5
11E
  8
DEFPOINTS
  6
BYBLOCK
 62
     0
 10
325.486023
 20
34.369039
 30
0.0
  0
ENDBLK
  5
11F
  8
0
  0
BLOCK
  8
0
  2
*D8
 70
     1
 10
0.0
 20
0.0
 30
0.0
  3
*D8
  1

  0
LINE
  5
174
  8
0
  6
BYBLOCK
 62
     0
 10
323.45588
 20
36.198127
 30
0.0
 11
324.454518
 21
36.198127
 31
0.0
  0
LINE
  5
175
  8
0
  6
BYBLOCK
 62
     0
 10
323.45588
 20
34.698127
 30
0.0
 11
324.454518
 21
34.698127
 31
0.0
  0
LINE
  5
176
  8
0
  6
BYBLOCK
 62
     0
 10
324.439518
 20
36.048127
 30
0.0
 11
324.439518
 21
34.848127
 31
0.0
  0
SOLID
  5
177
  8
0
  6
BYBLOCK
 62
     0
 10
324.414518
 20
36.048127
 30
0.0
 11
324.464518
 21
36.048127
 31
0.0
 12
324.439518
 22
36.198127
 32
0.0
 13
324.439518
 23
36.198127
 33
0.0
  0
SOLID
  5
178
  8
0
  6
BYBLOCK
 62
     0
 10
324.414518
 20
34.848127
 30
0.0
 11
324.464518
 21
34.848127
 31
0.0
 12
324.439518
 22
34.698127
 32
0.0
 13
324.439518
 23
34.698127
 33
0.0
  0
TEXT
  8
0
  40
0.075
  5
1A5
  62
0
  72
0
  71
0
 10
324.215
 20
35.3154
 30
0.000000
  1
1.50
  7
ROMANC
  0
POINT
  5
17A
  8
DEFPOINTS
  6
BYBLOCK
 62
     0
 10
323.44088
 20
36.198127
 30
0.0
  0
POINT
  5
17B
  8
DEFPOINTS
  6
BYBLOCK
 62
     0
 10
323.44088
 20
34.698127
 30
0.0
  0
POINT
  5
17C
  8
DEFPOINTS
  6
BYBLOCK
 62
     0
 10
324.439518
 20
34.698127
 30
0.0
  0
ENDBLK
  5
17D
  8
0
  0
BLOCK
  8
0
  2
*D9
 70
     1
 10
0.0
 20
0.0
 30
0.0
  3
*D9
  1

  0
LINE
  5
181
  8
0
  6
BYBLOCK
 62
     0
 10
322.99088
 20
35.598127
 30
0.0
 11
323.89088
 21
35.598127
 31
0.0
  0
SOLID
  5
182
  8
0
  6
BYBLOCK
 62
     0
 10
322.99088
 20
35.623127
 30
0.0
 11
322.99088
 21
35.573127
 31
0.0
 12
322.84088
 22
35.598127
 32
0.0
 13
322.84088
 23
35.598127
 33
0.0
  0
SOLID
  5
183
  8
0
  6
BYBLOCK
 62
     0
 10
323.89088
 20
35.623127
 30
0.0
 11
323.89088
 21
35.573127
 31
0.0
 12
324.04088
 22
35.598127
 32
0.0
 13
324.04088
 23
35.598127
 33
0.0
  0
TEXT
  8
0
  40
0.075
  5
1A6
  62
0
  72
0
  71
0
 10
323.291
 20
35.5404
 30
0.000000
  1
1.20
  7
ROMANC
  0
POINT
  5
185
  8
DEFPOINTS
  6
BYBLOCK
 62
     0
 10
322.84088
 20
35.598127
 30
0.0
  0
POINT
  5
186
  8
DEFPOINTS
  6
BYBLOCK
 62
     0
 10
324.04088
 20
35.598127
 30
0.0
  0
POINT
  5
187
  8
DEFPOINTS
  6
BYBLOCK
 62
     0
 10
324.04088
 20
35.598127
 30
0.0
  0
ENDBLK
  5
188
  8
0
  0
ENDSEC
  0
SECTION
  2
ENTITIES
  0
LINE
  5
27
  8
0
 10
329.348696
 20
29.863623
 30
0.0
 11
329.348696
 21
44.713623
 31
0.0
  0
LINE
  5
28
  8
0
 10
318.848696
 20
44.713623
 30
0.0
 11
318.848696
 21
29.863623
 31
0.0
  0
LINE
  5
29
  8
0
 10
318.848696
 20
29.863623
 30
0.0
 11
329.348696
 21
29.863623
 31
0.0
  0
TEXT
  5
2A
  8
0
 10
321.378668
 20
42.309482
 30
0.0
 40
0.3
  1
TIPUS   NT141A
  7
ROMANC
  0
TEXT
  5
2D
  8
0
 10
321.340746
 20
40.527599
 30
0.0
 40
0.3
  1
P = 42,6 dm
  7
ROMANC
  0
TEXT
  5
2E
  8
0
 10
321.391762
 20
41.225178
 30
0.0
 40
0.3
  1
S = 141 dm
  7
ROMANC
  0
TEXT
  5
2F
  8
0
 10
321.378668
 20
41.823768
 30
0.0
 40
0.3
  1
ESCALA  1:50
  7
ROMANC
  0
TEXT
  5
30
  8
0
 10
324.502845
 20
41.531094
 30
0.0
 40
0.1
  1
2
  7
ROMANC
  0
LINE
  5
31
  8
0
 10
329.348696
 20
44.713623
 30
0.0
 11
318.848696
 21
44.713623
 31
0.0
  0
POLYLINE
  5
161
  8
0
 10
322.84088
 20
35.598127
 30
0.0
 66
     1
 70
     8
  0
VERTEX
  8
0
  5
1A7
 10
322.841
 20
35.5981
 30
0.000000
  70
    32
  0
VERTEX
  8
0
  5
1A8
 10
322.841
 20
35.5760
 30
0.000000
  70
    32
  0
VERTEX
  8
0
  5
1A9
 10
322.842
 20
35.5540
 30
0.000000
  70
    32
  0
VERTEX
  8
0
  5
1AA
 10
322.843
 20
35.5319
 30
0.000000
  70
    32
  0
VERTEX
  8
0
  5
1AB
 10
322.844
 20
35.5099
 30
0.000000
  70
    32
  0
VERTEX
  8
0
  5
1AC
 10
322.845
 20
35.4880
 30
0.000000
  70
    32
  0
VERTEX
  8
0
  5
1AD
 10
322.847
 20
35.4661
 30
0.000000
  70
    32
  0
VERTEX
  8
0
  5
1AE
 10
322.850
 20
35.4443
 30
0.000000
  70
    32
  0
VERTEX
  8
0
  5
1AF
 10
322.852
 20
35.4225
 30
0.000000
  70
    32
  0
VERTEX
  8
0
  5
1B0
 10
322.855
 20
35.4009
 30
0.000000
  70
    32
  0
VERTEX
  8
0
  5
1B1
 10
322.859
 20
35.3794
 30
0.000000
  70
    32
  0
VERTEX
  8
0
  5
1B2
 10
322.863
 20
35.3581
 30
0.000000
  70
    32
  0
VERTEX
  8
0
  5
1B3
 10
322.867
 20
35.3369
 30
0.000000
  70
    32
  0
VERTEX
  8
0
  5
1B4
 10
322.871
 20
35.3158
 30
0.000000
  70
    32
  0
VERTEX
  8
0
  5
1B5
 10
322.876
 20
35.2949
 30
0.000000
  70
    32
  0
VERTEX
  8
0
  5
1B6
 10
322.881
 20
35.2742
 30
0.000000
  70
    32
  0
VERTEX
  8
0
  5
1B7
 10
322.887
 20
35.2537
 30
0.000000
  70
    32
  0
VERTEX
  8
0
  5
1B8
 10
322.892
 20
35.2334
 30
0.000000
  70
    32
  0
VERTEX
  8
0
  5
1B9
 10
322.898
 20
35.2133
 30
0.000000
  70
    32
  0
VERTEX
  8
0
  5
1BA
 10
322.905
 20
35.1935
 30
0.000000
  70
    32
  0
VERTEX
  8
0
  5
1BB
 10
322.912
 20
35.1739
 30
0.000000
  70
    32
  0
VERTEX
  8
0
  5
1BC
 10
322.919
 20
35.1545
 30
0.000000
  70
    32
  0
VERTEX
  8
0
  5
1BD
 10
322.926
 20
35.1354
 30
0.000000
  70
    32
  0
VERTEX
  8
0
  5
1BE
 10
322.934
 20
35.1166
 30
0.000000
  70
    32
  0
VERTEX
  8
0
  5
1BF
 10
322.942
 20
35.0981
 30
0.000000
  70
    32
  0
VERTEX
  8
0
  5
1C0
 10
322.950
 20
35.0799
 30
0.000000
  70
    32
  0
VERTEX
  8
0
  5
1C1
 10
322.959
 20
35.0620
 30
0.000000
  70
    32
  0
VERTEX
  8
0
  5
1C2
 10
322.968
 20
35.0444
 30
0.000000
  70
    32
  0
VERTEX
  8
0
  5
1C3
 10
322.977
 20
35.0272
 30
0.000000
  70
    32
  0
VERTEX
  8
0
  5
1C4
 10
322.987
 20
35.0103
 30
0.000000
  70
    32
  0
VERTEX
  8
0
  5
1C5
 10
322.996
 20
34.9937
 30
0.000000
  70
    32
  0
VERTEX
  8
0
  5
1C6
 10
323.006
 20
34.9775
 30
0.000000
  70
    32
  0
VERTEX
  8
0
  5
1C7
 10
323.017
 20
34.9617
 30
0.000000
  70
    32
  0
VERTEX
  8
0
  5
1C8
 10
323.027
 20
34.9463
 30
0.000000
  70
    32
  0
VERTEX
  8
0
  5
1C9
 10
323.038
 20
34.9313
 30
0.000000
  70
    32
  0
VERTEX
  8
0
  5
1CA
 10
323.049
 20
34.9166
 30
0.000000
  70
    32
  0
VERTEX
  8
0
  5
1CB
 10
323.060
 20
34.9024
 30
0.000000
  70
    32
  0
VERTEX
  8
0
  5
1CC
 10
323.072
 20
34.8886
 30
0.000000
  70
    32
  0
VERTEX
  8
0
  5
1CD
 10
323.083
 20
34.8752
 30
0.000000
  70
    32
  0
VERTEX
  8
0
  5
1CE
 10
323.095
 20
34.8623
 30
0.000000
  70
    32
  0
VERTEX
  8
0
  5
1CF
 10
323.108
 20
34.8498
 30
0.000000
  70
    32
  0
VERTEX
  8
0
  5
1D0
 10
323.120
 20
34.8378
 30
0.000000
  70
    32
  0
VERTEX
  8
0
  5
1D1
 10
323.132
 20
34.8262
 30
0.000000
  70
    32
  0
VERTEX
  8
0
  5
1D2
 10
323.145
 20
34.8150
 30
0.000000
  70
    32
  0
VERTEX
  8
0
  5
1D3
 10
323.158
 20
34.8044
 30
0.000000
  70
    32
  0
VERTEX
  8
0
  5
1D4
 10
323.171
 20
34.7942
 30
0.000000
  70
    32
  0
VERTEX
  8
0
  5
1D5
 10
323.184
 20
34.7845
 30
0.000000
  70
    32
  0
VERTEX
  8
0
  5
1D6
 10
323.198
 20
34.7753
 30
0.000000
  70
    32
  0
VERTEX
  8
0
  5
1D7
 10
323.211
 20
34.7666
 30
0.000000
  70
    32
  0
VERTEX
  8
0
  5
1D8
 10
323.225
 20
34.7584
 30
0.000000
  70
    32
  0
VERTEX
  8
0
  5
1D9
 10
323.239
 20
34.7507
 30
0.000000
  70
    32
  0
VERTEX
  8
0
  5
1DA
 10
323.253
 20
34.7436
 30
0.000000
  70
    32
  0
VERTEX
  8
0
  5
1DB
 10
323.267
 20
34.7369
 30
0.000000
  70
    32
  0
VERTEX
  8
0
  5
1DC
 10
323.281
 20
34.7307
 30
0.000000
  70
    32
  0
VERTEX
  8
0
  5
1DD
 10
323.295
 20
34.7251
 30
0.000000
  70
    32
  0
VERTEX
  8
0
  5
1DE
 10
323.309
 20
34.7200
 30
0.000000
  70
    32
  0
VERTEX
  8
0
  5
1DF
 10
323.324
 20
34.7154
 30
0.000000
  70
    32
  0
VERTEX
  8
0
  5
1E0
 10
323.338
 20
34.7114
 30
0.000000
  70
    32
  0
VERTEX
  8
0
  5
1E1
 10
323.353
 20
34.7079
 30
0.000000
  70
    32
  0
VERTEX
  8
0
  5
1E2
 10
323.367
 20
34.7049
 30
0.000000
  70
    32
  0
VERTEX
  8
0
  5
1E3
 10
323.382
 20
34.7025
 30
0.000000
  70
    32
  0
VERTEX
  8
0
  5
1E4
 10
323.397
 20
34.7006
 30
0.000000
  70
    32
  0
VERTEX
  8
0
  5
1E5
 10
323.411
 20
34.6992
 30
0.000000
  70
    32
  0
VERTEX
  8
0
  5
1E6
 10
323.426
 20
34.6984
 30
0.000000
  70
    32
  0
VERTEX
  8
0
  5
1E7
 10
323.441
 20
34.6981
 30
0.000000
  70
    32
  0
VERTEX
  8
0
  5
1E8
 10
323.456
 20
34.6984
 30
0.000000
  70
    32
  0
VERTEX
  8
0
  5
1E9
 10
323.470
 20
34.6992
 30
0.000000
  70
    32
  0
VERTEX
  8
0
  5
1EA
 10
323.485
 20
34.7006
 30
0.000000
  70
    32
  0
VERTEX
  8
0
  5
1EB
 10
323.500
 20
34.7025
 30
0.000000
  70
    32
  0
VERTEX
  8
0
  5
1EC
 10
323.514
 20
34.7049
 30
0.000000
  70
    32
  0
VERTEX
  8
0
  5
1ED
 10
323.529
 20
34.7079
 30
0.000000
  70
    32
  0
VERTEX
  8
0
  5
1EE
 10
323.543
 20
34.7114
 30
0.000000
  70
    32
  0
VERTEX
  8
0
  5
1EF
 10
323.558
 20
34.7154
 30
0.000000
  70
    32
  0
VERTEX
  8
0
  5
1F0
 10
323.572
 20
34.7200
 30
0.000000
  70
    32
  0
VERTEX
  8
0
  5
1F1
 10
323.587
 20
34.7251
 30
0.000000
  70
    32
  0
VERTEX
  8
0
  5
1F2
 10
323.601
 20
34.7307
 30
0.000000
  70
    32
  0
VERTEX
  8
0
  5
1F3
 10
323.615
 20
34.7369
 30
0.000000
  70
    32
  0
VERTEX
  8
0
  5
1F4
 10
323.629
 20
34.7436
 30
0.000000
  70
    32
  0
VERTEX
  8
0
  5
1F5
 10
323.643
 20
34.7507
 30
0.000000
  70
    32
  0
VERTEX
  8
0
  5
1F6
 10
323.657
 20
34.7584
 30
0.000000
  70
    32
  0
VERTEX
  8
0
  5
1F7
 10
323.670
 20
34.7666
 30
0.000000
  70
    32
  0
VERTEX
  8
0
  5
1F8
 10
323.684
 20
34.7753
 30
0.000000
  70
    32
  0
VERTEX
  8
0
  5
1F9
 10
323.697
 20
34.7845
 30
0.000000
  70
    32
  0
VERTEX
  8
0
  5
1FA
 10
323.711
 20
34.7942
 30
0.000000
  70
    32
  0
VERTEX
  8
0
  5
1FB
 10
323.724
 20
34.8044
 30
0.000000
  70
    32
  0
VERTEX
  8
0
  5
1FC
 10
323.737
 20
34.8150
 30
0.000000
  70
    32
  0
VERTEX
  8
0
  5
1FD
 10
323.749
 20
34.8262
 30
0.000000
  70
    32
  0
VERTEX
  8
0
  5
1FE
 10
323.762
 20
34.8378
 30
0.000000
  70
    32
  0
VERTEX
  8
0
  5
1FF
 10
323.774
 20
34.8498
 30
0.000000
  70
    32
  0
VERTEX
  8
0
  5
200
 10
323.786
 20
34.8623
 30
0.000000
  70
    32
  0
VERTEX
  8
0
  5
201
 10
323.798
 20
34.8752
 30
0.000000
  70
    32
  0
VERTEX
  8
0
  5
202
 10
323.810
 20
34.8886
 30
0.000000
  70
    32
  0
VERTEX
  8
0
  5
203
 10
323.822
 20
34.9024
 30
0.000000
  70
    32
  0
VERTEX
  8
0
  5
204
 10
323.833
 20
34.9166
 30
0.000000
  70
    32
  0
VERTEX
  8
0
  5
205
 10
323.844
 20
34.9313
 30
0.000000
  70
    32
  0
VERTEX
  8
0
  5
206
 10
323.855
 20
34.9463
 30
0.000000
  70
    32
  0
VERTEX
  8
0
  5
207
 10
323.865
 20
34.9617
 30
0.000000
  70
    32
  0
VERTEX
  8
0
  5
208
 10
323.875
 20
34.9775
 30
0.000000
  70
    32
  0
VERTEX
  8
0
  5
209
 10
323.885
 20
34.9937
 30
0.000000
  70
    32
  0
VERTEX
  8
0
  5
20A
 10
323.895
 20
35.0103
 30
0.000000
  70
    32
  0
VERTEX
  8
0
  5
20B
 10
323.905
 20
35.0272
 30
0.000000
  70
    32
  0
VERTEX
  8
0
  5
20C
 10
323.914
 20
35.0444
 30
0.000000
  70
    32
  0
VERTEX
  8
0
  5
20D
 10
323.923
 20
35.0620
 30
0.000000
  70
    32
  0
VERTEX
  8
0
  5
20E
 10
323.931
 20
35.0799
 30
0.000000
  70
    32
  0
VERTEX
  8
0
  5
20F
 10
323.940
 20
35.0981
 30
0.000000
  70
    32
  0
VERTEX
  8
0
  5
210
 10
323.948
 20
35.1166
 30
0.000000
  70
    32
  0
VERTEX
  8
0
  5
211
 10
323.956
 20
35.1354
 30
0.000000
  70
    32
  0
VERTEX
  8
0
  5
212
 10
323.963
 20
35.1545
 30
0.000000
  70
    32
  0
VERTEX
  8
0
  5
213
 10
323.970
 20
35.1739
 30
0.000000
  70
    32
  0
VERTEX
  8
0
  5
214
 10
323.977
 20
35.1935
 30
0.000000
  70
    32
  0
VERTEX
  8
0
  5
215
 10
323.983
 20
35.2133
 30
0.000000
  70
    32
  0
VERTEX
  8
0
  5
216
 10
323.989
 20
35.2334
 30
0.000000
  70
    32
  0
VERTEX
  8
0
  5
217
 10
323.995
 20
35.2537
 30
0.000000
  70
    32
  0
VERTEX
  8
0
  5
218
 10
324.001
 20
35.2742
 30
0.000000
  70
    32
  0
VERTEX
  8
0
  5
219
 10
324.006
 20
35.2949
 30
0.000000
  70
    32
  0
VERTEX
  8
0
  5
21A
 10
324.011
 20
35.3158
 30
0.000000
  70
    32
  0
VERTEX
  8
0
  5
21B
 10
324.015
 20
35.3369
 30
0.000000
  70
    32
  0
VERTEX
  8
0
  5
21C
 10
324.019
 20
35.3581
 30
0.000000
  70
    32
  0
VERTEX
  8
0
  5
21D
 10
324.023
 20
35.3794
 30
0.000000
  70
    32
  0
VERTEX
  8
0
  5
21E
 10
324.026
 20
35.4009
 30
0.000000
  70
    32
  0
VERTEX
  8
0
  5
21F
 10
324.029
 20
35.4225
 30
0.000000
  70
    32
  0
VERTEX
  8
0
  5
220
 10
324.032
 20
35.4443
 30
0.000000
  70
    32
  0
VERTEX
  8
0
  5
221
 10
324.034
 20
35.4661
 30
0.000000
  70
    32
  0
VERTEX
  8
0
  5
222
 10
324.036
 20
35.4880
 30
0.000000
  70
    32
  0
VERTEX
  8
0
  5
223
 10
324.038
 20
35.5099
 30
0.000000
  70
    32
  0
VERTEX
  8
0
  5
224
 10
324.039
 20
35.5319
 30
0.000000
  70
    32
  0
VERTEX
  8
0
  5
225
 10
324.040
 20
35.5540
 30
0.000000
  70
    32
  0
VERTEX
  8
0
  5
226
 10
324.041
 20
35.5760
 30
0.000000
  70
    32
  0
VERTEX
  8
0
  5
227
 10
324.041
 20
35.5981
 30
0.000000
  70
    32
  0
SEQEND
  8
0
  5
228
  0
POLYLINE
  8
0
  5
229
  66
     1
 10
0.000000
 20
0.000000
 30
0.000000
  70
     8
  0
VERTEX
  8
0
  5
22A
 10
322.833
 20
35.5981
 30
0.000000
  70
    32
  0
VERTEX
  8
0
  5
22B
 10
322.833
 20
35.5907
 30
0.000000
  70
    32
  0
VERTEX
  8
0
  5
22C
 10
322.833
 20
35.5833
 30
0.000000
  70
    32
  0
VERTEX
  8
0
  5
22D
 10
322.834
 20
35.5759
 30
0.000000
  70
    32
  0
VERTEX
  8
0
  5
22E
 10
322.834
 20
35.5684
 30
0.000000
  70
    32
  0
VERTEX
  8
0
  5
22F
 10
322.834
 20
35.5610
 30
0.000000
  70
    32
  0
VERTEX
  8
0
  5
230
 10
322.834
 20
35.5536
 30
0.000000
  70
    32
  0
VERTEX
  8
0
  5
231
 10
322.834
 20
35.5462
 30
0.000000
  70
    32
  0
VERTEX
  8
0
  5
232
 10
322.835
 20
35.5388
 30
0.000000
  70
    32
  0
VERTEX
  8
0
  5
233
 10
322.835
 20
35.5314
 30
0.000000
  70
    32
  0
VERTEX
  8
0
  5
234
 10
322.835
 20
35.5240
 30
0.000000
  70
    32
  0
VERTEX
  8
0
  5
235
 10
322.836
 20
35.5166
 30
0.000000
  70
    32
  0
VERTEX
  8
0
  5
236
 10
322.836
 20
35.5092
 30
0.000000
  70
    32
  0
VERTEX
  8
0
  5
237
 10
322.837
 20
35.5018
 30
0.000000
  70
    32
  0
VERTEX
  8
0
  5
238
 10
322.837
 20
35.4944
 30
0.000000
  70
    32
  0
VERTEX
  8
0
  5
239
 10
322.838
 20
35.4871
 30
0.000000
  70
    32
  0
VERTEX
  8
0
  5
23A
 10
322.839
 20
35.4797
 30
0.000000
  70
    32
  0
VERTEX
  8
0
  5
23B
 10
322.839
 20
35.4723
 30
0.000000
  70
    32
  0
VERTEX
  8
0
  5
23C
 10
322.840
 20
35.4650
 30
0.000000
  70
    32
  0
VERTEX
  8
0
  5
23D
 10
322.841
 20
35.4577
 30
0.000000
  70
    32
  0
VERTEX
  8
0
  5
23E
 10
322.842
 20
35.4503
 30
0.000000
  70
    32
  0
VERTEX
  8
0
  5
23F
 10
322.842
 20
35.4430
 30
0.000000
  70
    32
  0
VERTEX
  8
0
  5
240
 10
322.843
 20
35.4357
 30
0.000000
  70
    32
  0
VERTEX
  8
0
  5
241
 10
322.844
 20
35.4284
 30
0.000000
  70
    32
  0
VERTEX
  8
0
  5
242
 10
322.845
 20
35.4211
 30
0.000000
  70
    32
  0
VERTEX
  8
0
  5
243
 10
322.846
 20
35.4138
 30
0.000000
  70
    32
  0
VERTEX
  8
0
  5
244
 10
322.847
 20
35.4066
 30
0.000000
  70
    32
  0
VERTEX
  8
0
  5
245
 10
322.848
 20
35.3993
 30
0.000000
  70
    32
  0
VERTEX
  8
0
  5
246
 10
322.849
 20
35.3921
 30
0.000000
  70
    32
  0
VERTEX
  8
0
  5
247
 10
322.850
 20
35.3849
 30
0.000000
  70
    32
  0
VERTEX
  8
0
  5
248
 10
322.852
 20
35.3777
 30
0.000000
  70
    32
  0
VERTEX
  8
0
  5
249
 10
322.853
 20
35.3705
 30
0.000000
  70
    32
  0
VERTEX
  8
0
  5
24A
 10
322.854
 20
35.3633
 30
0.000000
  70
    32
  0
VERTEX
  8
0
  5
24B
 10
322.855
 20
35.3561
 30
0.000000
  70
    32
  0
VERTEX
  8
0
  5
24C
 10
322.857
 20
35.3490
 30
0.000000
  70
    32
  0
VERTEX
  8
0
  5
24D
 10
322.858
 20
35.3418
 30
0.000000
  70
    32
  0
VERTEX
  8
0
  5
24E
 10
322.860
 20
35.3347
 30
0.000000
  70
    32
  0
VERTEX
  8
0
  5
24F
 10
322.861
 20
35.3276
 30
0.000000
  70
    32
  0
VERTEX
  8
0
  5
250
 10
322.862
 20
35.3206
 30
0.000000
  70
    32
  0
VERTEX
  8
0
  5
251
 10
322.864
 20
35.3135
 30
0.000000
  70
    32
  0
VERTEX
  8
0
  5
252
 10
322.866
 20
35.3064
 30
0.000000
  70
    32
  0
VERTEX
  8
0
  5
253
 10
322.867
 20
35.2994
 30
0.000000
  70
    32
  0
VERTEX
  8
0
  5
254
 10
322.869
 20
35.2924
 30
0.000000
  70
    32
  0
VERTEX
  8
0
  5
255
 10
322.871
 20
35.2854
 30
0.000000
  70
    32
  0
VERTEX
  8
0
  5
256
 10
322.872
 20
35.2785
 30
0.000000
  70
    32
  0
VERTEX
  8
0
  5
257
 10
322.874
 20
35.2715
 30
0.000000
  70
    32
  0
VERTEX
  8
0
  5
258
 10
322.876
 20
35.2646
 30
0.000000
  70
    32
  0
VERTEX
  8
0
  5
259
 10
322.878
 20
35.2577
 30
0.000000
  70
    32
  0
VERTEX
  8
0
  5
25A
 10
322.880
 20
35.2509
 30
0.000000
  70
    32
  0
VERTEX
  8
0
  5
25B
 10
322.881
 20
35.2440
 30
0.000000
  70
    32
  0
VERTEX
  8
0
  5
25C
 10
322.883
 20
35.2372
 30
0.000000
  70
    32
  0
VERTEX
  8
0
  5
25D
 10
322.885
 20
35.2304
 30
0.000000
  70
    32
  0
VERTEX
  8
0
  5
25E
 10
322.887
 20
35.2236
 30
0.000000
  70
    32
  0
VERTEX
  8
0
  5
25F
 10
322.890
 20
35.2169
 30
0.000000
  70
    32
  0
VERTEX
  8
0
  5
260
 10
322.892
 20
35.2101
 30
0.000000
  70
    32
  0
VERTEX
  8
0
  5
261
 10
322.894
 20
35.2034
 30
0.000000
  70
    32
  0
VERTEX
  8
0
  5
262
 10
322.896
 20
35.1968
 30
0.000000
  70
    32
  0
VERTEX
  8
0
  5
263
 10
322.898
 20
35.1901
 30
0.000000
  70
    32
  0
VERTEX
  8
0
  5
264
 10
322.900
 20
35.1835
 30
0.000000
  70
    32
  0
VERTEX
  8
0
  5
265
 10
322.903
 20
35.1769
 30
0.000000
  70
    32
  0
VERTEX
  8
0
  5
266
 10
322.905
 20
35.1704
 30
0.000000
  70
    32
  0
VERTEX
  8
0
  5
267
 10
322.907
 20
35.1639
 30
0.000000
  70
    32
  0
VERTEX
  8
0
  5
268
 10
322.910
 20
35.1574
 30
0.000000
  70
    32
  0
VERTEX
  8
0
  5
269
 10
322.912
 20
35.1509
 30
0.000000
  70
    32
  0
VERTEX
  8
0
  5
26A
 10
322.915
 20
35.1445
 30
0.000000
  70
    32
  0
VERTEX
  8
0
  5
26B
 10
322.917
 20
35.1381
 30
0.000000
  70
    32
  0
VERTEX
  8
0
  5
26C
 10
322.920
 20
35.1317
 30
0.000000
  70
    32
  0
VERTEX
  8
0
  5
26D
 10
322.922
 20
35.1254
 30
0.000000
  70
    32
  0
VERTEX
  8
0
  5
26E
 10
322.925
 20
35.1190
 30
0.000000
  70
    32
  0
VERTEX
  8
0
  5
26F
 10
322.928
 20
35.1128
 30
0.000000
  70
    32
  0
VERTEX
  8
0
  5
270
 10
322.930
 20
35.1065
 30
0.000000
  70
    32
  0
VERTEX
  8
0
  5
271
 10
322.933
 20
35.1003
 30
0.000000
  70
    32
  0
VERTEX
  8
0
  5
272
 10
322.936
 20
35.0941
 30
0.000000
  70
    32
  0
VERTEX
  8
0
  5
273
 10
322.939
 20
35.0880
 30
0.000000
  70
    32
  0
VERTEX
  8
0
  5
274
 10
322.941
 20
35.0819
 30
0.000000
  70
    32
  0
VERTEX
  8
0
  5
275
 10
322.944
 20
35.0758
 30
0.000000
  70
    32
  0
VERTEX
  8
0
  5
276
 10
322.947
 20
35.0697
 30
0.000000
  70
    32
  0
VERTEX
  8
0
  5
277
 10
322.950
 20
35.0637
 30
0.000000
  70
    32
  0
VERTEX
  8
0
  5
278
 10
322.953
 20
35.0577
 30
0.000000
  70
    32
  0
VERTEX
  8
0
  5
279
 10
322.956
 20
35.0518
 30
0.000000
  70
    32
  0
VERTEX
  8
0
  5
27A
 10
322.959
 20
35.0459
 30
0.000000
  70
    32
  0
VERTEX
  8
0
  5
27B
 10
322.962
 20
35.0400
 30
0.000000
  70
    32
  0
VERTEX
  8
0
  5
27C
 10
322.965
 20
35.0342
 30
0.000000
  70
    32
  0
VERTEX
  8
0
  5
27D
 10
322.968
 20
35.0284
 30
0.000000
  70
    32
  0
VERTEX
  8
0
  5
27E
 10
322.971
 20
35.0227
 30
0.000000
  70
    32
  0
VERTEX
  8
0
  5
27F
 10
322.975
 20
35.0169
 30
0.000000
  70
    32
  0
VERTEX
  8
0
  5
280
 10
322.978
 20
35.0113
 30
0.000000
  70
    32
  0
VERTEX
  8
0
  5
281
 10
322.981
 20
35.0056
 30
0.000000
  70
    32
  0
VERTEX
  8
0
  5
282
 10
322.984
 20
35.0000
 30
0.000000
  70
    32
  0
VERTEX
  8
0
  5
283
 10
322.988
 20
34.9944
 30
0.000000
  70
    32
  0
VERTEX
  8
0
  5
284
 10
322.991
 20
34.9889
 30
0.000000
  70
    32
  0
VERTEX
  8
0
  5
285
 10
322.994
 20
34.9834
 30
0.000000
  70
    32
  0
VERTEX
  8
0
  5
286
 10
322.998
 20
34.9780
 30
0.000000
  70
    32
  0
VERTEX
  8
0
  5
287
 10
323.001
 20
34.9726
 30
0.000000
  70
    32
  0
VERTEX
  8
0
  5
288
 10
323.005
 20
34.9672
 30
0.000000
  70
    32
  0
VERTEX
  8
0
  5
289
 10
323.008
 20
34.9619
 30
0.000000
  70
    32
  0
VERTEX
  8
0
  5
28A
 10
323.012
 20
34.9566
 30
0.000000
  70
    32
  0
VERTEX
  8
0
  5
28B
 10
323.015
 20
34.9514
 30
0.000000
  70
    32
  0
VERTEX
  8
0
  5
28C
 10
323.019
 20
34.9462
 30
0.000000
  70
    32
  0
VERTEX
  8
0
  5
28D
 10
323.022
 20
34.9410
 30
0.000000
  70
    32
  0
VERTEX
  8
0
  5
28E
 10
323.026
 20
34.9359
 30
0.000000
  70
    32
  0
VERTEX
  8
0
  5
28F
 10
323.029
 20
34.9309
 30
0.000000
  70
    32
  0
VERTEX
  8
0
  5
290
 10
323.033
 20
34.9258
 30
0.000000
  70
    32
  0
VERTEX
  8
0
  5
291
 10
323.037
 20
34.9209
 30
0.000000
  70
    32
  0
VERTEX
  8
0
  5
292
 10
323.041
 20
34.9159
 30
0.000000
  70
    32
  0
VERTEX
  8
0
  5
293
 10
323.044
 20
34.9110
 30
0.000000
  70
    32
  0
VERTEX
  8
0
  5
294
 10
323.048
 20
34.9062
 30
0.000000
  70
    32
  0
VERTEX
  8
0
  5
295
 10
323.052
 20
34.9014
 30
0.000000
  70
    32
  0
VERTEX
  8
0
  5
296
 10
323.056
 20
34.8966
 30
0.000000
  70
    32
  0
VERTEX
  8
0
  5
297
 10
323.060
 20
34.8919
 30
0.000000
  70
    32
  0
VERTEX
  8
0
  5
298
 10
323.063
 20
34.8873
 30
0.000000
  70
    32
  0
VERTEX
  8
0
  5
299
 10
323.067
 20
34.8827
 30
0.000000
  70
    32
  0
VERTEX
  8
0
  5
29A
 10
323.071
 20
34.8781
 30
0.000000
  70
    32
  0
VERTEX
  8
0
  5
29B
 10
323.075
 20
34.8736
 30
0.000000
  70
    32
  0
VERTEX
  8
0
  5
29C
 10
323.079
 20
34.8691
 30
0.000000
  70
    32
  0
VERTEX
  8
0
  5
29D
 10
323.083
 20
34.8647
 30
0.000000
  70
    32
  0
VERTEX
  8
0
  5
29E
 10
323.087
 20
34.8603
 30
0.000000
  70
    32
  0
VERTEX
  8
0
  5
29F
 10
323.091
 20
34.8560
 30
0.000000
  70
    32
  0
VERTEX
  8
0
  5
2A0
 10
323.095
 20
34.8517
 30
0.000000
  70
    32
  0
VERTEX
  8
0
  5
2A1
 10
323.099
 20
34.8475
 30
0.000000
  70
    32
  0
VERTEX
  8
0
  5
2A2
 10
323.104
 20
34.8433
 30
0.000000
  70
    32
  0
VERTEX
  8
0
  5
2A3
 10
323.108
 20
34.8392
 30
0.000000
  70
    32
  0
VERTEX
  8
0
  5
2A4
 10
323.112
 20
34.8352
 30
0.000000
  70
    32
  0
VERTEX
  8
0
  5
2A5
 10
323.116
 20
34.8311
 30
0.000000
  70
    32
  0
VERTEX
  8
0
  5
2A6
 10
323.120
 20
34.8272
 30
0.000000
  70
    32
  0
VERTEX
  8
0
  5
2A7
 10
323.125
 20
34.8233
 30
0.000000
  70
    32
  0
VERTEX
  8
0
  5
2A8
 10
323.129
 20
34.8194
 30
0.000000
  70
    32
  0
VERTEX
  8
0
  5
2A9
 10
323.133
 20
34.8156
 30
0.000000
  70
    32
  0
VERTEX
  8
0
  5
2AA
 10
323.137
 20
34.8118
 30
0.000000
  70
    32
  0
VERTEX
  8
0
  5
2AB
 10
323.142
 20
34.8081
 30
0.000000
  70
    32
  0
VERTEX
  8
0
  5
2AC
 10
323.146
 20
34.8045
 30
0.000000
  70
    32
  0
VERTEX
  8
0
  5
2AD
 10
323.150
 20
34.8009
 30
0.000000
  70
    32
  0
VERTEX
  8
0
  5
2AE
 10
323.155
 20
34.7973
 30
0.000000
  70
    32
  0
VERTEX
  8
0
  5
2AF
 10
323.159
 20
34.7939
 30
0.000000
  70
    32
  0
VERTEX
  8
0
  5
2B0
 10
323.164
 20
34.7904
 30
0.000000
  70
    32
  0
VERTEX
  8
0
  5
2B1
 10
323.168
 20
34.7871
 30
0.000000
  70
    32
  0
VERTEX
  8
0
  5
2B2
 10
323.173
 20
34.7837
 30
0.000000
  70
    32
  0
VERTEX
  8
0
  5
2B3
 10
323.177
 20
34.7805
 30
0.000000
  70
    32
  0
VERTEX
  8
0
  5
2B4
 10
323.182
 20
34.7773
 30
0.000000
  70
    32
  0
VERTEX
  8
0
  5
2B5
 10
323.186
 20
34.7741
 30
0.000000
  70
    32
  0
VERTEX
  8
0
  5
2B6
 10
323.191
 20
34.7710
 30
0.000000
  70
    32
  0
VERTEX
  8
0
  5
2B7
 10
323.195
 20
34.7680
 30
0.000000
  70
    32
  0
VERTEX
  8
0
  5
2B8
 10
323.200
 20
34.7650
 30
0.000000
  70
    32
  0
VERTEX
  8
0
  5
2B9
 10
323.204
 20
34.7621
 30
0.000000
  70
    32
  0
VERTEX
  8
0
  5
2BA
 10
323.209
 20
34.7593
 30
0.000000
  70
    32
  0
VERTEX
  8
0
  5
2BB
 10
323.214
 20
34.7565
 30
0.000000
  70
    32
  0
VERTEX
  8
0
  5
2BC
 10
323.218
 20
34.7537
 30
0.000000
  70
    32
  0
VERTEX
  8
0
  5
2BD
 10
323.223
 20
34.7510
 30
0.000000
  70
    32
  0
VERTEX
  8
0
  5
2BE
 10
323.228
 20
34.7484
 30
0.000000
  70
    32
  0
VERTEX
  8
0
  5
2BF
 10
323.232
 20
34.7459
 30
0.000000
  70
    32
  0
VERTEX
  8
0
  5
2C0
 10
323.237
 20
34.7433
 30
0.000000
  70
    32
  0
VERTEX
  8
0
  5
2C1
 10
323.242
 20
34.7409
 30
0.000000
  70
    32
  0
VERTEX
  8
0
  5
2C2
 10
323.247
 20
34.7385
 30
0.000000
  70
    32
  0
VERTEX
  8
0
  5
2C3
 10
323.251
 20
34.7362
 30
0.000000
  70
    32
  0
VERTEX
  8
0
  5
2C4
 10
323.256
 20
34.7339
 30
0.000000
  70
    32
  0
VERTEX
  8
0
  5
2C5
 10
323.261
 20
34.7317
 30
0.000000
  70
    32
  0
VERTEX
  8
0
  5
2C6
 10
323.266
 20
34.7295
 30
0.000000
  70
    32
  0
VERTEX
  8
0
  5
2C7
 10
323.270
 20
34.7274
 30
0.000000
  70
    32
  0
VERTEX
  8
0
  5
2C8
 10
323.275
 20
34.7254
 30
0.000000
  70
    32
  0
VERTEX
  8
0
  5
2C9
 10
323.280
 20
34.7234
 30
0.000000
  70
    32
  0
VERTEX
  8
0
  5
2CA
 10
323.285
 20
34.7215
 30
0.000000
  70
    32
  0
VERTEX
  8
0
  5
2CB
 10
323.290
 20
34.7196
 30
0.000000
  70
    32
  0
VERTEX
  8
0
  5
2CC
 10
323.295
 20
34.7178
 30
0.000000
  70
    32
  0
VERTEX
  8
0
  5
2CD
 10
323.299
 20
34.7160
 30
0.000000
  70
    32
  0
VERTEX
  8
0
  5
2CE
 10
323.304
 20
34.7143
 30
0.000000
  70
    32
  0
VERTEX
  8
0
  5
2CF
 10
323.309
 20
34.7127
 30
0.000000
  70
    32
  0
VERTEX
  8
0
  5
2D0
 10
323.314
 20
34.7111
 30
0.000000
  70
    32
  0
VERTEX
  8
0
  5
2D1
 10
323.319
 20
34.7096
 30
0.000000
  70
    32
  0
VERTEX
  8
0
  5
2D2
 10
323.324
 20
34.7082
 30
0.000000
  70
    32
  0
VERTEX
  8
0
  5
2D3
 10
323.329
 20
34.7068
 30
0.000000
  70
    32
  0
VERTEX
  8
0
  5
2D4
 10
323.334
 20
34.7054
 30
0.000000
  70
    32
  0
VERTEX
  8
0
  5
2D5
 10
323.339
 20
34.7042
 30
0.000000
  70
    32
  0
VERTEX
  8
0
  5
2D6
 10
323.344
 20
34.7030
 30
0.000000
  70
    32
  0
VERTEX
  8
0
  5
2D7
 10
323.349
 20
34.7018
 30
0.000000
  70
    32
  0
VERTEX
  8
0
  5
2D8
 10
323.354
 20
34.7007
 30
0.000000
  70
    32
  0
VERTEX
  8
0
  5
2D9
 10
323.359
 20
34.6997
 30
0.000000
  70
    32
  0
VERTEX
  8
0
  5
2DA
 10
323.363
 20
34.6987
 30
0.000000
  70
    32
  0
VERTEX
  8
0
  5
2DB
 10
323.368
 20
34.6978
 30
0.000000
  70
    32
  0
VERTEX
  8
0
  5
2DC
 10
323.373
 20
34.6969
 30
0.000000
  70
    32
  0
VERTEX
  8
0
  5
2DD
 10
323.378
 20
34.6961
 30
0.000000
  70
    32
  0
VERTEX
  8
0
  5
2DE
 10
323.383
 20
34.6954
 30
0.000000
  70
    32
  0
VERTEX
  8
0
  5
2DF
 10
323.388
 20
34.6947
 30
0.000000
  70
    32
  0
VERTEX
  8
0
  5
2E0
 10
323.393
 20
34.6941
 30
0.000000
  70
    32
  0
VERTEX
  8
0
  5
2E1
 10
323.398
 20
34.6935
 30
0.000000
  70
    32
  0
VERTEX
  8
0
  5
2E2
 10
323.403
 20
34.6930
 30
0.000000
  70
    32
  0
VERTEX
  8
0
  5
2E3
 10
323.408
 20
34.6926
 30
0.000000
  70
    32
  0
VERTEX
  8
0
  5
2E4
 10
323.413
 20
34.6922
 30
0.000000
  70
    32
  0
VERTEX
  8
0
  5
2E5
 10
323.418
 20
34.6919
 30
0.000000
  70
    32
  0
VERTEX
  8
0
  5
2E6
 10
323.423
 20
34.6916
 30
0.000000
  70
    32
  0
VERTEX
  8
0
  5
2E7
 10
323.428
 20
34.6914
 30
0.000000
  70
    32
  0
VERTEX
  8
0
  5
2E8
 10
323.433
 20
34.6913
 30
0.000000
  70
    32
  0
VERTEX
  8
0
  5
2E9
 10
323.438
 20
34.6912
 30
0.000000
  70
    32
  0
VERTEX
  8
0
  5
2EA
 10
323.443
 20
34.6912
 30
0.000000
  70
    32
  0
VERTEX
  8
0
  5
2EB
 10
323.448
 20
34.6912
 30
0.000000
  70
    32
  0
VERTEX
  8
0
  5
2EC
 10
323.453
 20
34.6913
 30
0.000000
  70
    32
  0
VERTEX
  8
0
  5
2ED
 10
323.458
 20
34.6915
 30
0.000000
  70
    32
  0
VERTEX
  8
0
  5
2EE
 10
323.463
 20
34.6917
 30
0.000000
  70
    32
  0
VERTEX
  8
0
  5
2EF
 10
323.468
 20
34.6920
 30
0.000000
  70
    32
  0
VERTEX
  8
0
  5
2F0
 10
323.473
 20
34.6924
 30
0.000000
  70
    32
  0
VERTEX
  8
0
  5
2F1
 10
323.478
 20
34.6928
 30
0.000000
  70
    32
  0
VERTEX
  8
0
  5
2F2
 10
323.483
 20
34.6932
 30
0.000000
  70
    32
  0
VERTEX
  8
0
  5
2F3
 10
323.488
 20
34.6938
 30
0.000000
  70
    32
  0
VERTEX
  8
0
  5
2F4
 10
323.493
 20
34.6944
 30
0.000000
  70
    32
  0
VERTEX
  8
0
  5
2F5
 10
323.498
 20
34.6950
 30
0.000000
  70
    32
  0
VERTEX
  8
0
  5
2F6
 10
323.503
 20
34.6957
 30
0.000000
  70
    32
  0
VERTEX
  8
0
  5
2F7
 10
323.508
 20
34.6965
 30
0.000000
  70
    32
  0
VERTEX
  8
0
  5
2F8
 10
323.513
 20
34.6973
 30
0.000000
  70
    32
  0
VERTEX
  8
0
  5
2F9
 10
323.518
 20
34.6982
 30
0.000000
  70
    32
  0
VERTEX
  8
0
  5
2FA
 10
323.523
 20
34.6992
 30
0.000000
  70
    32
  0
VERTEX
  8
0
  5
2FB
 10
323.528
 20
34.7002
 30
0.000000
  70
    32
  0
VERTEX
  8
0
  5
2FC
 10
323.533
 20
34.7013
 30
0.000000
  70
    32
  0
VERTEX
  8
0
  5
2FD
 10
323.538
 20
34.7025
 30
0.000000
  70
    32
  0
VERTEX
  8
0
  5
2FE
 10
323.543
 20
34.7037
 30
0.000000
  70
    32
  0
VERTEX
  8
0
  5
2FF
 10
323.548
 20
34.7049
 30
0.000000
  70
    32
  0
VERTEX
  8
0
  5
300
 10
323.553
 20
34.7063
 30
0.000000
  70
    32
  0
VERTEX
  8
0
  5
301
 10
323.558
 20
34.7077
 30
0.000000
  70
    32
  0
VERTEX
  8
0
  5
302
 10
323.563
 20
34.7091
 30
0.000000
  70
    32
  0
VERTEX
  8
0
  5
303
 10
323.568
 20
34.7106
 30
0.000000
  70
    32
  0
VERTEX
  8
0
  5
304
 10
323.573
 20
34.7122
 30
0.000000
  70
    32
  0
VERTEX
  8
0
  5
305
 10
323.578
 20
34.7138
 30
0.000000
  70
    32
  0
VERTEX
  8
0
  5
306
 10
323.582
 20
34.7155
 30
0.000000
  70
    32
  0
VERTEX
  8
0
  5
307
 10
323.587
 20
34.7173
 30
0.000000
  70
    32
  0
VERTEX
  8
0
  5
308
 10
323.592
 20
34.7191
 30
0.000000
  70
    32
  0
VERTEX
  8
0
  5
309
 10
323.597
 20
34.7210
 30
0.000000
  70
    32
  0
VERTEX
  8
0
  5
30A
 10
323.602
 20
34.7230
 30
0.000000
  70
    32
  0
VERTEX
  8
0
  5
30B
 10
323.607
 20
34.7250
 30
0.000000
  70
    32
  0
VERTEX
  8
0
  5
30C
 10
323.611
 20
34.7271
 30
0.000000
  70
    32
  0
VERTEX
  8
0
  5
30D
 10
323.616
 20
34.7292
 30
0.000000
  70
    32
  0
VERTEX
  8
0
  5
30E
 10
323.621
 20
34.7314
 30
0.000000
  70
    32
  0
VERTEX
  8
0
  5
30F
 10
323.626
 20
34.7336
 30
0.000000
  70
    32
  0
VERTEX
  8
0
  5
310
 10
323.630
 20
34.7360
 30
0.000000
  70
    32
  0
VERTEX
  8
0
  5
311
 10
323.635
 20
34.7383
 30
0.000000
  70
    32
  0
VERTEX
  8
0
  5
312
 10
323.640
 20
34.7407
 30
0.000000
  70
    32
  0
VERTEX
  8
0
  5
313
 10
323.645
 20
34.7432
 30
0.000000
  70
    32
  0
VERTEX
  8
0
  5
314
 10
323.649
 20
34.7458
 30
0.000000
  70
    32
  0
VERTEX
  8
0
  5
315
 10
323.654
 20
34.7484
 30
0.000000
  70
    32
  0
VERTEX
  8
0
  5
316
 10
323.659
 20
34.7510
 30
0.000000
  70
    32
  0
VERTEX
  8
0
  5
317
 10
323.663
 20
34.7538
 30
0.000000
  70
    32
  0
VERTEX
  8
0
  5
318
 10
323.668
 20
34.7565
 30
0.000000
  70
    32
  0
VERTEX
  8
0
  5
319
 10
323.673
 20
34.7594
 30
0.000000
  70
    32
  0
VERTEX
  8
0
  5
31A
 10
323.677
 20
34.7623
 30
0.000000
  70
    32
  0
VERTEX
  8
0
  5
31B
 10
323.682
 20
34.7652
 30
0.000000
  70
    32
  0
VERTEX
  8
0
  5
31C
 10
323.686
 20
34.7682
 30
0.000000
  70
    32
  0
VERTEX
  8
0
  5
31D
 10
323.691
 20
34.7713
 30
0.000000
  70
    32
  0
VERTEX
  8
0
  5
31E
 10
323.695
 20
34.7744
 30
0.000000
  70
    32
  0
VERTEX
  8
0
  5
31F
 10
323.700
 20
34.7775
 30
0.000000
  70
    32
  0
VERTEX
  8
0
  5
320
 10
323.704
 20
34.7808
 30
0.000000
  70
    32
  0
VERTEX
  8
0
  5
321
 10
323.709
 20
34.7840
 30
0.000000
  70
    32
  0
VERTEX
  8
0
  5
322
 10
323.713
 20
34.7874
 30
0.000000
  70
    32
  0
VERTEX
  8
0
  5
323
 10
323.718
 20
34.7908
 30
0.000000
  70
    32
  0
VERTEX
  8
0
  5
324
 10
323.722
 20
34.7942
 30
0.000000
  70
    32
  0
VERTEX
  8
0
  5
325
 10
323.727
 20
34.7977
 30
0.000000
  70
    32
  0
VERTEX
  8
0
  5
326
 10
323.731
 20
34.8012
 30
0.000000
  70
    32
  0
VERTEX
  8
0
  5
327
 10
323.735
 20
34.8048
 30
0.000000
  70
    32
  0
VERTEX
  8
0
  5
328
 10
323.740
 20
34.8085
 30
0.000000
  70
    32
  0
VERTEX
  8
0
  5
329
 10
323.744
 20
34.8122
 30
0.000000
  70
    32
  0
VERTEX
  8
0
  5
32A
 10
323.748
 20
34.8159
 30
0.000000
  70
    32
  0
VERTEX
  8
0
  5
32B
 10
323.753
 20
34.8197
 30
0.000000
  70
    32
  0
VERTEX
  8
0
  5
32C
 10
323.757
 20
34.8236
 30
0.000000
  70
    32
  0
VERTEX
  8
0
  5
32D
 10
323.761
 20
34.8275
 30
0.000000
  70
    32
  0
VERTEX
  8
0
  5
32E
 10
323.765
 20
34.8315
 30
0.000000
  70
    32
  0
VERTEX
  8
0
  5
32F
 10
323.770
 20
34.8355
 30
0.000000
  70
    32
  0
VERTEX
  8
0
  5
330
 10
323.774
 20
34.8395
 30
0.000000
  70
    32
  0
VERTEX
  8
0
  5
331
 10
323.778
 20
34.8437
 30
0.000000
  70
    32
  0
VERTEX
  8
0
  5
332
 10
323.782
 20
34.8478
 30
0.000000
  70
    32
  0
VERTEX
  8
0
  5
333
 10
323.786
 20
34.8520
 30
0.000000
  70
    32
  0
VERTEX
  8
0
  5
334
 10
323.790
 20
34.8563
 30
0.000000
  70
    32
  0
VERTEX
  8
0
  5
335
 10
323.794
 20
34.8606
 30
0.000000
  70
    32
  0
VERTEX
  8
0
  5
336
 10
323.798
 20
34.8649
 30
0.000000
  70
    32
  0
VERTEX
  8
0
  5
337
 10
323.802
 20
34.8693
 30
0.000000
  70
    32
  0
VERTEX
  8
0
  5
338
 10
323.806
 20
34.8738
 30
0.000000
  70
    32
  0
VERTEX
  8
0
  5
339
 10
323.810
 20
34.8783
 30
0.000000
  70
    32
  0
VERTEX
  8
0
  5
33A
 10
323.814
 20
34.8828
 30
0.000000
  70
    32
  0
VERTEX
  8
0
  5
33B
 10
323.818
 20
34.8874
 30
0.000000
  70
    32
  0
VERTEX
  8
0
  5
33C
 10
323.822
 20
34.8921
 30
0.000000
  70
    32
  0
VERTEX
  8
0
  5
33D
 10
323.826
 20
34.8967
 30
0.000000
  70
    32
  0
VERTEX
  8
0
  5
33E
 10
323.830
 20
34.9015
 30
0.000000
  70
    32
  0
VERTEX
  8
0
  5
33F
 10
323.834
 20
34.9063
 30
0.000000
  70
    32
  0
VERTEX
  8
0
  5
340
 10
323.837
 20
34.9111
 30
0.000000
  70
    32
  0
VERTEX
  8
0
  5
341
 10
323.841
 20
34.9160
 30
0.000000
  70
    32
  0
VERTEX
  8
0
  5
342
 10
323.845
 20
34.9209
 30
0.000000
  70
    32
  0
VERTEX
  8
0
  5
343
 10
323.849
 20
34.9258
 30
0.000000
  70
    32
  0
VERTEX
  8
0
  5
344
 10
323.852
 20
34.9308
 30
0.000000
  70
    32
  0
VERTEX
  8
0
  5
345
 10
323.856
 20
34.9359
 30
0.000000
  70
    32
  0
VERTEX
  8
0
  5
346
 10
323.860
 20
34.9410
 30
0.000000
  70
    32
  0
VERTEX
  8
0
  5
347
 10
323.863
 20
34.9461
 30
0.000000
  70
    32
  0
VERTEX
  8
0
  5
348
 10
323.867
 20
34.9513
 30
0.000000
  70
    32
  0
VERTEX
  8
0
  5
349
 10
323.870
 20
34.9565
 30
0.000000
  70
    32
  0
VERTEX
  8
0
  5
34A
 10
323.874
 20
34.9618
 30
0.000000
  70
    32
  0
VERTEX
  8
0
  5
34B
 10
323.877
 20
34.9671
 30
0.000000
  70
    32
  0
VERTEX
  8
0
  5
34C
 10
323.881
 20
34.9724
 30
0.000000
  70
    32
  0
VERTEX
  8
0
  5
34D
 10
323.884
 20
34.9778
 30
0.000000
  70
    32
  0
VERTEX
  8
0
  5
34E
 10
323.888
 20
34.9832
 30
0.000000
  70
    32
  0
VERTEX
  8
0
  5
34F
 10
323.891
 20
34.9887
 30
0.000000
  70
    32
  0
VERTEX
  8
0
  5
350
 10
323.894
 20
34.9942
 30
0.000000
  70
    32
  0
VERTEX
  8
0
  5
351
 10
323.898
 20
34.9998
 30
0.000000
  70
    32
  0
VERTEX
  8
0
  5
352
 10
323.901
 20
35.0054
 30
0.000000
  70
    32
  0
VERTEX
  8
0
  5
353
 10
323.904
 20
35.0110
 30
0.000000
  70
    32
  0
VERTEX
  8
0
  5
354
 10
323.907
 20
35.0167
 30
0.000000
  70
    32
  0
VERTEX
  8
0
  5
355
 10
323.911
 20
35.0224
 30
0.000000
  70
    32
  0
VERTEX
  8
0
  5
356
 10
323.914
 20
35.0281
 30
0.000000
  70
    32
  0
VERTEX
  8
0
  5
357
 10
323.917
 20
35.0339
 30
0.000000
  70
    32
  0
VERTEX
  8
0
  5
358
 10
323.920
 20
35.0398
 30
0.000000
  70
    32
  0
VERTEX
  8
0
  5
359
 10
323.923
 20
35.0456
 30
0.000000
  70
    32
  0
VERTEX
  8
0
  5
35A
 10
323.926
 20
35.0515
 30
0.000000
  70
    32
  0
VERTEX
  8
0
  5
35B
 10
323.929
 20
35.0575
 30
0.000000
  70
    32
  0
VERTEX
  8
0
  5
35C
 10
323.932
 20
35.0635
 30
0.000000
  70
    32
  0
VERTEX
  8
0
  5
35D
 10
323.935
 20
35.0695
 30
0.000000
  70
    32
  0
VERTEX
  8
0
  5
35E
 10
323.938
 20
35.0755
 30
0.000000
  70
    32
  0
VERTEX
  8
0
  5
35F
 10
323.941
 20
35.0816
 30
0.000000
  70
    32
  0
VERTEX
  8
0
  5
360
 10
323.943
 20
35.0877
 30
0.000000
  70
    32
  0
VERTEX
  8
0
  5
361
 10
323.946
 20
35.0939
 30
0.000000
  70
    32
  0
VERTEX
  8
0
  5
362
 10
323.949
 20
35.1001
 30
0.000000
  70
    32
  0
VERTEX
  8
0
  5
363
 10
323.952
 20
35.1063
 30
0.000000
  70
    32
  0
VERTEX
  8
0
  5
364
 10
323.954
 20
35.1126
 30
0.000000
  70
    32
  0
VERTEX
  8
0
  5
365
 10
323.957
 20
35.1189
 30
0.000000
  70
    32
  0
VERTEX
  8
0
  5
366
 10
323.959
 20
35.1252
 30
0.000000
  70
    32
  0
VERTEX
  8
0
  5
367
 10
323.962
 20
35.1316
 30
0.000000
  70
    32
  0
VERTEX
  8
0
  5
368
 10
323.965
 20
35.1380
 30
0.000000
  70
    32
  0
VERTEX
  8
0
  5
369
 10
323.967
 20
35.1444
 30
0.000000
  70
    32
  0
VERTEX
  8
0
  5
36A
 10
323.969
 20
35.1508
 30
0.000000
  70
    32
  0
VERTEX
  8
0
  5
36B
 10
323.972
 20
35.1573
 30
0.000000
  70
    32
  0
VERTEX
  8
0
  5
36C
 10
323.974
 20
35.1638
 30
0.000000
  70
    32
  0
VERTEX
  8
0
  5
36D
 10
323.977
 20
35.1704
 30
0.000000
  70
    32
  0
VERTEX
  8
0
  5
36E
 10
323.979
 20
35.1769
 30
0.000000
  70
    32
  0
VERTEX
  8
0
  5
36F
 10
323.981
 20
35.1835
 30
0.000000
  70
    32
  0
VERTEX
  8
0
  5
370
 10
323.983
 20
35.1902
 30
0.000000
  70
    32
  0
VERTEX
  8
0
  5
371
 10
323.986
 20
35.1968
 30
0.000000
  70
    32
  0
VERTEX
  8
0
  5
372
 10
323.988
 20
35.2035
 30
0.000000
  70
    32
  0
VERTEX
  8
0
  5
373
 10
323.990
 20
35.2102
 30
0.000000
  70
    32
  0
VERTEX
  8
0
  5
374
 10
323.992
 20
35.2169
 30
0.000000
  70
    32
  0
VERTEX
  8
0
  5
375
 10
323.994
 20
35.2237
 30
0.000000
  70
    32
  0
VERTEX
  8
0
  5
376
 10
323.996
 20
35.2305
 30
0.000000
  70
    32
  0
VERTEX
  8
0
  5
377
 10
323.998
 20
35.2373
 30
0.000000
  70
    32
  0
VERTEX
  8
0
  5
378
 10
324.000
 20
35.2441
 30
0.000000
  70
    32
  0
VERTEX
  8
0
  5
379
 10
324.002
 20
35.2509
 30
0.000000
  70
    32
  0
VERTEX
  8
0
  5
37A
 10
324.004
 20
35.2578
 30
0.000000
  70
    32
  0
VERTEX
  8
0
  5
37B
 10
324.006
 20
35.2647
 30
0.000000
  70
    32
  0
VERTEX
  8
0
  5
37C
 10
324.008
 20
35.2716
 30
0.000000
  70
    32
  0
VERTEX
  8
0
  5
37D
 10
324.009
 20
35.2786
 30
0.000000
  70
    32
  0
VERTEX
  8
0
  5
37E
 10
324.011
 20
35.2855
 30
0.000000
  70
    32
  0
VERTEX
  8
0
  5
37F
 10
324.013
 20
35.2925
 30
0.000000
  70
    32
  0
VERTEX
  8
0
  5
380
 10
324.014
 20
35.2995
 30
0.000000
  70
    32
  0
VERTEX
  8
0
  5
381
 10
324.016
 20
35.3065
 30
0.000000
  70
    32
  0
VERTEX
  8
0
  5
382
 10
324.018
 20
35.3136
 30
0.000000
  70
    32
  0
VERTEX
  8
0
  5
383
 10
324.019
 20
35.3206
 30
0.000000
  70
    32
  0
VERTEX
  8
0
  5
384
 10
324.021
 20
35.3277
 30
0.000000
  70
    32
  0
VERTEX
  8
0
  5
385
 10
324.022
 20
35.3348
 30
0.000000
  70
    32
  0
VERTEX
  8
0
  5
386
 10
324.023
 20
35.3419
 30
0.000000
  70
    32
  0
VERTEX
  8
0
  5
387
 10
324.025
 20
35.3491
 30
0.000000
  70
    32
  0
VERTEX
  8
0
  5
388
 10
324.026
 20
35.3562
 30
0.000000
  70
    32
  0
VERTEX
  8
0
  5
389
 10
324.028
 20
35.3634
 30
0.000000
  70
    32
  0
VERTEX
  8
0
  5
38A
 10
324.029
 20
35.3705
 30
0.000000
  70
    32
  0
VERTEX
  8
0
  5
38B
 10
324.030
 20
35.3777
 30
0.000000
  70
    32
  0
VERTEX
  8
0
  5
38C
 10
324.031
 20
35.3849
 30
0.000000
  70
    32
  0
VERTEX
  8
0
  5
38D
 10
324.032
 20
35.3922
 30
0.000000
  70
    32
  0
VERTEX
  8
0
  5
38E
 10
324.033
 20
35.3994
 30
0.000000
  70
    32
  0
VERTEX
  8
0
  5
38F
 10
324.035
 20
35.4066
 30
0.000000
  70
    32
  0
VERTEX
  8
0
  5
390
 10
324.036
 20
35.4139
 30
0.000000
  70
    32
  0
VERTEX
  8
0
  5
391
 10
324.037
 20
35.4212
 30
0.000000
  70
    32
  0
VERTEX
  8
0
  5
392
 10
324.038
 20
35.4285
 30
0.000000
  70
    32
  0
VERTEX
  8
0
  5
393
 10
324.038
 20
35.4358
 30
0.000000
  70
    32
  0
VERTEX
  8
0
  5
394
 10
324.039
 20
35.4431
 30
0.000000
  70
    32
  0
VERTEX
  8
0
  5
395
 10
324.040
 20
35.4504
 30
0.000000
  70
    32
  0
VERTEX
  8
0
  5
396
 10
324.041
 20
35.4577
 30
0.000000
  70
    32
  0
VERTEX
  8
0
  5
397
 10
324.042
 20
35.4650
 30
0.000000
  70
    32
  0
VERTEX
  8
0
  5
398
 10
324.042
 20
35.4724
 30
0.000000
  70
    32
  0
VERTEX
  8
0
  5
399
 10
324.043
 20
35.4797
 30
0.000000
  70
    32
  0
VERTEX
  8
0
  5
39A
 10
324.044
 20
35.4871
 30
0.000000
  70
    32
  0
VERTEX
  8
0
  5
39B
 10
324.044
 20
35.4945
 30
0.000000
  70
    32
  0
VERTEX
  8
0
  5
39C
 10
324.045
 20
35.5018
 30
0.000000
  70
    32
  0
VERTEX
  8
0
  5
39D
 10
324.045
 20
35.5092
 30
0.000000
  70
    32
  0
VERTEX
  8
0
  5
39E
 10
324.046
 20
35.5166
 30
0.000000
  70
    32
  0
VERTEX
  8
0
  5
39F
 10
324.046
 20
35.5240
 30
0.000000
  70
    32
  0
VERTEX
  8
0
  5
3A0
 10
324.047
 20
35.5314
 30
0.000000
  70
    32
  0
VERTEX
  8
0
  5
3A1
 10
324.047
 20
35.5388
 30
0.000000
  70
    32
  0
VERTEX
  8
0
  5
3A2
 10
324.047
 20
35.5462
 30
0.000000
  70
    32
  0
VERTEX
  8
0
  5
3A3
 10
324.048
 20
35.5536
 30
0.000000
  70
    32
  0
VERTEX
  8
0
  5
3A4
 10
324.048
 20
35.5610
 30
0.000000
  70
    32
  0
VERTEX
  8
0
  5
3A5
 10
324.048
 20
35.5684
 30
0.000000
  70
    32
  0
VERTEX
  8
0
  5
3A6
 10
324.048
 20
35.5759
 30
0.000000
  70
    32
  0
VERTEX
  8
0
  5
3A7
 10
324.048
 20
35.5833
 30
0.000000
  70
    32
  0
VERTEX
  8
0
  5
3A8
 10
324.048
 20
35.5907
 30
0.000000
  70
    32
  0
VERTEX
  8
0
  5
3A9
 10
324.048
 20
35.5981
 30
0.000000
  70
    32
  0
SEQEND
  8
0
  5
3AA
  0
POLYLINE
  8
0
  5
3AB
  66
     1
 10
0.000000
 20
0.000000
 30
0.000000
  70
     8
  0
VERTEX
  8
0
  5
3AC
 10
322.826
 20
35.5981
 30
0.000000
  70
    32
  0
VERTEX
  8
0
  5
3AD
 10
322.826
 20
35.5907
 30
0.000000
  70
    32
  0
VERTEX
  8
0
  5
3AE
 10
322.826
 20
35.5832
 30
0.000000
  70
    32
  0
VERTEX
  8
0
  5
3AF
 10
322.826
 20
35.5757
 30
0.000000
  70
    32
  0
VERTEX
  8
0
  5
3B0
 10
322.826
 20
35.5683
 30
0.000000
  70
    32
  0
VERTEX
  8
0
  5
3B1
 10
322.826
 20
35.5608
 30
0.000000
  70
    32
  0
VERTEX
  8
0
  5
3B2
 10
322.827
 20
35.5534
 30
0.000000
  70
    32
  0
VERTEX
  8
0
  5
3B3
 10
322.827
 20
35.5459
 30
0.000000
  70
    32
  0
VERTEX
  8
0
  5
3B4
 10
322.827
 20
35.5385
 30
0.000000
  70
    32
  0
VERTEX
  8
0
  5
3B5
 10
322.828
 20
35.5310
 30
0.000000
  70
    32
  0
VERTEX
  8
0
  5
3B6
 10
322.828
 20
35.5236
 30
0.000000
  70
    32
  0
VERTEX
  8
0
  5
3B7
 10
322.828
 20
35.5161
 30
0.000000
  70
    32
  0
VERTEX
  8
0
  5
3B8
 10
322.829
 20
35.5087
 30
0.000000
  70
    32
  0
VERTEX
  8
0
  5
3B9
 10
322.829
 20
35.5013
 30
0.000000
  70
    32
  0
VERTEX
  8
0
  5
3BA
 10
322.830
 20
35.4939
 30
0.000000
  70
    32
  0
VERTEX
  8
0
  5
3BB
 10
322.830
 20
35.4864
 30
0.000000
  70
    32
  0
VERTEX
  8
0
  5
3BC
 10
322.831
 20
35.4790
 30
0.000000
  70
    32
  0
VERTEX
  8
0
  5
3BD
 10
322.832
 20
35.4716
 30
0.000000
  70
    32
  0
VERTEX
  8
0
  5
3BE
 10
322.833
 20
35.4643
 30
0.000000
  70
    32
  0
VERTEX
  8
0
  5
3BF
 10
322.833
 20
35.4569
 30
0.000000
  70
    32
  0
VERTEX
  8
0
  5
3C0
 10
322.834
 20
35.4495
 30
0.000000
  70
    32
  0
VERTEX
  8
0
  5
3C1
 10
322.835
 20
35.4421
 30
0.000000
  70
    32
  0
VERTEX
  8
0
  5
3C2
 10
322.836
 20
35.4348
 30
0.000000
  70
    32
  0
VERTEX
  8
0
  5
3C3
 10
322.837
 20
35.4275
 30
0.000000
  70
    32
  0
VERTEX
  8
0
  5
3C4
 10
322.838
 20
35.4201
 30
0.000000
  70
    32
  0
VERTEX
  8
0
  5
3C5
 10
322.839
 20
35.4128
 30
0.000000
  70
    32
  0
VERTEX
  8
0
  5
3C6
 10
322.840
 20
35.4055
 30
0.000000
  70
    32
  0
VERTEX
  8
0
  5
3C7
 10
322.841
 20
35.3982
 30
0.000000
  70
    32
  0
VERTEX
  8
0
  5
3C8
 10
322.842
 20
35.3909
 30
0.000000
  70
    32
  0
VERTEX
  8
0
  5
3C9
 10
322.843
 20
35.3837
 30
0.000000
  70
    32
  0
VERTEX
  8
0
  5
3CA
 10
322.844
 20
35.3764
 30
0.000000
  70
    32
  0
VERTEX
  8
0
  5
3CB
 10
322.845
 20
35.3692
 30
0.000000
  70
    32
  0
VERTEX
  8
0
  5
3CC
 10
322.847
 20
35.3620
 30
0.000000
  70
    32
  0
VERTEX
  8
0
  5
3CD
 10
322.848
 20
35.3548
 30
0.000000
  70
    32
  0
VERTEX
  8
0
  5
3CE
 10
322.849
 20
35.3476
 30
0.000000
  70
    32
  0
VERTEX
  8
0
  5
3CF
 10
322.851
 20
35.3404
 30
0.000000
  70
    32
  0
VERTEX
  8
0
  5
3D0
 10
322.852
 20
35.3332
 30
0.000000
  70
    32
  0
VERTEX
  8
0
  5
3D1
 10
322.854
 20
35.3261
 30
0.000000
  70
    32
  0
VERTEX
  8
0
  5
3D2
 10
322.855
 20
35.3190
 30
0.000000
  70
    32
  0
VERTEX
  8
0
  5
3D3
 10
322.857
 20
35.3119
 30
0.000000
  70
    32
  0
VERTEX
  8
0
  5
3D4
 10
322.858
 20
35.3048
 30
0.000000
  70
    32
  0
VERTEX
  8
0
  5
3D5
 10
322.860
 20
35.2977
 30
0.000000
  70
    32
  0
VERTEX
  8
0
  5
3D6
 10
322.862
 20
35.2907
 30
0.000000
  70
    32
  0
VERTEX
  8
0
  5
3D7
 10
322.863
 20
35.2837
 30
0.000000
  70
    32
  0
VERTEX
  8
0
  5
3D8
 10
322.865
 20
35.2767
 30
0.000000
  70
    32
  0
VERTEX
  8
0
  5
3D9
 10
322.867
 20
35.2697
 30
0.000000
  70
    32
  0
VERTEX
  8
0
  5
3DA
 10
322.869
 20
35.2627
 30
0.000000
  70
    32
  0
VERTEX
  8
0
  5
3DB
 10
322.870
 20
35.2558
 30
0.000000
  70
    32
  0
VERTEX
  8
0
  5
3DC
 10
322.872
 20
35.2489
 30
0.000000
  70
    32
  0
VERTEX
  8
0
  5
3DD
 10
322.874
 20
35.2420
 30
0.000000
  70
    32
  0
VERTEX
  8
0
  5
3DE
 10
322.876
 20
35.2351
 30
0.000000
  70
    32
  0
VERTEX
  8
0
  5
3DF
 10
322.878
 20
35.2283
 30
0.000000
  70
    32
  0
VERTEX
  8
0
  5
3E0
 10
322.880
 20
35.2214
 30
0.000000
  70
    32
  0
VERTEX
  8
0
  5
3E1
 10
322.882
 20
35.2146
 30
0.000000
  70
    32
  0
VERTEX
  8
0
  5
3E2
 10
322.884
 20
35.2079
 30
0.000000
  70
    32
  0
VERTEX
  8
0
  5
3E3
 10
322.887
 20
35.2011
 30
0.000000
  70
    32
  0
VERTEX
  8
0
  5
3E4
 10
322.889
 20
35.1944
 30
0.000000
  70
    32
  0
VERTEX
  8
0
  5
3E5
 10
322.891
 20
35.1877
 30
0.000000
  70
    32
  0
VERTEX
  8
0
  5
3E6
 10
322.893
 20
35.1811
 30
0.000000
  70
    32
  0
VERTEX
  8
0
  5
3E7
 10
322.896
 20
35.1745
 30
0.000000
  70
    32
  0
VERTEX
  8
0
  5
3E8
 10
322.898
 20
35.1679
 30
0.000000
  70
    32
  0
VERTEX
  8
0
  5
3E9
 10
322.900
 20
35.1613
 30
0.000000
  70
    32
  0
VERTEX
  8
0
  5
3EA
 10
322.903
 20
35.1548
 30
0.000000
  70
    32
  0
VERTEX
  8
0
  5
3EB
 10
322.905
 20
35.1482
 30
0.000000
  70
    32
  0
VERTEX
  8
0
  5
3EC
 10
322.908
 20
35.1418
 30
0.000000
  70
    32
  0
VERTEX
  8
0
  5
3ED
 10
322.910
 20
35.1353
 30
0.000000
  70
    32
  0
VERTEX
  8
0
  5
3EE
 10
322.913
 20
35.1289
 30
0.000000
  70
    32
  0
VERTEX
  8
0
  5
3EF
 10
322.916
 20
35.1225
 30
0.000000
  70
    32
  0
VERTEX
  8
0
  5
3F0
 10
322.918
 20
35.1162
 30
0.000000
  70
    32
  0
VERTEX
  8
0
  5
3F1
 10
322.921
 20
35.1098
 30
0.000000
  70
    32
  0
VERTEX
  8
0
  5
3F2
 10
322.924
 20
35.1035
 30
0.000000
  70
    32
  0
VERTEX
  8
0
  5
3F3
 10
322.926
 20
35.0973
 30
0.000000
  70
    32
  0
VERTEX
  8
0
  5
3F4
 10
322.929
 20
35.0911
 30
0.000000
  70
    32
  0
VERTEX
  8
0
  5
3F5
 10
322.932
 20
35.0849
 30
0.000000
  70
    32
  0
VERTEX
  8
0
  5
3F6
 10
322.935
 20
35.0787
 30
0.000000
  70
    32
  0
VERTEX
  8
0
  5
3F7
 10
322.938
 20
35.0726
 30
0.000000
  70
    32
  0
VERTEX
  8
0
  5
3F8
 10
322.940
 20
35.0665
 30
0.000000
  70
    32
  0
VERTEX
  8
0
  5
3F9
 10
322.943
 20
35.0604
 30
0.000000
  70
    32
  0
VERTEX
  8
0
  5
3FA
 10
322.946
 20
35.0544
 30
0.000000
  70
    32
  0
VERTEX
  8
0
  5
3FB
 10
322.949
 20
35.0484
 30
0.000000
  70
    32
  0
VERTEX
  8
0
  5
3FC
 10
322.952
 20
35.0425
 30
0.000000
  70
    32
  0
VERTEX
  8
0
  5
3FD
 10
322.956
 20
35.0366
 30
0.000000
  70
    32
  0
VERTEX
  8
0
  5
3FE
 10
322.959
 20
35.0307
 30
0.000000
  70
    32
  0
VERTEX
  8
0
  5
3FF
 10
322.962
 20
35.0249
 30
0.000000
  70
    32
  0
VERTEX
  8
0
  5
400
 10
322.965
 20
35.0191
 30
0.000000
  70
    32
  0
VERTEX
  8
0
  5
401
 10
322.968
 20
35.0133
 30
0.000000
  70
    32
  0
VERTEX
  8
0
  5
402
 10
322.971
 20
35.0076
 30
0.000000
  70
    32
  0
VERTEX
  8
0
  5
403
 10
322.975
 20
35.0019
 30
0.000000
  70
    32
  0
VERTEX
  8
0
  5
404
 10
322.978
 20
34.9962
 30
0.000000
  70
    32
  0
VERTEX
  8
0
  5
405
 10
322.981
 20
34.9906
 30
0.000000
  70
    32
  0
VERTEX
  8
0
  5
406
 10
322.985
 20
34.9851
 30
0.000000
  70
    32
  0
VERTEX
  8
0
  5
407
 10
322.988
 20
34.9795
 30
0.000000
  70
    32
  0
VERTEX
  8
0
  5
408
 10
322.991
 20
34.9741
 30
0.000000
  70
    32
  0
VERTEX
  8
0
  5
409
 10
322.995
 20
34.9686
 30
0.000000
  70
    32
  0
VERTEX
  8
0
  5
40A
 10
322.998
 20
34.9632
 30
0.000000
  70
    32
  0
VERTEX
  8
0
  5
40B
 10
323.002
 20
34.9578
 30
0.000000
  70
    32
  0
VERTEX
  8
0
  5
40C
 10
323.005
 20
34.9525
 30
0.000000
  70
    32
  0
VERTEX
  8
0
  5
40D
 10
323.009
 20
34.9472
 30
0.000000
  70
    32
  0
VERTEX
  8
0
  5
40E
 10
323.013
 20
34.9420
 30
0.000000
  70
    32
  0
VERTEX
  8
0
  5
40F
 10
323.016
 20
34.9368
 30
0.000000
  70
    32
  0
VERTEX
  8
0
  5
410
 10
323.020
 20
34.9316
 30
0.000000
  70
    32
  0
VERTEX
  8
0
  5
411
 10
323.024
 20
34.9265
 30
0.000000
  70
    32
  0
VERTEX
  8
0
  5
412
 10
323.027
 20
34.9215
 30
0.000000
  70
    32
  0
VERTEX
  8
0
  5
413
 10
323.031
 20
34.9164
 30
0.000000
  70
    32
  0
VERTEX
  8
0
  5
414
 10
323.035
 20
34.9115
 30
0.000000
  70
    32
  0
VERTEX
  8
0
  5
415
 10
323.039
 20
34.9065
 30
0.000000
  70
    32
  0
VERTEX
  8
0
  5
416
 10
323.042
 20
34.9016
 30
0.000000
  70
    32
  0
VERTEX
  8
0
  5
417
 10
323.046
 20
34.8968
 30
0.000000
  70
    32
  0
VERTEX
  8
0
  5
418
 10
323.050
 20
34.8920
 30
0.000000
  70
    32
  0
VERTEX
  8
0
  5
419
 10
323.054
 20
34.8872
 30
0.000000
  70
    32
  0
VERTEX
  8
0
  5
41A
 10
323.058
 20
34.8825
 30
0.000000
  70
    32
  0
VERTEX
  8
0
  5
41B
 10
323.062
 20
34.8779
 30
0.000000
  70
    32
  0
VERTEX
  8
0
  5
41C
 10
323.066
 20
34.8733
 30
0.000000
  70
    32
  0
VERTEX
  8
0
  5
41D
 10
323.070
 20
34.8687
 30
0.000000
  70
    32
  0
VERTEX
  8
0
  5
41E
 10
323.074
 20
34.8642
 30
0.000000
  70
    32
  0
VERTEX
  8
0
  5
41F
 10
323.078
 20
34.8597
 30
0.000000
  70
    32
  0
VERTEX
  8
0
  5
420
 10
323.082
 20
34.8553
 30
0.000000
  70
    32
  0
VERTEX
  8
0
  5
421
 10
323.086
 20
34.8509
 30
0.000000
  70
    32
  0
VERTEX
  8
0
  5
422
 10
323.090
 20
34.8466
 30
0.000000
  70
    32
  0
VERTEX
  8
0
  5
423
 10
323.094
 20
34.8424
 30
0.000000
  70
    32
  0
VERTEX
  8
0
  5
424
 10
323.099
 20
34.8381
 30
0.000000
  70
    32
  0
VERTEX
  8
0
  5
425
 10
323.103
 20
34.8340
 30
0.000000
  70
    32
  0
VERTEX
  8
0
  5
426
 10
323.107
 20
34.8299
 30
0.000000
  70
    32
  0
VERTEX
  8
0
  5
427
 10
323.111
 20
34.8258
 30
0.000000
  70
    32
  0
VERTEX
  8
0
  5
428
 10
323.115
 20
34.8218
 30
0.000000
  70
    32
  0
VERTEX
  8
0
  5
429
 10
323.120
 20
34.8178
 30
0.000000
  70
    32
  0
VERTEX
  8
0
  5
42A
 10
323.124
 20
34.8139
 30
0.000000
  70
    32
  0
VERTEX
  8
0
  5
42B
 10
323.128
 20
34.8101
 30
0.000000
  70
    32
  0
VERTEX
  8
0
  5
42C
 10
323.133
 20
34.8062
 30
0.000000
  70
    32
  0
VERTEX
  8
0
  5
42D
 10
323.137
 20
34.8025
 30
0.000000
  70
    32
  0
VERTEX
  8
0
  5
42E
 10
323.141
 20
34.7988
 30
0.000000
  70
    32
  0
VERTEX
  8
0
  5
42F
 10
323.146
 20
34.7952
 30
0.000000
  70
    32
  0
VERTEX
  8
0
  5
430
 10
323.150
 20
34.7916
 30
0.000000
  70
    32
  0
VERTEX
  8
0
  5
431
 10
323.155
 20
34.7880
 30
0.000000
  70
    32
  0
VERTEX
  8
0
  5
432
 10
323.159
 20
34.7846
 30
0.000000
  70
    32
  0
VERTEX
  8
0
  5
433
 10
323.164
 20
34.7811
 30
0.000000
  70
    32
  0
VERTEX
  8
0
  5
434
 10
323.168
 20
34.7778
 30
0.000000
  70
    32
  0
VERTEX
  8
0
  5
435
 10
323.173
 20
34.7745
 30
0.000000
  70
    32
  0
VERTEX
  8
0
  5
436
 10
323.177
 20
34.7712
 30
0.000000
  70
    32
  0
VERTEX
  8
0
  5
437
 10
323.182
 20
34.7680
 30
0.000000
  70
    32
  0
VERTEX
  8
0
  5
438
 10
323.187
 20
34.7649
 30
0.000000
  70
    32
  0
VERTEX
  8
0
  5
439
 10
323.191
 20
34.7618
 30
0.000000
  70
    32
  0
VERTEX
  8
0
  5
43A
 10
323.196
 20
34.7588
 30
0.000000
  70
    32
  0
VERTEX
  8
0
  5
43B
 10
323.200
 20
34.7558
 30
0.000000
  70
    32
  0
VERTEX
  8
0
  5
43C
 10
323.205
 20
34.7529
 30
0.000000
  70
    32
  0
VERTEX
  8
0
  5
43D
 10
323.210
 20
34.7500
 30
0.000000
  70
    32
  0
VERTEX
  8
0
  5
43E
 10
323.215
 20
34.7473
 30
0.000000
  70
    32
  0
VERTEX
  8
0
  5
43F
 10
323.219
 20
34.7445
 30
0.000000
  70
    32
  0
VERTEX
  8
0
  5
440
 10
323.224
 20
34.7419
 30
0.000000
  70
    32
  0
VERTEX
  8
0
  5
441
 10
323.229
 20
34.7393
 30
0.000000
  70
    32
  0
VERTEX
  8
0
  5
442
 10
323.234
 20
34.7367
 30
0.000000
  70
    32
  0
VERTEX
  8
0
  5
443
 10
323.238
 20
34.7342
 30
0.000000
  70
    32
  0
VERTEX
  8
0
  5
444
 10
323.243
 20
34.7318
 30
0.000000
  70
    32
  0
VERTEX
  8
0
  5
445
 10
323.248
 20
34.7294
 30
0.000000
  70
    32
  0
VERTEX
  8
0
  5
446
 10
323.253
 20
34.7271
 30
0.000000
  70
    32
  0
VERTEX
  8
0
  5
447
 10
323.258
 20
34.7249
 30
0.000000
  70
    32
  0
VERTEX
  8
0
  5
448
 10
323.263
 20
34.7227
 30
0.000000
  70
    32
  0
VERTEX
  8
0
  5
449
 10
323.267
 20
34.7205
 30
0.000000
  70
    32
  0
VERTEX
  8
0
  5
44A
 10
323.272
 20
34.7185
 30
0.000000
  70
    32
  0
VERTEX
  8
0
  5
44B
 10
323.277
 20
34.7165
 30
0.000000
  70
    32
  0
VERTEX
  8
0
  5
44C
 10
323.282
 20
34.7145
 30
0.000000
  70
    32
  0
VERTEX
  8
0
  5
44D
 10
323.287
 20
34.7126
 30
0.000000
  70
    32
  0
VERTEX
  8
0
  5
44E
 10
323.292
 20
34.7108
 30
0.000000
  70
    32
  0
VERTEX
  8
0
  5
44F
 10
323.297
 20
34.7090
 30
0.000000
  70
    32
  0
VERTEX
  8
0
  5
450
 10
323.302
 20
34.7073
 30
0.000000
  70
    32
  0
VERTEX
  8
0
  5
451
 10
323.307
 20
34.7056
 30
0.000000
  70
    32
  0
VERTEX
  8
0
  5
452
 10
323.312
 20
34.7040
 30
0.000000
  70
    32
  0
VERTEX
  8
0
  5
453
 10
323.317
 20
34.7025
 30
0.000000
  70
    32
  0
VERTEX
  8
0
  5
454
 10
323.322
 20
34.7010
 30
0.000000
  70
    32
  0
VERTEX
  8
0
  5
455
 10
323.327
 20
34.6996
 30
0.000000
  70
    32
  0
VERTEX
  8
0
  5
456
 10
323.332
 20
34.6983
 30
0.000000
  70
    32
  0
VERTEX
  8
0
  5
457
 10
323.337
 20
34.6970
 30
0.000000
  70
    32
  0
VERTEX
  8
0
  5
458
 10
323.342
 20
34.6957
 30
0.000000
  70
    32
  0
VERTEX
  8
0
  5
459
 10
323.347
 20
34.6946
 30
0.000000
  70
    32
  0
VERTEX
  8
0
  5
45A
 10
323.352
 20
34.6935
 30
0.000000
  70
    32
  0
VERTEX
  8
0
  5
45B
 10
323.357
 20
34.6924
 30
0.000000
  70
    32
  0
VERTEX
  8
0
  5
45C
 10
323.362
 20
34.6914
 30
0.000000
  70
    32
  0
VERTEX
  8
0
  5
45D
 10
323.367
 20
34.6905
 30
0.000000
  70
    32
  0
VERTEX
  8
0
  5
45E
 10
323.372
 20
34.6896
 30
0.000000
  70
    32
  0
VERTEX
  8
0
  5
45F
 10
323.377
 20
34.6888
 30
0.000000
  70
    32
  0
VERTEX
  8
0
  5
460
 10
323.382
 20
34.6881
 30
0.000000
  70
    32
  0
VERTEX
  8
0
  5
461
 10
323.387
 20
34.6874
 30
0.000000
  70
    32
  0
VERTEX
  8
0
  5
462
 10
323.393
 20
34.6868
 30
0.000000
  70
    32
  0
VERTEX
  8
0
  5
463
 10
323.398
 20
34.6862
 30
0.000000
  70
    32
  0
VERTEX
  8
0
  5
464
 10
323.403
 20
34.6857
 30
0.000000
  70
    32
  0
VERTEX
  8
0
  5
465
 10
323.408
 20
34.6852
 30
0.000000
  70
    32
  0
VERTEX
  8
0
  5
466
 10
323.413
 20
34.6849
 30
0.000000
  70
    32
  0
VERTEX
  8
0
  5
467
 10
323.418
 20
34.6845
 30
0.000000
  70
    32
  0
VERTEX
  8
0
  5
468
 10
323.423
 20
34.6843
 30
0.000000
  70
    32
  0
VERTEX
  8
0
  5
469
 10
323.428
 20
34.6841
 30
0.000000
  70
    32
  0
VERTEX
  8
0
  5
46A
 10
323.433
 20
34.6839
 30
0.000000
  70
    32
  0
VERTEX
  8
0
  5
46B
 10
323.438
 20
34.6839
 30
0.000000
  70
    32
  0
VERTEX
  8
0
  5
46C
 10
323.444
 20
34.6838
 30
0.000000
  70
    32
  0
VERTEX
  8
0
  5
46D
 10
323.449
 20
34.6839
 30
0.000000
  70
    32
  0
VERTEX
  8
0
  5
46E
 10
323.454
 20
34.6840
 30
0.000000
  70
    32
  0
VERTEX
  8
0
  5
46F
 10
323.459
 20
34.6842
 30
0.000000
  70
    32
  0
VERTEX
  8
0
  5
470
 10
323.464
 20
34.6844
 30
0.000000
  70
    32
  0
VERTEX
  8
0
  5
471
 10
323.469
 20
34.6847
 30
0.000000
  70
    32
  0
VERTEX
  8
0
  5
472
 10
323.474
 20
34.6851
 30
0.000000
  70
    32
  0
VERTEX
  8
0
  5
473
 10
323.479
 20
34.6855
 30
0.000000
  70
    32
  0
VERTEX
  8
0
  5
474
 10
323.484
 20
34.6859
 30
0.000000
  70
    32
  0
VERTEX
  8
0
  5
475
 10
323.489
 20
34.6865
 30
0.000000
  70
    32
  0
VERTEX
  8
0
  5
476
 10
323.494
 20
34.6871
 30
0.000000
  70
    32
  0
VERTEX
  8
0
  5
477
 10
323.500
 20
34.6877
 30
0.000000
  70
    32
  0
VERTEX
  8
0
  5
478
 10
323.505
 20
34.6885
 30
0.000000
  70
    32
  0
VERTEX
  8
0
  5
479
 10
323.510
 20
34.6893
 30
0.000000
  70
    32
  0
VERTEX
  8
0
  5
47A
 10
323.515
 20
34.6901
 30
0.000000
  70
    32
  0
VERTEX
  8
0
  5
47B
 10
323.520
 20
34.6910
 30
0.000000
  70
    32
  0
VERTEX
  8
0
  5
47C
 10
323.525
 20
34.6920
 30
0.000000
  70
    32
  0
VERTEX
  8
0
  5
47D
 10
323.530
 20
34.6930
 30
0.000000
  70
    32
  0
VERTEX
  8
0
  5
47E
 10
323.535
 20
34.6941
 30
0.000000
  70
    32
  0
VERTEX
  8
0
  5
47F
 10
323.540
 20
34.6953
 30
0.000000
  70
    32
  0
VERTEX
  8
0
  5
480
 10
323.545
 20
34.6965
 30
0.000000
  70
    32
  0
VERTEX
  8
0
  5
481
 10
323.550
 20
34.6978
 30
0.000000
  70
    32
  0
VERTEX
  8
0
  5
482
 10
323.555
 20
34.6991
 30
0.000000
  70
    32
  0
VERTEX
  8
0
  5
483
 10
323.560
 20
34.7006
 30
0.000000
  70
    32
  0
VERTEX
  8
0
  5
484
 10
323.565
 20
34.7020
 30
0.000000
  70
    32
  0
VERTEX
  8
0
  5
485
 10
323.570
 20
34.7036
 30
0.000000
  70
    32
  0
VERTEX
  8
0
  5
486
 10
323.575
 20
34.7052
 30
0.000000
  70
    32
  0
VERTEX
  8
0
  5
487
 10
323.580
 20
34.7068
 30
0.000000
  70
    32
  0
VERTEX
  8
0
  5
488
 10
323.585
 20
34.7085
 30
0.000000
  70
    32
  0
VERTEX
  8
0
  5
489
 10
323.590
 20
34.7103
 30
0.000000
  70
    32
  0
VERTEX
  8
0
  5
48A
 10
323.595
 20
34.7122
 30
0.000000
  70
    32
  0
VERTEX
  8
0
  5
48B
 10
323.600
 20
34.7141
 30
0.000000
  70
    32
  0
VERTEX
  8
0
  5
48C
 10
323.605
 20
34.7161
 30
0.000000
  70
    32
  0
VERTEX
  8
0
  5
48D
 10
323.610
 20
34.7181
 30
0.000000
  70
    32
  0
VERTEX
  8
0
  5
48E
 10
323.614
 20
34.7202
 30
0.000000
  70
    32
  0
VERTEX
  8
0
  5
48F
 10
323.619
 20
34.7224
 30
0.000000
  70
    32
  0
VERTEX
  8
0
  5
490
 10
323.624
 20
34.7246
 30
0.000000
  70
    32
  0
VERTEX
  8
0
  5
491
 10
323.629
 20
34.7269
 30
0.000000
  70
    32
  0
VERTEX
  8
0
  5
492
 10
323.634
 20
34.7292
 30
0.000000
  70
    32
  0
VERTEX
  8
0
  5
493
 10
323.639
 20
34.7316
 30
0.000000
  70
    32
  0
VERTEX
  8
0
  5
494
 10
323.643
 20
34.7341
 30
0.000000
  70
    32
  0
VERTEX
  8
0
  5
495
 10
323.648
 20
34.7366
 30
0.000000
  70
    32
  0
VERTEX
  8
0
  5
496
 10
323.653
 20
34.7392
 30
0.000000
  70
    32
  0
VERTEX
  8
0
  5
497
 10
323.658
 20
34.7418
 30
0.000000
  70
    32
  0
VERTEX
  8
0
  5
498
 10
323.662
 20
34.7445
 30
0.000000
  70
    32
  0
VERTEX
  8
0
  5
499
 10
323.667
 20
34.7473
 30
0.000000
  70
    32
  0
VERTEX
  8
0
  5
49A
 10
323.672
 20
34.7501
 30
0.000000
  70
    32
  0
VERTEX
  8
0
  5
49B
 10
323.677
 20
34.7530
 30
0.000000
  70
    32
  0
VERTEX
  8
0
  5
49C
 10
323.681
 20
34.7559
 30
0.000000
  70
    32
  0
VERTEX
  8
0
  5
49D
 10
323.686
 20
34.7589
 30
0.000000
  70
    32
  0
VERTEX
  8
0
  5
49E
 10
323.691
 20
34.7620
 30
0.000000
  70
    32
  0
VERTEX
  8
0
  5
49F
 10
323.695
 20
34.7650
 30
0.000000
  70
    32
  0
VERTEX
  8
0
  5
4A0
 10
323.700
 20
34.7682
 30
0.000000
  70
    32
  0
VERTEX
  8
0
  5
4A1
 10
323.704
 20
34.7714
 30
0.000000
  70
    32
  0
VERTEX
  8
0
  5
4A2
 10
323.709
 20
34.7747
 30
0.000000
  70
    32
  0
VERTEX
  8
0
  5
4A3
 10
323.713
 20
34.7780
 30
0.000000
  70
    32
  0
VERTEX
  8
0
  5
4A4
 10
323.718
 20
34.7814
 30
0.000000
  70
    32
  0
VERTEX
  8
0
  5
4A5
 10
323.722
 20
34.7848
 30
0.000000
  70
    32
  0
VERTEX
  8
0
  5
4A6
 10
323.727
 20
34.7883
 30
0.000000
  70
    32
  0
VERTEX
  8
0
  5
4A7
 10
323.731
 20
34.7918
 30
0.000000
  70
    32
  0
VERTEX
  8
0
  5
4A8
 10
323.736
 20
34.7954
 30
0.000000
  70
    32
  0
VERTEX
  8
0
  5
4A9
 10
323.740
 20
34.7990
 30
0.000000
  70
    32
  0
VERTEX
  8
0
  5
4AA
 10
323.745
 20
34.8027
 30
0.000000
  70
    32
  0
VERTEX
  8
0
  5
4AB
 10
323.749
 20
34.8065
 30
0.000000
  70
    32
  0
VERTEX
  8
0
  5
4AC
 10
323.753
 20
34.8103
 30
0.000000
  70
    32
  0
VERTEX
  8
0
  5
4AD
 10
323.758
 20
34.8141
 30
0.000000
  70
    32
  0
VERTEX
  8
0
  5
4AE
 10
323.762
 20
34.8180
 30
0.000000
  70
    32
  0
VERTEX
  8
0
  5
4AF
 10
323.766
 20
34.8220
 30
0.000000
  70
    32
  0
VERTEX
  8
0
  5
4B0
 10
323.771
 20
34.8260
 30
0.000000
  70
    32
  0
VERTEX
  8
0
  5
4B1
 10
323.775
 20
34.8300
 30
0.000000
  70
    32
  0
VERTEX
  8
0
  5
4B2
 10
323.779
 20
34.8342
 30
0.000000
  70
    32
  0
VERTEX
  8
0
  5
4B3
 10
323.783
 20
34.8383
 30
0.000000
  70
    32
  0
VERTEX
  8
0
  5
4B4
 10
323.787
 20
34.8425
 30
0.000000
  70
    32
  0
VERTEX
  8
0
  5
4B5
 10
323.792
 20
34.8468
 30
0.000000
  70
    32
  0
VERTEX
  8
0
  5
4B6
 10
323.796
 20
34.8511
 30
0.000000
  70
    32
  0
VERTEX
  8
0
  5
4B7
 10
323.800
 20
34.8554
 30
0.000000
  70
    32
  0
VERTEX
  8
0
  5
4B8
 10
323.804
 20
34.8598
 30
0.000000
  70
    32
  0
VERTEX
  8
0
  5
4B9
 10
323.808
 20
34.8643
 30
0.000000
  70
    32
  0
VERTEX
  8
0
  5
4BA
 10
323.812
 20
34.8688
 30
0.000000
  70
    32
  0
VERTEX
  8
0
  5
4BB
 10
323.816
 20
34.8733
 30
0.000000
  70
    32
  0
VERTEX
  8
0
  5
4BC
 10
323.820
 20
34.8779
 30
0.000000
  70
    32
  0
VERTEX
  8
0
  5
4BD
 10
323.824
 20
34.8826
 30
0.000000
  70
    32
  0
VERTEX
  8
0
  5
4BE
 10
323.828
 20
34.8872
 30
0.000000
  70
    32
  0
VERTEX
  8
0
  5
4BF
 10
323.832
 20
34.8920
 30
0.000000
  70
    32
  0
VERTEX
  8
0
  5
4C0
 10
323.836
 20
34.8967
 30
0.000000
  70
    32
  0
VERTEX
  8
0
  5
4C1
 10
323.840
 20
34.9016
 30
0.000000
  70
    32
  0
VERTEX
  8
0
  5
4C2
 10
323.843
 20
34.9064
 30
0.000000
  70
    32
  0
VERTEX
  8
0
  5
4C3
 10
323.847
 20
34.9114
 30
0.000000
  70
    32
  0
VERTEX
  8
0
  5
4C4
 10
323.851
 20
34.9163
 30
0.000000
  70
    32
  0
VERTEX
  8
0
  5
4C5
 10
323.855
 20
34.9213
 30
0.000000
  70
    32
  0
VERTEX
  8
0
  5
4C6
 10
323.858
 20
34.9264
 30
0.000000
  70
    32
  0
VERTEX
  8
0
  5
4C7
 10
323.862
 20
34.9315
 30
0.000000
  70
    32
  0
VERTEX
  8
0
  5
4C8
 10
323.866
 20
34.9366
 30
0.000000
  70
    32
  0
VERTEX
  8
0
  5
4C9
 10
323.869
 20
34.9418
 30
0.000000
  70
    32
  0
VERTEX
  8
0
  5
4CA
 10
323.873
 20
34.9470
 30
0.000000
  70
    32
  0
VERTEX
  8
0
  5
4CB
 10
323.877
 20
34.9523
 30
0.000000
  70
    32
  0
VERTEX
  8
0
  5
4CC
 10
323.880
 20
34.9576
 30
0.000000
  70
    32
  0
VERTEX
  8
0
  5
4CD
 10
323.884
 20
34.9630
 30
0.000000
  70
    32
  0
VERTEX
  8
0
  5
4CE
 10
323.887
 20
34.9683
 30
0.000000
  70
    32
  0
VERTEX
  8
0
  5
4CF
 10
323.891
 20
34.9738
 30
0.000000
  70
    32
  0
VERTEX
  8
0
  5
4D0
 10
323.894
 20
34.9793
 30
0.000000
  70
    32
  0
VERTEX
  8
0
  5
4D1
 10
323.897
 20
34.9848
 30
0.000000
  70
    32
  0
VERTEX
  8
0
  5
4D2
 10
323.901
 20
34.9903
 30
0.000000
  70
    32
  0
VERTEX
  8
0
  5
4D3
 10
323.904
 20
34.9959
 30
0.000000
  70
    32
  0
VERTEX
  8
0
  5
4D4
 10
323.907
 20
35.0016
 30
0.000000
  70
    32
  0
VERTEX
  8
0
  5
4D5
 10
323.911
 20
35.0073
 30
0.000000
  70
    32
  0
VERTEX
  8
0
  5
4D6
 10
323.914
 20
35.0130
 30
0.000000
  70
    32
  0
VERTEX
  8
0
  5
4D7
 10
323.917
 20
35.0188
 30
0.000000
  70
    32
  0
VERTEX
  8
0
  5
4D8
 10
323.920
 20
35.0246
 30
0.000000
  70
    32
  0
VERTEX
  8
0
  5
4D9
 10
323.923
 20
35.0304
 30
0.000000
  70
    32
  0
VERTEX
  8
0
  5
4DA
 10
323.927
 20
35.0363
 30
0.000000
  70
    32
  0
VERTEX
  8
0
  5
4DB
 10
323.930
 20
35.0422
 30
0.000000
  70
    32
  0
VERTEX
  8
0
  5
4DC
 10
323.933
 20
35.0481
 30
0.000000
  70
    32
  0
VERTEX
  8
0
  5
4DD
 10
323.936
 20
35.0541
 30
0.000000
  70
    32
  0
VERTEX
  8
0
  5
4DE
 10
323.939
 20
35.0602
 30
0.000000
  70
    32
  0
VERTEX
  8
0
  5
4DF
 10
323.942
 20
35.0662
 30
0.000000
  70
    32
  0
VERTEX
  8
0
  5
4E0
 10
323.944
 20
35.0723
 30
0.000000
  70
    32
  0
VERTEX
  8
0
  5
4E1
 10
323.947
 20
35.0785
 30
0.000000
  70
    32
  0
VERTEX
  8
0
  5
4E2
 10
323.950
 20
35.0846
 30
0.000000
  70
    32
  0
VERTEX
  8
0
  5
4E3
 10
323.953
 20
35.0908
 30
0.000000
  70
    32
  0
VERTEX
  8
0
  5
4E4
 10
323.956
 20
35.0971
 30
0.000000
  70
    32
  0
VERTEX
  8
0
  5
4E5
 10
323.958
 20
35.1034
 30
0.000000
  70
    32
  0
VERTEX
  8
0
  5
4E6
 10
323.961
 20
35.1097
 30
0.000000
  70
    32
  0
VERTEX
  8
0
  5
4E7
 10
323.964
 20
35.1160
 30
0.000000
  70
    32
  0
VERTEX
  8
0
  5
4E8
 10
323.966
 20
35.1224
 30
0.000000
  70
    32
  0
VERTEX
  8
0
  5
4E9
 10
323.969
 20
35.1288
 30
0.000000
  70
    32
  0
VERTEX
  8
0
  5
4EA
 10
323.972
 20
35.1352
 30
0.000000
  70
    32
  0
VERTEX
  8
0
  5
4EB
 10
323.974
 20
35.1417
 30
0.000000
  70
    32
  0
VERTEX
  8
0
  5
4EC
 10
323.977
 20
35.1482
 30
0.000000
  70
    32
  0
VERTEX
  8
0
  5
4ED
 10
323.979
 20
35.1547
 30
0.000000
  70
    32
  0
VERTEX
  8
0
  5
4EE
 10
323.981
 20
35.1613
 30
0.000000
  70
    32
  0
VERTEX
  8
0
  5
4EF
 10
323.984
 20
35.1678
 30
0.000000
  70
    32
  0
VERTEX
  8
0
  5
4F0
 10
323.986
 20
35.1745
 30
0.000000
  70
    32
  0
VERTEX
  8
0
  5
4F1
 10
323.988
 20
35.1811
 30
0.000000
  70
    32
  0
VERTEX
  8
0
  5
4F2
 10
323.991
 20
35.1878
 30
0.000000
  70
    32
  0
VERTEX
  8
0
  5
4F3
 10
323.993
 20
35.1945
 30
0.000000
  70
    32
  0
VERTEX
  8
0
  5
4F4
 10
323.995
 20
35.2012
 30
0.000000
  70
    32
  0
VERTEX
  8
0
  5
4F5
 10
323.997
 20
35.2079
 30
0.000000
  70
    32
  0
VERTEX
  8
0
  5
4F6
 10
323.999
 20
35.2147
 30
0.000000
  70
    32
  0
VERTEX
  8
0
  5
4F7
 10
324.001
 20
35.2215
 30
0.000000
  70
    32
  0
VERTEX
  8
0
  5
4F8
 10
324.003
 20
35.2283
 30
0.000000
  70
    32
  0
VERTEX
  8
0
  5
4F9
 10
324.005
 20
35.2352
 30
0.000000
  70
    32
  0
VERTEX
  8
0
  5
4FA
 10
324.007
 20
35.2420
 30
0.000000
  70
    32
  0
VERTEX
  8
0
  5
4FB
 10
324.009
 20
35.2489
 30
0.000000
  70
    32
  0
VERTEX
  8
0
  5
4FC
 10
324.011
 20
35.2558
 30
0.000000
  70
    32
  0
VERTEX
  8
0
  5
4FD
 10
324.013
 20
35.2628
 30
0.000000
  70
    32
  0
VERTEX
  8
0
  5
4FE
 10
324.015
 20
35.2697
 30
0.000000
  70
    32
  0
VERTEX
  8
0
  5
4FF
 10
324.017
 20
35.2767
 30
0.000000
  70
    32
  0
VERTEX
  8
0
  5
500
 10
324.018
 20
35.2837
 30
0.000000
  70
    32
  0
VERTEX
  8
0
  5
501
 10
324.020
 20
35.2908
 30
0.000000
  70
    32
  0
VERTEX
  8
0
  5
502
 10
324.022
 20
35.2978
 30
0.000000
  70
    32
  0
VERTEX
  8
0
  5
503
 10
324.023
 20
35.3049
 30
0.000000
  70
    32
  0
VERTEX
  8
0
  5
504
 10
324.025
 20
35.3119
 30
0.000000
  70
    32
  0
VERTEX
  8
0
  5
505
 10
324.026
 20
35.3191
 30
0.000000
  70
    32
  0
VERTEX
  8
0
  5
506
 10
324.028
 20
35.3262
 30
0.000000
  70
    32
  0
VERTEX
  8
0
  5
507
 10
324.029
 20
35.3333
 30
0.000000
  70
    32
  0
VERTEX
  8
0
  5
508
 10
324.031
 20
35.3405
 30
0.000000
  70
    32
  0
VERTEX
  8
0
  5
509
 10
324.032
 20
35.3476
 30
0.000000
  70
    32
  0
VERTEX
  8
0
  5
50A
 10
324.034
 20
35.3548
 30
0.000000
  70
    32
  0
VERTEX
  8
0
  5
50B
 10
324.035
 20
35.3620
 30
0.000000
  70
    32
  0
VERTEX
  8
0
  5
50C
 10
324.036
 20
35.3692
 30
0.000000
  70
    32
  0
VERTEX
  8
0
  5
50D
 10
324.037
 20
35.3765
 30
0.000000
  70
    32
  0
VERTEX
  8
0
  5
50E
 10
324.039
 20
35.3837
 30
0.000000
  70
    32
  0
VERTEX
  8
0
  5
50F
 10
324.040
 20
35.3910
 30
0.000000
  70
    32
  0
VERTEX
  8
0
  5
510
 10
324.041
 20
35.3983
 30
0.000000
  70
    32
  0
VERTEX
  8
0
  5
511
 10
324.042
 20
35.4056
 30
0.000000
  70
    32
  0
VERTEX
  8
0
  5
512
 10
324.043
 20
35.4129
 30
0.000000
  70
    32
  0
VERTEX
  8
0
  5
513
 10
324.044
 20
35.4202
 30
0.000000
  70
    32
  0
VERTEX
  8
0
  5
514
 10
324.045
 20
35.4275
 30
0.000000
  70
    32
  0
VERTEX
  8
0
  5
515
 10
324.046
 20
35.4348
 30
0.000000
  70
    32
  0
VERTEX
  8
0
  5
516
 10
324.047
 20
35.4422
 30
0.000000
  70
    32
  0
VERTEX
  8
0
  5
517
 10
324.048
 20
35.4495
 30
0.000000
  70
    32
  0
VERTEX
  8
0
  5
518
 10
324.048
 20
35.4569
 30
0.000000
  70
    32
  0
VERTEX
  8
0
  5
519
 10
324.049
 20
35.4643
 30
0.000000
  70
    32
  0
VERTEX
  8
0
  5
51A
 10
324.050
 20
35.4717
 30
0.000000
  70
    32
  0
VERTEX
  8
0
  5
51B
 10
324.051
 20
35.4791
 30
0.000000
  70
    32
  0
VERTEX
  8
0
  5
51C
 10
324.051
 20
35.4865
 30
0.000000
  70
    32
  0
VERTEX
  8
0
  5
51D
 10
324.052
 20
35.4939
 30
0.000000
  70
    32
  0
VERTEX
  8
0
  5
51E
 10
324.052
 20
35.5013
 30
0.000000
  70
    32
  0
VERTEX
  8
0
  5
51F
 10
324.053
 20
35.5087
 30
0.000000
  70
    32
  0
VERTEX
  8
0
  5
520
 10
324.053
 20
35.5161
 30
0.000000
  70
    32
  0
VERTEX
  8
0
  5
521
 10
324.054
 20
35.5236
 30
0.000000
  70
    32
  0
VERTEX
  8
0
  5
522
 10
324.054
 20
35.5310
 30
0.000000
  70
    32
  0
VERTEX
  8
0
  5
523
 10
324.055
 20
35.5385
 30
0.000000
  70
    32
  0
VERTEX
  8
0
  5
524
 10
324.055
 20
35.5459
 30
0.000000
  70
    32
  0
VERTEX
  8
0
  5
525
 10
324.055
 20
35.5534
 30
0.000000
  70
    32
  0
VERTEX
  8
0
  5
526
 10
324.055
 20
35.5608
 30
0.000000
  70
    32
  0
VERTEX
  8
0
  5
527
 10
324.056
 20
35.5683
 30
0.000000
  70
    32
  0
VERTEX
  8
0
  5
528
 10
324.056
 20
35.5757
 30
0.000000
  70
    32
  0
VERTEX
  8
0
  5
529
 10
324.056
 20
35.5832
 30
0.000000
  70
    32
  0
VERTEX
  8
0
  5
52A
 10
324.056
 20
35.5907
 30
0.000000
  70
    32
  0
VERTEX
  8
0
  5
52B
 10
324.056
 20
35.5981
 30
0.000000
  70
    32
  0
SEQEND
  8
0
  5
52C
  0
LINE
  5
18D
  8
0
  6
BYBLOCK
 62
     0
 10
322.99088
 20
35.598127
 30
0.0
 11
323.89088
 21
35.598127
 31
0.0
  0
SOLID
  5
18E
  8
0
  6
BYBLOCK
 62
     0
 10
322.99088
 20
35.623127
 30
0.0
 11
322.99088
 21
35.573127
 31
0.0
 12
322.84088
 22
35.598127
 32
0.0
 13
322.84088
 23
35.598127
 33
0.0
  0
SOLID
  5
18F
  8
0
  6
BYBLOCK
 62
     0
 10
323.89088
 20
35.623127
 30
0.0
 11
323.89088
 21
35.573127
 31
0.0
 12
324.04088
 22
35.598127
 32
0.0
 13
324.04088
 23
35.598127
 33
0.0
  0
TEXT
  8
0
  40
0.075
  5
52D
  62
0
  72
0
  71
0
 10
323.291
 20
35.5404
 30
0.000000
  1
1.20
  7
ROMANC
  0
POINT
  5
191
  8
DEFPOINTS
  6
BYBLOCK
 62
     0
 10
322.84088
 20
35.598127
 30
0.0
  0
POINT
  5
192
  8
DEFPOINTS
  6
BYBLOCK
 62
     0
 10
324.04088
 20
35.598127
 30
0.0
  0
POINT
  5
193
  8
DEFPOINTS
  6
BYBLOCK
 62
     0
 10
324.04088
 20
35.598127
 30
0.0
  0
LINE
  5
194
  8
0
  6
BYBLOCK
 62
     0
 10
323.45588
 20
36.198127
 30
0.0
 11
324.454518
 21
36.198127
 31
0.0
  0
LINE
  5
195
  8
0
  6
BYBLOCK
 62
     0
 10
323.45588
 20
34.698127
 30
0.0
 11
324.454518
 21
34.698127
 31
0.0
  0
LINE
  5
196
  8
0
  6
BYBLOCK
 62
     0
 10
324.439518
 20
36.048127
 30
0.0
 11
324.439518
 21
34.848127
 31
0.0
  0
SOLID
  5
197
  8
0
  6
BYBLOCK
 62
     0
 10
324.414518
 20
36.048127
 30
0.0
 11
324.464518
 21
36.048127
 31
0.0
 12
324.439518
 22
36.198127
 32
0.0
 13
324.439518
 23
36.198127
 33
0.0
  0
SOLID
  5
198
  8
0
  6
BYBLOCK
 62
     0
 10
324.414518
 20
34.848127
 30
0.0
 11
324.464518
 21
34.848127
 31
0.0
 12
324.439518
 22
34.698127
 32
0.0
 13
324.439518
 23
34.698127
 33
0.0
  0
TEXT
  8
0
  40
0.075
  5
52E
  62
0
  72
0
  71
0
 10
324.215
 20
35.3154
 30
0.000000
  1
1.50
  7
ROMANC
  0
POINT
  5
19A
  8
DEFPOINTS
  6
BYBLOCK
 62
     0
 10
323.44088
 20
36.198127
 30
0.0
  0
POINT
  5
19B
  8
DEFPOINTS
  6
BYBLOCK
 62
     0
 10
323.44088
 20
34.698127
 30
0.0
  0
POINT
  5
19C
  8
DEFPOINTS
  6
BYBLOCK
 62
     0
 10
324.439518
 20
34.698127
 30
0.0
  0
ARC
  5
19D
  8
0
 10
323.44088
 20
35.598127
 30
0.0
 40
0.615
 50
359.999988
 51
180.000012
  0
ARC
  5
19E
  8
0
 10
323.44088
 20
35.598127
 30
0.0
 40
0.6075
 50
359.999991
 51
180.000009
  0
ARC
  5
19F
  8
0
 10
323.44088
 20
35.598127
 30
0.0
 40
0.6
 50
0.0
 51
180.0
  0
ENDSEC
  0
EOF
