  0
SECTION
  2
HEADER
  9
$ACADVER
  1
AC1009
  9
$INSBASE
 10
0.0
 20
0.0
 30
0.0
  9
$EXTMIN
 10
281.396
 20
29.897
 30
-98.2965
  9
$EXTMAX
 10
291.896
 20
44.747
 30
65.541
  9
$LIMMIN
 10
280.396
 20
28.897
  9
$LIMMAX
 10
292.896
 20
43.747
  9
$ORTHOMODE
 70
     1
  9
$REGENMODE
 70
     1
  9
$FILLMODE
 70
     1
  9
$QTEXTMODE
 70
     0
  9
$MIRRTEXT
 70
     1
  9
$DRAGMODE
 70
     2
  9
$LTSCALE
 40
1.0
  9
$OSMODE
 70
     0
  9
$ATTMODE
 70
     1
  9
$TEXTSIZE
 40
0.2
  9
$TRACEWID
 40
0.05
  9
$TEXTSTYLE
  7
STANDARD
  9
$CLAYER
  8
0
  9
$CELTYPE
  6
BYLAYER
  9
$CECOLOR
 62
   256
  9
$DIMSCALE
 40
1.0
  9
$DIMASZ
 40
0.18
  9
$DIMEXO
 40
0.0625
  9
$DIMDLI
 40
0.38
  9
$DIMRND
 40
0.0
  9
$DIMDLE
 40
0.0
  9
$DIMEXE
 40
0.18
  9
$DIMTP
 40
0.0
  9
$DIMTM
 40
0.0
  9
$DIMTXT
 40
0.18
  9
$DIMCEN
 40
0.09
  9
$DIMTSZ
 40
0.0
  9
$DIMTOL
 70
     0
  9
$DIMLIM
 70
     0
  9
$DIMTIH
 70
     1
  9
$DIMTOH
 70
     1
  9
$DIMSE1
 70
     0
  9
$DIMSE2
 70
     0
  9
$DIMTAD
 70
     0
  9
$DIMZIN
 70
     0
  9
$DIMBLK
  1

  9
$DIMASO
 70
     1
  9
$DIMSHO
 70
     1
  9
$DIMPOST
  1

  9
$DIMAPOST
  1

  9
$DIMALT
 70
     0
  9
$DIMALTD
 70
     2
  9
$DIMALTF
 40
25.4
  9
$DIMLFAC
 40
1.0
  9
$DIMTOFL
 70
     0
  9
$DIMTVP
 40
0.0
  9
$DIMTIX
 70
     0
  9
$DIMSOXD
 70
     0
  9
$DIMSAH
 70
     0
  9
$DIMBLK1
  1

  9
$DIMBLK2
  1

  9
$DIMSTYLE
  2
STANDARD
  9
$DIMCLRD
 70
     0
  9
$DIMCLRE
 70
     0
  9
$DIMCLRT
 70
     0
  9
$DIMTFAC
 40
1.0
  9
$DIMGAP
 40
0.09
  9
$LUNITS
 70
     2
  9
$LUPREC
 70
     2
  9
$SKETCHINC
 40
0.1
  9
$FILLETRAD
 40
0.0
  9
$AUNITS
 70
     0
  9
$AUPREC
 70
     0
  9
$MENU
  1
acad
  9
$ELEVATION
 40
0.0
  9
$PELEVATION
 40
0.0
  9
$THICKNESS
 40
0.0
  9
$LIMCHECK
 70
     0
  9
$BLIPMODE
 70
     1
  9
$CHAMFERA
 40
0.0
  9
$CHAMFERB
 40
0.0
  9
$SKPOLY
 70
     0
  9
$TDCREATE
 40
2448315.373408
  9
$TDUPDATE
 40
2448315.373408
  9
$TDINDWG
 40
0.0
  9
$TDUSRTIMER
 40
0.0
  9
$USRTIMER
 70
     1
  9
$ANGBASE
 50
0.0
  9
$ANGDIR
 70
     0
  9
$PDMODE
 70
     0
  9
$PDSIZE
 40
0.0
  9
$PLINEWID
 40
0.0
  9
$COORDS
 70
     0
  9
$SPLFRAME
 70
     0
  9
$SPLINETYPE
 70
     6
  9
$SPLINESEGS
 70
     8
  9
$ATTDIA
 70
     0
  9
$ATTREQ
 70
     1
  9
$HANDLING
 70
     1
  9
$HANDSEED
  5
72
  9
$SURFTAB1
 70
     6
  9
$SURFTAB2
 70
     6
  9
$SURFTYPE
 70
     6
  9
$SURFU
 70
     6
  9
$SURFV
 70
     6
  9
$UCSNAME
  2

  9
$UCSORG
 10
0.0
 20
0.0
 30
0.0
  9
$UCSXDIR
 10
1.0
 20
0.0
 30
0.0
  9
$UCSYDIR
 10
0.0
 20
1.0
 30
0.0
  9
$PUCSNAME
  2

  9
$PUCSORG
 10
0.0
 20
0.0
 30
0.0
  9
$PUCSXDIR
 10
1.0
 20
0.0
 30
0.0
  9
$PUCSYDIR
 10
0.0
 20
1.0
 30
0.0
  9
$USERI1
 70
     0
  9
$USERI2
 70
     0
  9
$USERI3
 70
     0
  9
$USERI4
 70
     0
  9
$USERI5
 70
     0
  9
$USERR1
 40
0.0
  9
$USERR2
 40
0.0
  9
$USERR3
 40
0.0
  9
$USERR4
 40
0.0
  9
$USERR5
 40
0.0
  9
$WORLDVIEW
 70
     1
  9
$SHADEDGE
 70
     3
  9
$SHADEDIF
 70
    70
  9
$TILEMODE
 70
     1
  9
$MAXACTVP
 70
    16
  9
$PLIMCHECK
 70
     0
  9
$PEXTMIN
 10
1.000000E+020
 20
1.000000E+020
 30
1.000000E+020
  9
$PEXTMAX
 10
-1.000000E+020
 20
-1.000000E+020
 30
-1.000000E+020
  9
$PLIMMIN
 10
0.0
 20
0.0
  9
$PLIMMAX
 10
12.0
 20
9.0
  9
$UNITMODE
 70
     0
  9
$VISRETAIN
 70
     0
  9
$PLINEGEN
 70
     0
  9
$PSLTSCALE
 70
     1
  0
ENDSEC
  0
SECTION
  2
TABLES
  0
TABLE
  2
VPORT
 70
     2
  0
VPORT
  2
*ACTIVE
 70
     0
 10
0.0
 20
0.0
 11
1.0
 21
1.0
 12
286.646
 22
37.322029
 13
0.0
 23
0.0
 14
1.0
 24
1.0
 15
0.0
 25
0.0
 16
0.0
 26
0.0
 36
1.0
 17
0.0
 27
0.0
 37
0.0
 40
14.984102
 41
1.693114
 42
50.0
 43
0.0
 44
0.0
 50
0.0
 51
0.0
 71
     0
 72
   100
 73
     1
 74
     1
 75
     0
 76
     0
 77
     0
 78
     0
  0
ENDTAB
  0
TABLE
  2
LTYPE
 70
     1
  0
LTYPE
  2
CONTINUOUS
 70
     0
  3
Solid line
 72
    65
 73
     0
 40
0.0
  0
ENDTAB
  0
TABLE
  2
LAYER
 70
     7
  0
LAYER
  2
0
 70
     0
 62
     7
  6
CONTINUOUS
  0
LAYER
  2
1
 70
     0
 62
     7
  6
CONTINUOUS
  0
LAYER
  2
7
 70
     0
 62
     7
  6
CONTINUOUS
  0
LAYER
  2
8
 70
     0
 62
     7
  6
CONTINUOUS
  0
LAYER
  2
9
 70
     0
 62
     7
  6
CONTINUOUS
  0
LAYER
  2
22
 70
     0
 62
     7
  6
CONTINUOUS
  0
LAYER
  2
25
 70
     0
 62
     7
  6
CONTINUOUS
  0
ENDTAB
  0
TABLE
  2
STYLE
 70
     2
  0
STYLE
  2
STANDARD
 70
     0
 40
0.0
 41
1.0
 50
0.0
 71
     0
 42
0.2
  3
txt
  4

  0
STYLE
  2
ROMANC
 70
     0
 40
0.0
 41
1.0
 50
0.0
 71
     0
 42
0.2
  3
ROMANC
  4

  0
ENDTAB
  0
TABLE
  2
VIEW
 70
     0
  0
ENDTAB
  0
TABLE
  2
UCS
 70
     0
  0
ENDTAB
  0
TABLE
  2
APPID
 70
     1
  0
APPID
  2
ACAD
 70
     0
  0
ENDTAB
  0
TABLE
  2
DIMSTYLE
 70
     1
  0
DIMSTYLE
  2
STANDARD
 70
     0
  3

  4

  5

  6

  7

 40
1.0
 41
0.18
 42
0.0625
 43
0.38
 44
0.18
 45
0.0
 46
0.0
 47
0.0
 48
0.0
140
0.18
141
0.09
142
0.0
143
25.4
144
1.0
145
0.0
146
1.0
147
0.09
 71
     0
 72
     0
 73
     1
 74
     1
 75
     0
 76
     0
 77
     0
 78
     0
170
     0
171
     2
172
     0
173
     0
174
     0
175
     0
176
     0
177
     0
178
     0
  0
ENDTAB
  0
ENDSEC
  0
SECTION
  2
BLOCKS
  0
BLOCK
  8
0
  2
$MODEL_SPACE
 70
     0
 10
0.0
 20
0.0
 30
0.0
  3
$MODEL_SPACE
  1

  0
ENDBLK
  5
1A
  8
0
  0
BLOCK
 67
     1
  8
0
  2
$PAPER_SPACE
 70
     0
 10
0.0
 20
0.0
 30
0.0
  3
$PAPER_SPACE
  1

  0
ENDBLK
  5
17
 67
     1
  8
0
  0
ENDSEC
  0
SECTION
  2
ENTITIES
  0
TEXT
  5
27
  8
0
  6
CONTINUOUS
 10
287.388995
 20
41.338
 30
0.0
 40
0.1
  1
2
  7
ROMANC
  0
TEXT
  5
28
  8
0
  6
CONTINUOUS
 10
283.926
 20
41.768
 30
0.0
 40
0.3
  1
ESCALA  1:50
  7
ROMANC
  0
TEXT
  5
2F
  8
0
  6
CONTINUOUS
 10
283.945
 20
41.099
 30
0.0
 40
0.3
  1
S = 1402 dm
  7
ROMANC
  0
TEXT
  5
30
  8
0
  6
CONTINUOUS
 10
283.922
 20
40.529
 30
0.0
 40
0.3
  1
P = 156 dm
  7
ROMANC
  0
TEXT
  5
31
  8
0
  6
CONTINUOUS
 10
283.926
 20
42.381
 30
0.0
 40
0.3
  1
TIPUS   NT1402
  7
ROMANC
  0
TEXT
  5
3C
  8
1
  6
CONTINUOUS
 10
286.651
 20
33.100863
 30
0.0
 40
0.075
  1
5.00
  7
ROMANC
  0
LINE
  5
3D
  8
1
  6
CONTINUOUS
 10
286.613
 20
33.137863
 30
0.0
 11
284.288
 21
33.137863
 31
0.0
  0
LINE
  5
3E
  8
1
  6
CONTINUOUS
 10
286.962
 20
33.137863
 30
0.0
 11
289.288
 21
33.137863
 31
0.0
  0
LINE
  5
3F
  8
1
  6
CONTINUOUS
 10
284.25
 20
33.118863
 30
0.0
 11
284.326
 21
33.156863
 31
0.0
  0
LINE
  5
40
  8
1
  6
CONTINUOUS
 10
289.326
 20
33.156863
 30
0.0
 11
289.25
 21
33.118863
 31
0.0
  0
LINE
  5
41
  8
1
  6
CONTINUOUS
 10
284.288
 20
34.277863
 30
0.0
 11
284.288
 21
33.099863
 31
0.0
  0
LINE
  5
42
  8
1
  6
CONTINUOUS
 10
289.288
 20
34.277863
 30
0.0
 11
289.288
 21
33.099863
 31
0.0
  0
TEXT
  5
45
  8
1
  6
CONTINUOUS
 10
283.336
 20
35.593863
 30
0.0
 40
0.075
  1
2.83
 50
90.0
  7
ROMANC
  0
LINE
  5
46
  8
1
  6
CONTINUOUS
 10
283.298
 20
35.555863
 30
0.0
 11
283.298
 21
34.315863
 31
0.0
  0
LINE
  5
47
  8
1
  6
CONTINUOUS
 10
283.298
 20
35.904863
 30
0.0
 11
283.298
 21
37.145863
 31
0.0
  0
LINE
  5
48
  8
1
  6
CONTINUOUS
 10
283.317
 20
34.278863
 30
0.0
 11
283.279
 21
34.352863
 31
0.0
  0
LINE
  5
49
  8
1
  6
CONTINUOUS
 10
283.279
 20
37.182863
 30
0.0
 11
283.317
 21
37.108863
 31
0.0
  0
LINE
  5
4A
  8
1
  6
CONTINUOUS
 10
284.25
 20
34.315863
 30
0.0
 11
283.26
 21
34.315863
 31
0.0
  0
LINE
  5
4B
  8
1
  6
CONTINUOUS
 10
284.25
 20
37.145863
 30
0.0
 11
283.26
 21
37.145863
 31
0.0
  0
TEXT
  5
4C
  8
1
  6
CONTINUOUS
 10
290.242
 20
35.594863
 30
0.0
 40
0.075
  1
2.78
 50
90.0
  7
ROMANC
  0
LINE
  5
4D
  8
1
  6
CONTINUOUS
 10
290.205
 20
35.905863
 30
0.0
 11
290.205
 21
37.120863
 31
0.0
  0
LINE
  5
4E
  8
1
  6
CONTINUOUS
 10
290.205
 20
35.556863
 30
0.0
 11
290.205
 21
34.340863
 31
0.0
  0
LINE
  5
4F
  8
1
  6
CONTINUOUS
 10
290.186
 20
37.157863
 30
0.0
 11
290.224
 21
37.083863
 31
0.0
  0
LINE
  5
50
  8
1
  6
CONTINUOUS
 10
290.224
 20
34.303863
 30
0.0
 11
290.186
 21
34.377863
 31
0.0
  0
LINE
  5
51
  8
1
  6
CONTINUOUS
 10
289.326
 20
37.120863
 30
0.0
 11
290.243
 21
37.120863
 31
0.0
  0
LINE
  5
52
  8
1
  6
CONTINUOUS
 10
289.326
 20
34.340863
 30
0.0
 11
290.243
 21
34.340863
 31
0.0
  0
LINE
  5
61
  8
1
  6
CONTINUOUS
 10
289.303
 20
34.325937
 30
0.0
 11
289.303
 21
37.135788
 31
0.0
  0
LINE
  5
62
  8
1
  6
CONTINUOUS
 10
289.303
 20
37.135788
 30
0.0
 11
284.273
 21
37.160938
 31
0.0
  0
LINE
  5
63
  8
1
  6
CONTINUOUS
 10
284.273
 20
37.160938
 30
0.0
 11
284.273
 21
34.300787
 31
0.0
  0
LINE
  5
64
  8
1
  6
CONTINUOUS
 10
284.273
 20
34.300787
 30
0.0
 11
289.303
 21
34.325937
 31
0.0
  0
LINE
  5
65
  8
1
  6
CONTINUOUS
 10
289.2955
 20
34.3334
 30
0.0
 11
289.2955
 21
37.128325
 31
0.0
  0
LINE
  5
66
  8
1
  6
CONTINUOUS
 10
289.2955
 20
37.128325
 30
0.0
 11
284.2805
 21
37.1534
 31
0.0
  0
LINE
  5
67
  8
1
  6
CONTINUOUS
 10
284.2805
 20
37.1534
 30
0.0
 11
284.2805
 21
34.308325
 31
0.0
  0
LINE
  5
68
  8
1
  6
CONTINUOUS
 10
284.2805
 20
34.308325
 30
0.0
 11
289.2955
 21
34.3334
 31
0.0
  0
LINE
  5
69
  8
1
  6
CONTINUOUS
 10
289.288
 20
34.340863
 30
0.0
 11
289.288
 21
37.120863
 31
0.0
  0
LINE
  5
6A
  8
1
  6
CONTINUOUS
 10
289.288
 20
37.120863
 30
0.0
 11
284.288
 21
37.145863
 31
0.0
  0
LINE
  5
6B
  8
1
  6
CONTINUOUS
 10
284.288
 20
37.145863
 30
0.0
 11
284.288
 21
34.315863
 31
0.0
  0
LINE
  5
6C
  8
1
  6
CONTINUOUS
 10
284.288
 20
34.315863
 30
0.0
 11
289.288
 21
34.340863
 31
0.0
  0
LINE
  5
6D
  8
0
  6
CONTINUOUS
 10
281.396
 20
44.747
 30
0.0
 11
291.896
 21
44.747
 31
0.0
  0
LINE
  5
6E
  8
0
  6
CONTINUOUS
 10
291.896
 20
44.747
 30
0.0
 11
291.896
 21
29.897
 31
0.0
  0
LINE
  5
6F
  8
0
  6
CONTINUOUS
 10
291.896
 20
29.897
 30
0.0
 11
281.396
 21
29.897
 31
0.0
  0
LINE
  5
70
  8
0
  6
CONTINUOUS
 10
281.396
 20
29.897
 30
0.0
 11
281.396
 21
44.747
 31
0.0
  0
ENDSEC
  0
EOF
