  0
SECTION
  2
HEADER
  9
$ACADVER
  1
AC1009
  9
$INSBASE
 10
171.441184
 20
216.151256
 30
0.0
  9
$EXTMIN
 10
171.441184
 20
216.151256
 30
0.0
  9
$EXTMAX
 10
181.941184
 20
231.001256
 30
0.0
  9
$LIMMIN
 10
0.0
 20
0.0
  9
$LIMMAX
 10
410.0
 20
287.0
  9
$ORTHOMODE
 70
     0
  9
$REGENMODE
 70
     1
  9
$FILLMODE
 70
     1
  9
$QTEXTMODE
 70
     0
  9
$MIRRTEXT
 70
     1
  9
$DRAGMODE
 70
     2
  9
$LTSCALE
 40
25.0
  9
$OSMODE
 70
    32
  9
$ATTMODE
 70
     1
  9
$TEXTSIZE
 40
0.1
  9
$TRACEWID
 40
0.3
  9
$TEXTSTYLE
  7
STANDARD
  9
$CLAYER
  8
0
  9
$CELTYPE
  6
BYLAYER
  9
$CECOLOR
 62
   256
  9
$DIMSCALE
 40
1.0
  9
$DIMASZ
 40
3.5
  9
$DIMEXO
 40
0.1
  9
$DIMDLI
 40
7.0
  9
$DIMRND
 40
0.0
  9
$DIMDLE
 40
0.0
  9
$DIMEXE
 40
1.8
  9
$DIMTP
 40
0.0
  9
$DIMTM
 40
0.0
  9
$DIMTXT
 40
3.5
  9
$DIMCEN
 40
1.5
  9
$DIMTSZ
 40
0.0
  9
$DIMTOL
 70
     0
  9
$DIMLIM
 70
     0
  9
$DIMTIH
 70
     0
  9
$DIMTOH
 70
     0
  9
$DIMSE1
 70
     0
  9
$DIMSE2
 70
     0
  9
$DIMTAD
 70
     0
  9
$DIMZIN
 70
     0
  9
$DIMBLK
  1

  9
$DIMASO
 70
     1
  9
$DIMSHO
 70
     0
  9
$DIMPOST
  1

  9
$DIMAPOST
  1

  9
$DIMALT
 70
     0
  9
$DIMALTD
 70
     2
  9
$DIMALTF
 40
25.4
  9
$DIMLFAC
 40
1.0
  9
$DIMTOFL
 70
     0
  9
$DIMTVP
 40
0.0
  9
$DIMTIX
 70
     0
  9
$DIMSOXD
 70
     0
  9
$DIMSAH
 70
     0
  9
$DIMBLK1
  1

  9
$DIMBLK2
  1

  9
$DIMSTYLE
  2
*UNNAMED
  9
$DIMCLRD
 70
     0
  9
$DIMCLRE
 70
     0
  9
$DIMCLRT
 70
     0
  9
$DIMTFAC
 40
1.0
  9
$DIMGAP
 40
0.09
  9
$LUNITS
 70
     2
  9
$LUPREC
 70
     2
  9
$SKETCHINC
 40
1.0
  9
$FILLETRAD
 40
0.0
  9
$AUNITS
 70
     0
  9
$AUPREC
 70
     0
  9
$MENU
  1
acad
  9
$ELEVATION
 40
0.0
  9
$PELEVATION
 40
0.0
  9
$THICKNESS
 40
0.0
  9
$LIMCHECK
 70
     0
  9
$BLIPMODE
 70
     0
  9
$CHAMFERA
 40
0.0
  9
$CHAMFERB
 40
0.0
  9
$SKPOLY
 70
     0
  9
$TDCREATE
 40
2449960.606029050
  9
$TDUPDATE
 40
2450723.549807291
  9
$TDINDWG
 40
0.0024035880
  9
$TDUSRTIMER
 40
0.0024035880
  9
$USRTIMER
 70
     1
  9
$ANGBASE
 50
0.0
  9
$ANGDIR
 70
     0
  9
$PDMODE
 70
     0
  9
$PDSIZE
 40
0.0
  9
$PLINEWID
 40
0.0
  9
$COORDS
 70
     2
  9
$SPLFRAME
 70
     0
  9
$SPLINETYPE
 70
     6
  9
$SPLINESEGS
 70
     8
  9
$ATTDIA
 70
     0
  9
$ATTREQ
 70
     1
  9
$HANDLING
 70
     0
  9
$HANDSEED
  5
0
  9
$SURFTAB1
 70
     6
  9
$SURFTAB2
 70
     6
  9
$SURFTYPE
 70
     6
  9
$SURFU
 70
     6
  9
$SURFV
 70
     6
  9
$UCSNAME
  2

  9
$UCSORG
 10
0.0
 20
0.0
 30
0.0
  9
$UCSXDIR
 10
1.0
 20
0.0
 30
0.0
  9
$UCSYDIR
 10
0.0
 20
1.0
 30
0.0
  9
$PUCSNAME
  2

  9
$PUCSORG
 10
0.0
 20
0.0
 30
0.0
  9
$PUCSXDIR
 10
1.0
 20
0.0
 30
0.0
  9
$PUCSYDIR
 10
0.0
 20
1.0
 30
0.0
  9
$USERI1
 70
     0
  9
$USERI2
 70
     0
  9
$USERI3
 70
     0
  9
$USERI4
 70
     0
  9
$USERI5
 70
     0
  9
$USERR1
 40
0.0
  9
$USERR2
 40
0.0
  9
$USERR3
 40
0.0
  9
$USERR4
 40
0.0
  9
$USERR5
 40
0.0
  9
$WORLDVIEW
 70
     1
  9
$SHADEDGE
 70
     3
  9
$SHADEDIF
 70
    70
  9
$TILEMODE
 70
     1
  9
$MAXACTVP
 70
    16
  9
$PINSBASE
 10
0.0
 20
0.0
 30
0.0
  9
$PLIMCHECK
 70
     0
  9
$PEXTMIN
 10
1.000000E+20
 20
1.000000E+20
 30
1.000000E+20
  9
$PEXTMAX
 10
-1.000000E+20
 20
-1.000000E+20
 30
-1.000000E+20
  9
$PLIMMIN
 10
0.0
 20
0.0
  9
$PLIMMAX
 10
12.0
 20
9.0
  9
$UNITMODE
 70
     0
  9
$VISRETAIN
 70
     0
  9
$PLINEGEN
 70
     0
  9
$PSLTSCALE
 70
     0
  9
$TREEDEPTH
 70
  3020
  9
$DWGCODEPAGE
  3
iso8859-1
  0
ENDSEC
  0
SECTION
  2
TABLES
  0
TABLE
  2
VPORT
 70
     1
  0
VPORT
  2
*ACTIVE
 70
     0
 10
0.0
 20
0.0
 11
1.0
 21
1.0
 12
183.403035
 22
223.576256
 13
0.0
 23
0.0
 14
1.0
 24
1.0
 15
10.0
 25
10.0
 16
0.0
 26
0.0
 36
1.0
 17
0.0
 27
0.0
 37
0.0
 40
14.85
 41
1.611024
 42
50.0
 43
0.0
 44
0.0
 50
0.0
 51
0.0
 71
     0
 72
   100
 73
     1
 74
     0
 75
     0
 76
     0
 77
     0
 78
     0
  0
ENDTAB
  0
TABLE
  2
LTYPE
 70
     1
  0
LTYPE
  2
CONTINUOUS
 70
    64
  3
Solid Line
 72
    65
 73
     0
 40
0.0
  0
ENDTAB
  0
TABLE
  2
LAYER
 70
     5
  0
LAYER
  2
0
 70
    64
 62
     7
  6
CONTINUOUS
  0
LAYER
  2
SECCIO
 70
    64
 62
     7
  6
CONTINUOUS
  0
LAYER
  2
MESURA
 70
    64
 62
     7
  6
CONTINUOUS
  0
LAYER
  2
TEXTEP
 70
    64
 62
     7
  6
CONTINUOUS
  0
LAYER
  2
TEXTEG
 70
    64
 62
     7
  6
CONTINUOUS
  0
ENDTAB
  0
TABLE
  2
STYLE
 70
     2
  0
STYLE
  2
STANDARD
 70
    64
 40
0.0
 41
1.0
 50
0.0
 71
     0
 42
0.1
  3
txt
  4

  0
STYLE
  2
ROMANC
 70
    64
 40
0.0
 41
1.0
 50
0.0
 71
     0
 42
0.1
  3
romanc
  4

  0
ENDTAB
  0
TABLE
  2
VIEW
 70
     0
  0
ENDTAB
  0
TABLE
  2
UCS
 70
     0
  0
ENDTAB
  0
TABLE
  2
APPID
 70
     1
  0
APPID
  2
ACAD
 70
    64
  0
ENDTAB
  0
TABLE
  2
DIMSTYLE
 70
     0
  0
ENDTAB
  0
ENDSEC
  0
SECTION
  2
BLOCKS
  0
ENDSEC
  0
SECTION
  2
ENTITIES
  0
LINE
  8
0
 10
171.441184
 20
216.151256
 30
0.0
 11
181.941184
 21
216.151256
 31
0.0
  0
LINE
  8
SECCIO
 10
173.417423
 20
218.546969
 30
0.0
 11
179.601524
 21
218.546969
 31
0.0
  0
LINE
  8
0
 10
171.441184
 20
231.001256
 30
0.0
 11
181.941184
 21
231.001256
 31
0.0
  0
TEXT
  8
0
 10
173.416023
 20
227.1549
 30
0.0
 40
0.3
  1
P = 162.7 dm
  7
ROMANC
  0
LINE
  8
MESURA
 10
173.489249
 20
219.046969
 30
0.0
 11
173.489249
 21
218.46582
 31
0.0
  0
LINE
  8
MESURA
 10
173.442886
 20
218.51194
 30
0.0
 11
173.526276
 21
218.57255
 31
0.0
  0
TEXT
  8
TEXTEP
 10
176.005688
 20
218.365651
 30
0.0
 40
0.1
  1
6.0
  0
TEXT
  8
0
 10
173.418851
 20
227.828398
 30
0.0
 40
0.3
  1
S = 1395 dm
  7
ROMANC
  0
TEXT
  8
0
 10
176.926682
 20
228.134314
 30
0.0
 40
0.1
  1
2
  7
ROMANC
  0
TEXT
  8
MESURA
 10
180.050559
 20
220.00207
 30
0.0
 40
0.1
  1
2.05
  0
LINE
  8
SECCIO
 10
178.891934
 20
221.59915
 30
0.0
 11
179.565665
 21
221.59915
 31
0.0
  0
LINE
  8
SECCIO
 10
179.989249
 20
221.471708
 30
0.0
 11
179.989249
 21
218.952127
 31
0.0
  0
LINE
  8
MESURA
 10
179.445708
 20
221.564273
 30
0.0
 11
179.529098
 21
221.624883
 31
0.0
  0
LINE
  8
MESURA
 10
179.948496
 20
221.36521
 30
0.0
 11
180.031886
 21
221.42582
 31
0.0
  0
LINE
  8
MESURA
 10
179.946506
 20
221.06616
 30
0.0
 11
180.029897
 21
221.12677
 31
0.0
  0
LINE
  8
MESURA
 10
178.943967
 20
221.567816
 30
0.0
 11
179.027357
 21
221.628426
 31
0.0
  0
LINE
  8
MESURA
 10
179.489249
 20
219.046969
 30
0.0
 11
180.112989
 21
219.046969
 31
0.0
  0
LINE
  8
MESURA
 10
179.489249
 20
221.096969
 30
0.0
 11
180.072867
 21
221.096969
 31
0.0
  0
LINE
  8
MESURA
 10
178.989249
 20
221.396969
 30
0.0
 11
180.072867
 21
221.396969
 31
0.0
  0
LINE
  8
MESURA
 10
179.489249
 20
221.096969
 30
0.0
 11
179.489249
 21
221.681281
 31
0.0
  0
LINE
  8
MESURA
 10
178.989249
 20
221.396969
 30
0.0
 11
178.989249
 21
221.681281
 31
0.0
  0
LINE
  8
MESURA
 10
179.953568
 20
219.019307
 30
0.0
 11
180.036958
 21
219.079917
 31
0.0
  0
TEXT
  8
TEXTEP
 10
180.038077
 20
221.166566
 30
0.0
 40
0.1
  1
0.3
  0
TEXT
  8
TEXTEP
 10
179.110352
 20
221.634718
 30
0.0
 40
0.1
  1
0.5
  0
LINE
  8
MESURA
 10
179.439425
 20
218.513525
 30
0.0
 11
179.522815
 21
218.574135
 31
0.0
  0
LINE
  8
MESURA
 10
179.489249
 20
219.046969
 30
0.0
 11
179.489249
 21
218.449021
 31
0.0
  0
LINE
  8
0
 10
181.941184
 20
231.001256
 30
0.0
 11
181.941184
 21
216.151256
 31
0.0
  0
LINE
  8
0
 10
171.441184
 20
231.001256
 30
0.0
 11
171.441184
 21
216.151256
 31
0.0
  0
TEXT
  8
MESURA
 10
180.550559
 20
220.152836
 30
0.0
 40
0.1
  1
2.35
  0
LINE
  8
SECCIO
 10
180.489249
 20
221.471708
 30
0.0
 11
180.489249
 21
218.952127
 31
0.0
  0
LINE
  8
MESURA
 10
180.448496
 20
221.36521
 30
0.0
 11
180.531886
 21
221.42582
 31
0.0
  0
LINE
  8
MESURA
 10
179.989249
 20
219.046969
 30
0.0
 11
180.612989
 21
219.046969
 31
0.0
  0
LINE
  8
MESURA
 10
179.489249
 20
221.396969
 30
0.0
 11
180.572867
 21
221.396969
 31
0.0
  0
LINE
  8
MESURA
 10
180.453568
 20
219.019307
 30
0.0
 11
180.536958
 21
219.079917
 31
0.0
  0
LINE
  8
SECCIO
 10
179.479249
 20
219.056969
 30
0.0
 11
173.499249
 21
219.056969
 31
0.0
  0
LINE
  8
SECCIO
 10
173.499249
 20
219.056969
 30
0.0
 11
173.499249
 21
221.091307
 31
0.0
  0
LINE
  8
SECCIO
 10
173.499249
 20
221.091307
 30
0.0
 11
173.992019
 21
221.386969
 31
0.0
  0
LINE
  8
SECCIO
 10
173.992019
 20
221.386969
 30
0.0
 11
178.986479
 21
221.386969
 31
0.0
  0
LINE
  8
SECCIO
 10
178.986479
 20
221.386969
 30
0.0
 11
179.479249
 21
221.091307
 31
0.0
  0
LINE
  8
SECCIO
 10
179.479249
 20
221.091307
 30
0.0
 11
179.479249
 21
219.056969
 31
0.0
  0
LINE
  8
SECCIO
 10
179.499249
 20
219.036969
 30
0.0
 11
173.479249
 21
219.036969
 31
0.0
  0
LINE
  8
SECCIO
 10
173.479249
 20
219.036969
 30
0.0
 11
173.479249
 21
221.10263
 31
0.0
  0
LINE
  8
SECCIO
 10
173.479249
 20
221.10263
 30
0.0
 11
173.986479
 21
221.406969
 31
0.0
  0
LINE
  8
SECCIO
 10
173.986479
 20
221.406969
 30
0.0
 11
178.992019
 21
221.406969
 31
0.0
  0
LINE
  8
SECCIO
 10
178.992019
 20
221.406969
 30
0.0
 11
179.499249
 21
221.10263
 31
0.0
  0
LINE
  8
SECCIO
 10
179.499249
 20
221.10263
 30
0.0
 11
179.499249
 21
219.036969
 31
0.0
  0
LINE
  8
SECCIO
 10
179.489249
 20
219.046969
 30
0.0
 11
173.489249
 21
219.046969
 31
0.0
  0
LINE
  8
SECCIO
 10
173.489249
 20
219.046969
 30
0.0
 11
173.489249
 21
221.096969
 31
0.0
  0
LINE
  8
SECCIO
 10
173.489249
 20
221.096969
 30
0.0
 11
173.989249
 21
221.396969
 31
0.0
  0
LINE
  8
SECCIO
 10
173.989249
 20
221.396969
 30
0.0
 11
178.989249
 21
221.396969
 31
0.0
  0
LINE
  8
SECCIO
 10
178.989249
 20
221.396969
 30
0.0
 11
179.489249
 21
221.096969
 31
0.0
  0
LINE
  8
SECCIO
 10
179.489249
 20
221.096969
 30
0.0
 11
179.489249
 21
219.046969
 31
0.0
  0
TEXT
  8
0
 10
173.392659
 20
228.625891
 30
0.0
 40
0.3
  1
ESCALA   1:50
  7
ROMANC
  0
TEXT
  8
0
 10
173.395487
 20
229.299389
 30
0.0
 40
0.3
  1
TIPUS    NT1395
  7
ROMANC
  0
ENDSEC
  0
EOF
