  0
SECTION
  2
HEADER
  9
$ACADVER
  1
AC1009
  9
$INSBASE
 10
0.0
 20
0.0
 30
0.0
  9
$EXTMIN
 10
281.396000
 20
29.897000
 30
-2147483.648000
  9
$EXTMAX
 10
291.896000
 20
44.747000
 30
0.000000
  9
$LIMMIN
 10
280.396000
 20
28.897000
  9
$LIMMAX
 10
292.896000
 20
43.747000
  9
$ORTHOMODE
 70
     0
  9
$REGENMODE
 70
     1
  9
$FILLMODE
 70
     1
  9
$QTEXTMODE
 70
     0
  9
$MIRRTEXT
 70
     1
  9
$DRAGMODE
 70
     2
  9
$LTSCALE
 40
1.0
  9
$OSMODE
 70
     0
  9
$ATTMODE
 70
     1
  9
$TEXTSIZE
 40
0.2
  9
$TRACEWID
 40
0.05
  9
$TEXTSTYLE
  7
STANDARD
  9
$CLAYER
  8
0
  9
$CELTYPE
  6
BYLAYER
  9
$CECOLOR
 62
   256
  9
$DIMSCALE
 40
1.0
  9
$DIMASZ
 40
0.18
  9
$DIMEXO
 40
0.0625
  9
$DIMDLI
 40
0.38
  9
$DIMRND
 40
0.0
  9
$DIMDLE
 40
0.0
  9
$DIMEXE
 40
0.18
  9
$DIMTP
 40
0.0
  9
$DIMTM
 40
0.0
  9
$DIMTXT
 40
0.18
  9
$DIMCEN
 40
0.09
  9
$DIMTSZ
 40
0.0
  9
$DIMTOL
 70
     0
  9
$DIMLIM
 70
     0
  9
$DIMTIH
 70
     1
  9
$DIMTOH
 70
     1
  9
$DIMSE1
 70
     0
  9
$DIMSE2
 70
     0
  9
$DIMTAD
 70
     0
  9
$DIMZIN
 70
     0
  9
$DIMBLK
  1

  9
$DIMASO
 70
     1
  9
$DIMSHO
 70
     1
  9
$DIMPOST
  1

  9
$DIMAPOST
  1

  9
$DIMALT
 70
     0
  9
$DIMALTD
 70
     2
  9
$DIMALTF
 40
25.4
  9
$DIMLFAC
 40
1.0
  9
$DIMTOFL
 70
     0
  9
$DIMTVP
 40
0.0
  9
$DIMTIX
 70
     0
  9
$DIMSOXD
 70
     0
  9
$DIMSAH
 70
     0
  9
$DIMBLK1
  1

  9
$DIMBLK2
  1

  9
$DIMSTYLE
  2
*UNNAMED
  9
$DIMCLRD
 70
     0
  9
$DIMCLRE
 70
     0
  9
$DIMCLRT
 70
     0
  9
$DIMTFAC
 40
1.0
  9
$DIMGAP
 40
0.09
  9
$LUNITS
 70
     2
  9
$LUPREC
 70
     4
  9
$AXISMODE
 70
     0
  9
$AXISUNIT
 10
0.0
 20
0.0
  9
$SKETCHINC
 40
0.1
  9
$FILLETRAD
 40
0.0
  9
$AUNITS
 70
     0
  9
$AUPREC
 70
     0
  9
$MENU
  1
acad
  9
$ELEVATION
 40
0.0
  9
$PELEVATION
 40
0.0
  9
$THICKNESS
 40
0.0
  9
$LIMCHECK
 70
     0
  9
$BLIPMODE
 70
     1
  9
$CHAMFERA
 40
0.0
  9
$CHAMFERB
 40
0.0
  9
$SKPOLY
 70
     0
  9
$TDCREATE
 40
2448315.373408102
  9
$TDUPDATE
 40
2448315.373408102
  9
$TDINDWG
 40
0.0000000000
  9
$TDUSRTIMER
 40
0.0000000000
  9
$USRTIMER
 70
     1
  9
$ANGBASE
 50
0.0
  9
$ANGDIR
 70
     0
  9
$PDMODE
 70
     0
  9
$PDSIZE
 40
0.0
  9
$PLINEWID
 40
0.0
  9
$COORDS
 70
     0
  9
$SPLFRAME
 70
     0
  9
$SPLINETYPE
 70
     6
  9
$SPLINESEGS
 70
     8
  9
$ATTDIA
 70
     0
  9
$ATTREQ
 70
     1
  9
$HANDLING
 70
     0
  9
$HANDSEED
  5
0
  9
$SURFTAB1
 70
     6
  9
$SURFTAB2
 70
     6
  9
$SURFTYPE
 70
     6
  9
$SURFU
 70
     6
  9
$SURFV
 70
     6
  9
$UCSNAME
  2

  9
$UCSORG
 10
0.0
 20
0.0
 30
0.0
  9
$UCSXDIR
 10
1.0
 20
0.0
 30
0.0
  9
$UCSYDIR
 10
0.0
 20
1.0
 30
0.0
  9
$PUCSNAME
  2

  9
$PUCSORG
 10
0.0
 20
0.0
 30
0.0
  9
$PUCSXDIR
 10
1.0
 20
0.0
 30
0.0
  9
$PUCSYDIR
 10
0.0
 20
1.0
 30
0.0
  9
$USERI1
 70
     0
  9
$USERI2
 70
     0
  9
$USERI3
 70
     0
  9
$USERI4
 70
     0
  9
$USERI5
 70
     0
  9
$USERR1
 40
0.0
  9
$USERR2
 40
0.0
  9
$USERR3
 40
0.0
  9
$USERR4
 40
0.0
  9
$USERR5
 40
0.0
  9
$WORLDVIEW
 70
     1
  9
$SHADEDGE
 70
     3
  9
$SHADEDIF
 70
    70
  9
$TILEMODE
 70
     1
  9
$MAXACTVP
 70
    16
  9
$PINSBASE
 10
0.0
 20
0.0
 30
0.0
  9
$PLIMCHECK
 70
     0
  9
$PEXTMIN
 10
1.000000E+20
 20
1.000000E+20
 30
1.000000E+20
  9
$PEXTMAX
 10
-1.000000E+20
 20
-1.000000E+20
 30
-1.000000E+20
  9
$PLIMMIN
 10
0.0
 20
0.0
  9
$PLIMMAX
 10
12.0
 20
9.0
  9
$UNITMODE
 70
     0
  9
$VISRETAIN
 70
     0
  0
ENDSEC
  0
SECTION
  2
TABLES
  0
TABLE
  2
LTYPE
 70
    1
  0
LTYPE
  2
CONTINUOUS
 70
    64
3
Solid line
 72
    65
 73
0
 40
0.000000
  0
ENDTAB
  0
TABLE
  2
LAYER
 70
    8
  0
LAYER
  2
0
 70
    64
 62
7
  6
CONTINUOUS
  0
LAYER
  2
1
 70
    64
 62
7
  6
CONTINUOUS
  0
LAYER
  2
7
 70
    64
 62
7
  6
CONTINUOUS
  0
LAYER
  2
8
 70
    64
 62
7
  6
CONTINUOUS
  0
LAYER
  2
9
 70
    64
 62
7
  6
CONTINUOUS
  0
LAYER
  2
22
 70
    64
 62
7
  6
CONTINUOUS
  0
LAYER
  2
25
 70
    64
 62
7
  6
CONTINUOUS
  0
LAYER
  2
0
 70
    64
 62
7
  6
CONTINUOUS
  0
ENDTAB
  0
TABLE
  2
STYLE
 70
    1
  0
STYLE
  2
ROMANC
70
     0
 40
0.0
 41
1.0
 50
0.0
 71
     0
 42
0.2
  3
ROMANC
  4

  0
ENDTAB
  0
ENDSEC
  0
SECTION
  2
BLOCKS
  0
ENDSEC
  0
SECTION
  2
ENTITIES
  0
TEXT
  8
0
  6
CONTINUOUS
 40
0.100000
 10
287.008000
 20
41.338000
  1
2
  7
ROMANC
  0
TEXT
  8
0
  6
CONTINUOUS
 40
0.300000
 10
283.926000
 20
41.768000
  1
ESCALA  1:50
  7
ROMANC
  0
POLYLINE
  8
0
  6
CONTINUOUS
 66
     1
 70
     1
  0
VERTEX
  8
0
  6
CONTINUOUS
 10
281.396000
 20
44.747000
  0
VERTEX
  8
0
  6
CONTINUOUS
 10
291.896000
 20
44.747000
  0
VERTEX
  8
0
  6
CONTINUOUS
 10
291.896000
 20
29.897000
  0
VERTEX
  8
0
  6
CONTINUOUS
 10
281.396000
 20
29.897000
  0
SEQEND
  8
0
  0
TEXT
  8
0
  6
CONTINUOUS
 40
0.300000
 10
283.945000
 20
41.099000
  1
S = 137 dm
  7
ROMANC
  0
TEXT
  8
0
  6
CONTINUOUS
 40
0.300000
 10
283.922000
 20
40.529000
  1
P = 47 dm
  7
ROMANC
  0
TEXT
  8
0
  6
CONTINUOUS
 40
0.300000
 10
283.926000
 20
42.381000
  1
TIPUS   NT137
  7
ROMANC
  0
LINE
  8
1
  6
CONTINUOUS
 10
286.054000
 20
35.849000
 11
286.054000
 21
36.979000
  0
LINE
  8
1
  6
CONTINUOUS
 10
286.044000
 20
35.839000
 11
286.044000
 21
36.979000
  0
POLYLINE
  8
1
  6
CONTINUOUS
 66
     1
 70
     0
  0
VERTEX
  8
1
  6
CONTINUOUS
 10
286.973056
 20
36.978299
 42
0.032503
  0
VERTEX
  8
1
  6
CONTINUOUS
 10
286.969105
 20
37.038699
 42
0.032523
  0
VERTEX
  8
1
  6
CONTINUOUS
 10
286.957381
 20
37.098081
 42
0.032536
  0
VERTEX
  8
1
  6
CONTINUOUS
 10
286.938031
 20
37.155384
 42
0.032590
  0
VERTEX
  8
1
  6
CONTINUOUS
 10
286.911427
 20
37.209701
 42
0.032613
  0
VERTEX
  8
1
  6
CONTINUOUS
 10
286.877999
 20
37.260008
 42
0.032688
  0
VERTEX
  8
1
  6
CONTINUOUS
 10
286.838325
 20
37.305550
 42
0.032714
  0
VERTEX
  8
1
  6
CONTINUOUS
 10
286.793093
 20
37.345438
 42
0.032789
  0
VERTEX
  8
1
  6
CONTINUOUS
 10
286.743056
 20
37.379099
 42
0.032813
  0
VERTEX
  8
1
  6
CONTINUOUS
 10
286.689099
 20
37.405851
 42
0.032868
  0
VERTEX
  8
1
  6
CONTINUOUS
 10
286.632112
 20
37.425333
 42
0.032881
  0
VERTEX
  8
1
  6
CONTINUOUS
 10
286.573101
 20
37.437125
 42
0.032902
  0
VERTEX
  8
1
  6
CONTINUOUS
 10
286.513056
 20
37.441102
 42
0.032902
  0
VERTEX
  8
1
  6
CONTINUOUS
 10
286.453010
 20
37.437125
 42
0.032881
  0
VERTEX
  8
1
  6
CONTINUOUS
 10
286.393999
 20
37.425333
 42
0.032868
  0
VERTEX
  8
1
  6
CONTINUOUS
 10
286.337012
 20
37.405851
 42
0.032813
  0
VERTEX
  8
1
  6
CONTINUOUS
 10
286.283056
 20
37.379099
 42
0.032789
  0
VERTEX
  8
1
  6
CONTINUOUS
 10
286.233018
 20
37.345438
 42
0.032714
  0
VERTEX
  8
1
  6
CONTINUOUS
 10
286.187786
 20
37.305550
 42
0.032688
  0
VERTEX
  8
1
  6
CONTINUOUS
 10
286.148113
 20
37.260008
 42
0.032613
  0
VERTEX
  8
1
  6
CONTINUOUS
 10
286.114684
 20
37.209701
 42
0.032590
  0
VERTEX
  8
1
  6
CONTINUOUS
 10
286.088080
 20
37.155384
 42
0.032536
  0
VERTEX
  8
1
  6
CONTINUOUS
 10
286.068730
 20
37.098081
 42
0.032523
  0
VERTEX
  8
1
  6
CONTINUOUS
 10
286.057006
 20
37.038699
 42
0.032503
  0
VERTEX
  8
1
  6
CONTINUOUS
 10
286.053056
 20
36.978299
  0
SEQEND
  8
0
  0
POLYLINE
  8
1
  6
CONTINUOUS
 66
     1
 70
     0
  0
VERTEX
  8
1
  6
CONTINUOUS
 10
286.983056
 20
36.978299
 42
0.032507
  0
VERTEX
  8
1
  6
CONTINUOUS
 10
286.979019
 20
37.040004
 42
0.032526
  0
VERTEX
  8
1
  6
CONTINUOUS
 10
286.967041
 20
37.100669
 42
0.032539
  0
VERTEX
  8
1
  6
CONTINUOUS
 10
286.947270
 20
37.159211
 42
0.032592
  0
VERTEX
  8
1
  6
CONTINUOUS
 10
286.920087
 20
37.214701
 42
0.032615
  0
VERTEX
  8
1
  6
CONTINUOUS
 10
286.885932
 20
37.266095
 42
0.032688
  0
VERTEX
  8
1
  6
CONTINUOUS
 10
286.845396
 20
37.312621
 42
0.032714
  0
VERTEX
  8
1
  6
CONTINUOUS
 10
286.799181
 20
37.353371
 42
0.032788
  0
VERTEX
  8
1
  6
CONTINUOUS
 10
286.748056
 20
37.387759
 42
0.032810
  0
VERTEX
  8
1
  6
CONTINUOUS
 10
286.692925
 20
37.415090
 42
0.032864
  0
VERTEX
  8
1
  6
CONTINUOUS
 10
286.634701
 20
37.434992
 42
0.032878
  0
VERTEX
  8
1
  6
CONTINUOUS
 10
286.574407
 20
37.447039
 42
0.032898
  0
VERTEX
  8
1
  6
CONTINUOUS
 10
286.513056
 20
37.451102
 42
0.032898
  0
VERTEX
  8
1
  6
CONTINUOUS
 10
286.451705
 20
37.447039
 42
0.032878
  0
VERTEX
  8
1
  6
CONTINUOUS
 10
286.391411
 20
37.434992
 42
0.032864
  0
VERTEX
  8
1
  6
CONTINUOUS
 10
286.333186
 20
37.415090
 42
0.032810
  0
VERTEX
  8
1
  6
CONTINUOUS
 10
286.278056
 20
37.387759
 42
0.032788
  0
VERTEX
  8
1
  6
CONTINUOUS
 10
286.226930
 20
37.353371
 42
0.032714
  0
VERTEX
  8
1
  6
CONTINUOUS
 10
286.180715
 20
37.312621
 42
0.032688
  0
VERTEX
  8
1
  6
CONTINUOUS
 10
286.140179
 20
37.266095
 42
0.032615
  0
VERTEX
  8
1
  6
CONTINUOUS
 10
286.106024
 20
37.214701
 42
0.032592
  0
VERTEX
  8
1
  6
CONTINUOUS
 10
286.078841
 20
37.159211
 42
0.032539
  0
VERTEX
  8
1
  6
CONTINUOUS
 10
286.059070
 20
37.100669
 42
0.032526
  0
VERTEX
  8
1
  6
CONTINUOUS
 10
286.047092
 20
37.040004
 42
0.032507
  0
VERTEX
  8
1
  6
CONTINUOUS
 10
286.043056
 20
36.978299
  0
SEQEND
  8
0
  0
LINE
  8
1
  6
CONTINUOUS
 10
286.974000
 20
36.979000
 11
286.974000
 21
35.859000
  0
LINE
  8
1
  6
CONTINUOUS
 10
286.984000
 20
36.979000
 11
286.984000
 21
35.859000
  0
POLYLINE
  8
1
  6
CONTINUOUS
 66
     1
 70
     0
  0
VERTEX
  8
1
  6
CONTINUOUS
 10
286.553519
 20
35.849000
 42
0.051866
  0
VERTEX
  8
1
  6
CONTINUOUS
 10
286.557628
 20
35.829331
 42
0.047033
  0
VERTEX
  8
1
  6
CONTINUOUS
 10
286.565503
 20
35.810816
 42
0.044629
  0
VERTEX
  8
1
  6
CONTINUOUS
 10
286.577738
 20
35.792460
 42
0.037715
  0
VERTEX
  8
1
  6
CONTINUOUS
 10
286.592825
 20
35.776319
 42
0.035535
  0
VERTEX
  8
1
  6
CONTINUOUS
 10
286.612163
 20
35.760930
 42
0.030187
  0
VERTEX
  8
1
  6
CONTINUOUS
 10
286.633364
 20
35.748187
 42
0.028783
  0
VERTEX
  8
1
  6
CONTINUOUS
 10
286.658132
 20
35.737024
 42
0.025592
  0
VERTEX
  8
1
  6
CONTINUOUS
 10
286.683974
 20
35.728605
 42
0.024863
  0
VERTEX
  8
1
  6
CONTINUOUS
 10
286.712117
 20
35.722479
 42
0.023485
  0
VERTEX
  8
1
  6
CONTINUOUS
 10
286.740724
 20
35.719093
 42
0.023296
  0
VERTEX
  8
1
  6
CONTINUOUS
 10
286.769996
 20
35.718374
 42
0.023477
  0
VERTEX
  8
1
  6
CONTINUOUS
 10
286.799207
 20
35.720389
 42
0.023787
  0
VERTEX
  8
1
  6
CONTINUOUS
 10
286.827345
 20
35.725019
 42
0.025563
  0
VERTEX
  8
1
  6
CONTINUOUS
 10
286.854884
 20
35.732393
 42
0.026438
  0
VERTEX
  8
1
  6
CONTINUOUS
 10
286.879779
 20
35.741915
 42
0.030119
  0
VERTEX
  8
1
  6
CONTINUOUS
 10
286.903431
 20
35.754173
 42
0.031707
  0
VERTEX
  8
1
  6
CONTINUOUS
 10
286.923296
 20
35.767813
 42
0.037557
  0
VERTEX
  8
1
  6
CONTINUOUS
 10
286.941078
 20
35.784038
 42
0.039890
  0
VERTEX
  8
1
  6
CONTINUOUS
 10
286.954538
 20
35.800839
 42
0.046784
  0
VERTEX
  8
1
  6
CONTINUOUS
 10
286.964903
 20
35.819669
 42
0.048990
  0
VERTEX
  8
1
  6
CONTINUOUS
 10
286.970931
 20
35.838581
 42
0.052491
  0
VERTEX
  8
1
  6
CONTINUOUS
 10
286.973056
 20
35.858299
  0
SEQEND
  8
0
  0
POLYLINE
  8
1
  6
CONTINUOUS
 66
     1
 70
     0
  0
VERTEX
  8
1
  6
CONTINUOUS
 10
286.544884
 20
35.839000
 42
0.048788
  0
VERTEX
  8
1
  6
CONTINUOUS
 10
286.550952
 20
35.818529
 42
0.043741
  0
VERTEX
  8
1
  6
CONTINUOUS
 10
286.560670
 20
35.799487
 42
0.041554
  0
VERTEX
  8
1
  6
CONTINUOUS
 10
286.574748
 20
35.780749
 42
0.035462
  0
VERTEX
  8
1
  6
CONTINUOUS
 10
286.591542
 20
35.764359
 42
0.033597
  0
VERTEX
  8
1
  6
CONTINUOUS
 10
286.612483
 20
35.748936
 42
0.029023
  0
VERTEX
  8
1
  6
CONTINUOUS
 10
286.635198
 20
35.736232
 42
0.027827
  0
VERTEX
  8
1
  6
CONTINUOUS
 10
286.661282
 20
35.725313
 42
0.025124
  0
VERTEX
  8
1
  6
CONTINUOUS
 10
286.688384
 20
35.717203
 42
0.024515
  0
VERTEX
  8
1
  6
CONTINUOUS
 10
286.717554
 20
35.711541
 42
0.023419
  0
VERTEX
  8
1
  6
CONTINUOUS
 10
286.747135
 20
35.708692
 42
0.023297
  0
VERTEX
  8
1
  6
CONTINUOUS
 10
286.777167
 20
35.708607
 42
0.023630
  0
VERTEX
  8
1
  6
CONTINUOUS
 10
286.807074
 20
35.711332
 42
0.023973
  0
VERTEX
  8
1
  6
CONTINUOUS
 10
286.835744
 20
35.716722
 42
0.025792
  0
VERTEX
  8
1
  6
CONTINUOUS
 10
286.863731
 20
35.724926
 42
0.026662
  0
VERTEX
  8
1
  6
CONTINUOUS
 10
286.888983
 20
35.735302
 42
0.030223
  0
VERTEX
  8
1
  6
CONTINUOUS
 10
286.912885
 20
35.748462
 42
0.031735
  0
VERTEX
  8
1
  6
CONTINUOUS
 10
286.932977
 20
35.763026
 42
0.037160
  0
VERTEX
  8
1
  6
CONTINUOUS
 10
286.950870
 20
35.780185
 42
0.039277
  0
VERTEX
  8
1
  6
CONTINUOUS
 10
286.964455
 20
35.797959
 42
0.045382
  0
VERTEX
  8
1
  6
CONTINUOUS
 10
286.974856
 20
35.817730
 42
0.047282
  0
VERTEX
  8
1
  6
CONTINUOUS
 10
286.980927
 20
35.837624
 42
0.050273
  0
VERTEX
  8
1
  6
CONTINUOUS
 10
286.983056
 20
35.858299
  0
SEQEND
  8
0
  0
LINE
  8
1
  6
CONTINUOUS
 10
286.554000
 20
35.849000
 11
286.054000
 21
35.849000
  0
LINE
  8
1
  6
CONTINUOUS
 10
286.545000
 20
35.839000
 11
286.044000
 21
35.839000
  0
LINE
  8
1
  6
CONTINUOUS
 10
286.564000
 20
35.859000
 11
286.064000
 21
35.859000
  0
TEXT
  8
1
  6
CONTINUOUS
 40
0.075000
 10
286.177000
 20
35.202000
  1
0.50
  7
ROMANC
  0
LINE
  8
1
  6
CONTINUOUS
 10
285.914000
 20
35.239000
 11
286.064000
 21
35.239000
  0
LINE
  8
1
  6
CONTINUOUS
 10
286.714000
 20
35.239000
 11
286.564000
 21
35.239000
  0
LINE
  8
1
  6
CONTINUOUS
 10
286.102000
 20
35.258000
 11
286.026000
 21
35.220000
  0
LINE
  8
1
  6
CONTINUOUS
 10
286.526000
 20
35.220000
 11
286.602000
 21
35.258000
  0
LINE
  8
1
  6
CONTINUOUS
 10
286.064000
 20
35.821000
 11
286.064000
 21
35.201000
  0
LINE
  8
1
  6
CONTINUOUS
 10
286.564000
 20
35.821000
 11
286.564000
 21
35.201000
  0
LINE
  8
1
  6
CONTINUOUS
 10
286.964000
 20
36.979000
 11
286.964000
 21
35.859000
  0
TEXT
  8
1
  6
CONTINUOUS
 40
0.075000
 10
286.104000
 20
35.432000
  1
0.40
  7
ROMANC
  0
LINE
  8
1
  6
CONTINUOUS
 10
286.491000
 20
35.469000
 11
286.564000
 21
35.469000
  0
LINE
  8
1
  6
CONTINUOUS
 10
287.114000
 20
35.469000
 11
286.964000
 21
35.469000
  0
LINE
  8
1
  6
CONTINUOUS
 10
286.602000
 20
35.488000
 11
286.526000
 21
35.450000
  0
LINE
  8
1
  6
CONTINUOUS
 10
286.926000
 20
35.450000
 11
287.002000
 21
35.488000
  0
LINE
  8
1
  6
CONTINUOUS
 10
286.564000
 20
35.821000
 11
286.564000
 21
35.431000
  0
LINE
  8
1
  6
CONTINUOUS
 10
286.964000
 20
35.821000
 11
286.964000
 21
35.431000
  0
POLYLINE
  8
1
  6
CONTINUOUS
 66
     1
 70
     0
  0
VERTEX
  8
1
  6
CONTINUOUS
 10
286.563056
 20
35.858299
 42
0.050420
  0
VERTEX
  8
1
  6
CONTINUOUS
 10
286.564828
 20
35.841152
 42
0.047178
  0
VERTEX
  8
1
  6
CONTINUOUS
 10
286.569870
 20
35.824652
 42
0.045125
  0
VERTEX
  8
1
  6
CONTINUOUS
 10
286.578545
 20
35.808153
 42
0.038599
  0
VERTEX
  8
1
  6
CONTINUOUS
 10
286.589850
 20
35.793299
 42
0.036356
  0
VERTEX
  8
1
  6
CONTINUOUS
 10
286.604835
 20
35.778782
 42
0.030633
  0
VERTEX
  8
1
  6
CONTINUOUS
 10
286.621634
 20
35.766375
 42
0.029044
  0
VERTEX
  8
1
  6
CONTINUOUS
 10
286.641779
 20
35.754925
 42
0.025270
  0
VERTEX
  8
1
  6
CONTINUOUS
 10
286.663056
 20
35.745715
 42
0.024334
  0
VERTEX
  8
1
  6
CONTINUOUS
 10
286.686868
 20
35.738099
 42
0.022293
  0
VERTEX
  8
1
  6
CONTINUOUS
 10
286.711292
 20
35.732728
 42
0.021867
  0
VERTEX
  8
1
  6
CONTINUOUS
 10
286.737077
 20
35.729399
 42
0.021229
  0
VERTEX
  8
1
  6
CONTINUOUS
 10
286.763056
 20
35.728299
 42
0.021229
  0
VERTEX
  8
1
  6
CONTINUOUS
 10
286.789034
 20
35.729399
 42
0.021867
  0
VERTEX
  8
1
  6
CONTINUOUS
 10
286.814819
 20
35.732728
 42
0.022293
  0
VERTEX
  8
1
  6
CONTINUOUS
 10
286.839243
 20
35.738099
 42
0.024334
  0
VERTEX
  8
1
  6
CONTINUOUS
 10
286.863056
 20
35.745715
 42
0.025270
  0
VERTEX
  8
1
  6
CONTINUOUS
 10
286.884332
 20
35.754925
 42
0.029044
  0
VERTEX
  8
1
  6
CONTINUOUS
 10
286.904477
 20
35.766375
 42
0.030633
  0
VERTEX
  8
1
  6
CONTINUOUS
 10
286.921277
 20
35.778782
 42
0.036356
  0
VERTEX
  8
1
  6
CONTINUOUS
 10
286.936261
 20
35.793299
 42
0.038599
  0
VERTEX
  8
1
  6
CONTINUOUS
 10
286.947566
 20
35.808153
 42
0.045125
  0
VERTEX
  8
1
  6
CONTINUOUS
 10
286.956241
 20
35.824652
 42
0.047178
  0
VERTEX
  8
1
  6
CONTINUOUS
 10
286.961284
 20
35.841152
 42
0.050420
  0
VERTEX
  8
1
  6
CONTINUOUS
 10
286.963056
 20
35.858299
  0
SEQEND
  8
0
  0
TEXT
  8
1
  6
CONTINUOUS
 40
0.075000
 10
287.350000
 20
36.064000
  1
0.13
 50
90.000000
  7
ROMANC
  0
LINE
  8
1
  6
CONTINUOUS
 10
287.312000
 20
35.950000
 11
287.312000
 21
35.859000
  0
LINE
  8
1
  6
CONTINUOUS
 10
287.312000
 20
35.578000
 11
287.312000
 21
35.728000
  0
LINE
  8
1
  6
CONTINUOUS
 10
287.331000
 20
35.822000
 11
287.293000
 21
35.896000
  0
LINE
  8
1
  6
CONTINUOUS
 10
287.293000
 20
35.766000
 11
287.331000
 21
35.690000
  0
LINE
  8
1
  6
CONTINUOUS
 10
287.002000
 20
35.859000
 11
287.350000
 21
35.859000
  0
LINE
  8
1
  6
CONTINUOUS
 10
286.801000
 20
35.728000
 11
287.350000
 21
35.728000
  0
LINE
  8
1
  6
CONTINUOUS
 10
286.064000
 20
35.859000
 11
286.064000
 21
36.979000
  0
TEXT
  8
1
  6
CONTINUOUS
 40
0.075000
 10
285.502000
 20
36.282000
  1
1.12
 50
90.000000
  7
ROMANC
  0
LINE
  8
1
  6
CONTINUOUS
 10
285.464000
 20
36.244000
 11
285.464000
 21
35.859000
  0
LINE
  8
1
  6
CONTINUOUS
 10
285.464000
 20
36.593000
 11
285.464000
 21
36.979000
  0
LINE
  8
1
  6
CONTINUOUS
 10
285.483000
 20
35.822000
 11
285.445000
 21
35.896000
  0
LINE
  8
1
  6
CONTINUOUS
 10
285.445000
 20
37.016000
 11
285.483000
 21
36.942000
  0
LINE
  8
1
  6
CONTINUOUS
 10
286.026000
 20
35.859000
 11
285.426000
 21
35.859000
  0
LINE
  8
1
  6
CONTINUOUS
 10
286.026000
 20
36.979000
 11
285.426000
 21
36.979000
  0
POLYLINE
  8
1
  6
CONTINUOUS
 66
     1
 70
     0
  0
VERTEX
  8
1
  6
CONTINUOUS
 10
286.963056
 20
36.978299
 42
0.032498
  0
VERTEX
  8
1
  6
CONTINUOUS
 10
286.959191
 20
37.037393
 42
0.032519
  0
VERTEX
  8
1
  6
CONTINUOUS
 10
286.947722
 20
37.095493
 42
0.032532
  0
VERTEX
  8
1
  6
CONTINUOUS
 10
286.928793
 20
37.151558
 42
0.032588
  0
VERTEX
  8
1
  6
CONTINUOUS
 10
286.902767
 20
37.204701
 42
0.032611
  0
VERTEX
  8
1
  6
CONTINUOUS
 10
286.870065
 20
37.253920
 42
0.032687
  0
VERTEX
  8
1
  6
CONTINUOUS
 10
286.831254
 20
37.298479
 42
0.032715
  0
VERTEX
  8
1
  6
CONTINUOUS
 10
286.787006
 20
37.337505
 42
0.032791
  0
VERTEX
  8
1
  6
CONTINUOUS
 10
286.738056
 20
37.370438
 42
0.032815
  0
VERTEX
  8
1
  6
CONTINUOUS
 10
286.685272
 20
37.396613
 42
0.032872
  0
VERTEX
  8
1
  6
CONTINUOUS
 10
286.629524
 20
37.415674
 42
0.032885
  0
VERTEX
  8
1
  6
CONTINUOUS
 10
286.571796
 20
37.427211
 42
0.032906
  0
VERTEX
  8
1
  6
CONTINUOUS
 10
286.513056
 20
37.431102
 42
0.032906
  0
VERTEX
  8
1
  6
CONTINUOUS
 10
286.454315
 20
37.427211
 42
0.032885
  0
VERTEX
  8
1
  6
CONTINUOUS
 10
286.396587
 20
37.415674
 42
0.032872
  0
VERTEX
  8
1
  6
CONTINUOUS
 10
286.340839
 20
37.396613
 42
0.032815
  0
VERTEX
  8
1
  6
CONTINUOUS
 10
286.288056
 20
37.370438
 42
0.032791
  0
VERTEX
  8
1
  6
CONTINUOUS
 10
286.239105
 20
37.337505
 42
0.032715
  0
VERTEX
  8
1
  6
CONTINUOUS
 10
286.194858
 20
37.298479
 42
0.032687
  0
VERTEX
  8
1
  6
CONTINUOUS
 10
286.156046
 20
37.253920
 42
0.032611
  0
VERTEX
  8
1
  6
CONTINUOUS
 10
286.123344
 20
37.204701
 42
0.032588
  0
VERTEX
  8
1
  6
CONTINUOUS
 10
286.097318
 20
37.151558
 42
0.032532
  0
VERTEX
  8
1
  6
CONTINUOUS
 10
286.078389
 20
37.095493
 42
0.032519
  0
VERTEX
  8
1
  6
CONTINUOUS
 10
286.066921
 20
37.037393
 42
0.032498
  0
VERTEX
  8
1
  6
CONTINUOUS
 10
286.063056
 20
36.978299
  0
SEQEND
  8
0
  0
TEXT
  8
1
  6
CONTINUOUS
 40
0.075000
 10
286.376000
 20
37.696000
  1
0.90
  7
ROMANC
  0
LINE
  8
1
  6
CONTINUOUS
 10
286.338000
 20
37.733000
 11
286.063000
 21
37.733000
  0
LINE
  8
1
  6
CONTINUOUS
 10
286.687000
 20
37.733000
 11
286.963000
 21
37.733000
  0
LINE
  8
1
  6
CONTINUOUS
 10
286.026000
 20
37.714000
 11
286.100000
 21
37.752000
  0
LINE
  8
1
  6
CONTINUOUS
 10
287.000000
 20
37.752000
 11
286.926000
 21
37.714000
  0
LINE
  8
1
  6
CONTINUOUS
 10
286.063000
 20
37.016000
 11
286.063000
 21
37.771000
  0
LINE
  8
1
  6
CONTINUOUS
 10
286.963000
 20
37.016000
 11
286.963000
 21
37.771000
  0
TEXT
  8
1
  6
CONTINUOUS
 40
0.075000
 10
287.724000
 20
36.443000
  1
1.70
 50
90.000000
  7
ROMANC
  0
LINE
  8
1
  6
CONTINUOUS
 10
287.686000
 20
36.405000
 11
287.686000
 21
35.728000
  0
LINE
  8
1
  6
CONTINUOUS
 10
287.686000
 20
36.754000
 11
287.686000
 21
37.431000
  0
LINE
  8
1
  6
CONTINUOUS
 10
287.705000
 20
35.690000
 11
287.667000
 21
35.766000
  0
LINE
  8
1
  6
CONTINUOUS
 10
287.667000
 20
37.468000
 11
287.705000
 21
37.394000
  0
LINE
  8
1
  6
CONTINUOUS
 10
286.839000
 20
35.728000
 11
287.724000
 21
35.728000
  0
LINE
  8
1
  6
CONTINUOUS
 10
286.551000
 20
37.431000
 11
287.724000
 21
37.431000
  0
ENDSEC
  0
EOF
