  0
SECTION
  2
HEADER
  9
$ACADVER
  1
AC1009
  9
$INSBASE
 10
0.0
 20
0.0
 30
0.0
  9
$EXTMIN
 10
281.396
 20
29.897
 30
0.0
  9
$EXTMAX
 10
291.896
 20
44.747
 30
0.0
  9
$LIMMIN
 10
280.396
 20
28.897
  9
$LIMMAX
 10
292.896
 20
43.747
  9
$ORTHOMODE
 70
     0
  9
$REGENMODE
 70
     1
  9
$FILLMODE
 70
     1
  9
$QTEXTMODE
 70
     0
  9
$MIRRTEXT
 70
     1
  9
$DRAGMODE
 70
     2
  9
$LTSCALE
 40
1.0
  9
$OSMODE
 70
     0
  9
$ATTMODE
 70
     1
  9
$TEXTSIZE
 40
0.2
  9
$TRACEWID
 40
0.05
  9
$TEXTSTYLE
  7
STANDARD
  9
$CLAYER
  8
0
  9
$CELTYPE
  6
BYLAYER
  9
$CECOLOR
 62
   256
  9
$DIMSCALE
 40
1.0
  9
$DIMASZ
 40
0.18
  9
$DIMEXO
 40
0.0625
  9
$DIMDLI
 40
0.38
  9
$DIMRND
 40
0.0
  9
$DIMDLE
 40
0.0
  9
$DIMEXE
 40
0.18
  9
$DIMTP
 40
0.0
  9
$DIMTM
 40
0.0
  9
$DIMTXT
 40
0.18
  9
$DIMCEN
 40
0.09
  9
$DIMTSZ
 40
0.0
  9
$DIMTOL
 70
     0
  9
$DIMLIM
 70
     0
  9
$DIMTIH
 70
     1
  9
$DIMTOH
 70
     1
  9
$DIMSE1
 70
     0
  9
$DIMSE2
 70
     0
  9
$DIMTAD
 70
     0
  9
$DIMZIN
 70
     0
  9
$DIMBLK
  1

  9
$DIMASO
 70
     1
  9
$DIMSHO
 70
     1
  9
$DIMPOST
  1

  9
$DIMAPOST
  1

  9
$DIMALT
 70
     0
  9
$DIMALTD
 70
     2
  9
$DIMALTF
 40
25.4
  9
$DIMLFAC
 40
1.0
  9
$DIMTOFL
 70
     0
  9
$DIMTVP
 40
0.0
  9
$DIMTIX
 70
     0
  9
$DIMSOXD
 70
     0
  9
$DIMSAH
 70
     0
  9
$DIMBLK1
  1

  9
$DIMBLK2
  1

  9
$DIMSTYLE
  2
*UNNAMED
  9
$DIMCLRD
 70
     0
  9
$DIMCLRE
 70
     0
  9
$DIMCLRT
 70
     0
  9
$DIMTFAC
 40
1.0
  9
$DIMGAP
 40
0.09
  9
$LUNITS
 70
     2
  9
$LUPREC
 70
     4
  9
$SKETCHINC
 40
0.1
  9
$FILLETRAD
 40
0.0
  9
$AUNITS
 70
     0
  9
$AUPREC
 70
     0
  9
$MENU
  1
acad
  9
$ELEVATION
 40
0.0
  9
$PELEVATION
 40
0.0
  9
$THICKNESS
 40
0.0
  9
$LIMCHECK
 70
     0
  9
$BLIPMODE
 70
     1
  9
$CHAMFERA
 40
0.0
  9
$CHAMFERB
 40
0.0
  9
$SKPOLY
 70
     0
  9
$TDCREATE
 40
2448315.373408102
  9
$TDUPDATE
 40
2448315.373408102
  9
$TDINDWG
 40
0.0000000000
  9
$TDUSRTIMER
 40
0.0000000000
  9
$USRTIMER
 70
     1
  9
$ANGBASE
 50
0.0
  9
$ANGDIR
 70
     0
  9
$PDMODE
 70
     0
  9
$PDSIZE
 40
0.0
  9
$PLINEWID
 40
0.0
  9
$COORDS
 70
     0
  9
$SPLFRAME
 70
     0
  9
$SPLINETYPE
 70
     6
  9
$SPLINESEGS
 70
     8
  9
$ATTDIA
 70
     0
  9
$ATTREQ
 70
     1
  9
$HANDLING
 70
     0
  9
$HANDSEED
  5
0
  9
$SURFTAB1
 70
     6
  9
$SURFTAB2
 70
     6
  9
$SURFTYPE
 70
     6
  9
$SURFU
 70
     6
  9
$SURFV
 70
     6
  9
$UCSNAME
  2

  9
$UCSORG
 10
0.0
 20
0.0
 30
0.0
  9
$UCSXDIR
 10
1.0
 20
0.0
 30
0.0
  9
$UCSYDIR
 10
0.0
 20
1.0
 30
0.0
  9
$PUCSNAME
  2

  9
$PUCSORG
 10
0.0
 20
0.0
 30
0.0
  9
$PUCSXDIR
 10
1.0
 20
0.0
 30
0.0
  9
$PUCSYDIR
 10
0.0
 20
1.0
 30
0.0
  9
$USERI1
 70
     0
  9
$USERI2
 70
     0
  9
$USERI3
 70
     0
  9
$USERI4
 70
     0
  9
$USERI5
 70
     0
  9
$USERR1
 40
0.0
  9
$USERR2
 40
0.0
  9
$USERR3
 40
0.0
  9
$USERR4
 40
0.0
  9
$USERR5
 40
0.0
  9
$WORLDVIEW
 70
     1
  9
$SHADEDGE
 70
     3
  9
$SHADEDIF
 70
    70
  9
$TILEMODE
 70
     1
  9
$MAXACTVP
 70
    16
  9
$PINSBASE
 10
0.0
 20
0.0
 30
0.0
  9
$PLIMCHECK
 70
     0
  9
$PEXTMIN
 10
1.000000E+20
 20
1.000000E+20
 30
1.000000E+20
  9
$PEXTMAX
 10
-1.000000E+20
 20
-1.000000E+20
 30
-1.000000E+20
  9
$PLIMMIN
 10
0.0
 20
0.0
  9
$PLIMMAX
 10
12.0
 20
9.0
  9
$UNITMODE
 70
     0
  9
$VISRETAIN
 70
     0
  9
$PLINEGEN
 70
     0
  9
$PSLTSCALE
 70
     0
  9
$TREEDEPTH
 70
  3020
  9
$DWGCODEPAGE
  3
iso8859-1
  0
ENDSEC
  0
SECTION
  2
TABLES
  0
TABLE
  2
VPORT
 70
     2
  0
VPORT
  2
*ACTIVE
 70
     0
 10
0.0
 20
0.0
 11
1.0
 21
1.0
 12
293.35785
 22
37.322
 13
0.0
 23
0.0
 14
1.0
 24
1.0
 15
10.0
 25
10.0
 16
0.0
 26
0.0
 36
1.0
 17
0.0
 27
0.0
 37
0.0
 40
14.85
 41
1.611024
 42
50.0
 43
0.0
 44
0.0
 50
0.0
 51
0.0
 71
     0
 72
   100
 73
     1
 74
     0
 75
     0
 76
     0
 77
     0
 78
     0
  0
ENDTAB
  0
TABLE
  2
LTYPE
 70
     1
  0
LTYPE
  2
CONTINUOUS
 70
    64
  3
Solid line
 72
    65
 73
     0
 40
0.0
  0
ENDTAB
  0
TABLE
  2
LAYER
 70
     7
  0
LAYER
  2
0
 70
    64
 62
     7
  6
CONTINUOUS
  0
LAYER
  2
1
 70
    64
 62
     7
  6
CONTINUOUS
  0
LAYER
  2
7
 70
    64
 62
     7
  6
CONTINUOUS
  0
LAYER
  2
8
 70
    64
 62
     7
  6
CONTINUOUS
  0
LAYER
  2
9
 70
    64
 62
     7
  6
CONTINUOUS
  0
LAYER
  2
22
 70
    64
 62
     7
  6
CONTINUOUS
  0
LAYER
  2
25
 70
    64
 62
     7
  6
CONTINUOUS
  0
ENDTAB
  0
TABLE
  2
STYLE
 70
     2
  0
STYLE
  2
STANDARD
 70
     0
 40
0.0
 41
1.0
 50
0.0
 71
     0
 42
3.5
  3
txt
  4

  0
STYLE
  2
ROMANC
 70
     0
 40
0.0
 41
1.0
 50
0.0
 71
     0
 42
0.2
  3
ROMANC
  4

  0
ENDTAB
  0
TABLE
  2
VIEW
 70
     0
  0
ENDTAB
  0
TABLE
  2
UCS
 70
     0
  0
ENDTAB
  0
TABLE
  2
APPID
 70
     1
  0
APPID
  2
ACAD
 70
    64
  0
ENDTAB
  0
TABLE
  2
DIMSTYLE
 70
     0
  0
ENDTAB
  0
ENDSEC
  0
SECTION
  2
BLOCKS
  0
ENDSEC
  0
SECTION
  2
ENTITIES
  0
TEXT
  8
0
  6
CONTINUOUS
 10
286.909
 20
41.324
 30
0.0
 40
0.1
  1
2
  7
ROMANC
  0
TEXT
  8
0
  6
CONTINUOUS
 10
283.926
 20
41.768
 30
0.0
 40
0.3
  1
ESCALA  1:50
  7
ROMANC
  0
POLYLINE
  8
0
  6
CONTINUOUS
 66
     1
 10
0.0
 20
0.0
 30
0.0
 70
     1
  0
VERTEX
  8
0
  6
CONTINUOUS
 10
281.396
 20
44.747
 30
0.0
  0
VERTEX
  8
0
  6
CONTINUOUS
 10
291.896
 20
44.747
 30
0.0
  0
VERTEX
  8
0
  6
CONTINUOUS
 10
291.896
 20
29.897
 30
0.0
  0
VERTEX
  8
0
  6
CONTINUOUS
 10
281.396
 20
29.897
 30
0.0
  0
SEQEND
  8
0
  0
LINE
  8
1
  6
CONTINUOUS
 10
288.48
 20
32.416
 30
0.0
 11
288.48
 21
32.816
 31
0.0
  0
LINE
  8
1
  6
CONTINUOUS
 10
288.48
 20
32.816
 30
0.0
 11
289.28
 21
32.816
 31
0.0
  0
ARC
  8
1
  6
CONTINUOUS
 10
287.788029
 20
33.469785
 30
0.0
 40
1.521483
 50
11.303303
 51
50.099189
  0
ARC
  8
1
  6
CONTINUOUS
 10
286.68
 20
32.43935
 30
0.0
 40
3.02865
 50
46.520478
 51
133.479519
  0
ARC
  8
1
  6
CONTINUOUS
 10
285.571971
 20
33.469785
 30
0.0
 40
1.521483
 50
129.900811
 51
168.696697
  0
ARC
  8
1
  6
CONTINUOUS
 10
286.68
 20
66.218
 30
0.0
 40
33.85
 50
265.594803
 51
274.405194
  0
TEXT
  8
0
  6
CONTINUOUS
 10
283.922
 20
40.529
 30
0.0
 40
0.3
  1
P = 145 dm
  7
ROMANC
  0
LINE
  8
1
  6
CONTINUOUS
 10
284.88
 20
32.653
 30
0.0
 11
284.63
 21
32.43
 31
0.0
  0
LINE
  8
1
  6
CONTINUOUS
 10
284.88
 20
32.786
 30
0.0
 11
284.489
 21
32.439
 31
0.0
  0
LINE
  8
1
  6
CONTINUOUS
 10
284.762
 20
32.816
 30
0.0
 11
284.349
 21
32.448
 31
0.0
  0
LINE
  8
1
  6
CONTINUOUS
 10
284.613
 20
32.816
 30
0.0
 11
284.21
 21
32.458
 31
0.0
  0
LINE
  8
1
  6
CONTINUOUS
 10
284.463
 20
32.816
 30
0.0
 11
284.08
 21
32.476
 31
0.0
  0
LINE
  8
1
  6
CONTINUOUS
 10
284.312
 20
32.816
 30
0.0
 11
284.08
 21
32.61
 31
0.0
  0
LINE
  8
1
  6
CONTINUOUS
 10
284.161
 20
32.816
 30
0.0
 11
284.08
 21
32.744
 31
0.0
  0
LINE
  8
1
  6
CONTINUOUS
 10
288.48
 20
32.793
 30
0.0
 11
288.878
 21
32.439
 31
0.0
  0
LINE
  8
1
  6
CONTINUOUS
 10
288.48
 20
32.658
 30
0.0
 11
288.736
 21
32.431
 31
0.0
  0
LINE
  8
1
  6
CONTINUOUS
 10
288.48
 20
32.524
 30
0.0
 11
288.595
 21
32.422
 31
0.0
  0
LINE
  8
1
  6
CONTINUOUS
 10
288.603
 20
32.816
 30
0.0
 11
289.016
 21
32.449
 31
0.0
  0
LINE
  8
1
  6
CONTINUOUS
 10
288.754
 20
32.816
 30
0.0
 11
289.155
 21
32.459
 31
0.0
  0
LINE
  8
1
  6
CONTINUOUS
 10
288.905
 20
32.816
 30
0.0
 11
289.28
 21
32.482
 31
0.0
  0
LINE
  8
1
  6
CONTINUOUS
 10
289.054
 20
32.816
 30
0.0
 11
289.28
 21
32.615
 31
0.0
  0
LINE
  8
1
  6
CONTINUOUS
 10
289.204
 20
32.816
 30
0.0
 11
289.28
 21
32.748
 31
0.0
  0
LINE
  8
1
  6
CONTINUOUS
 10
284.88
 20
32.416
 30
0.0
 11
284.88
 21
32.816
 31
0.0
  0
LINE
  8
1
  6
CONTINUOUS
 10
284.08
 20
32.816
 30
0.0
 11
284.88
 21
32.816
 31
0.0
  0
TEXT
  8
1
  6
CONTINUOUS
 10
285.174
 20
32.494
 30
0.0
 40
0.075
  1
0.40
 50
90.0
  7
ROMANC
  0
LINE
  8
1
  6
CONTINUOUS
 10
285.137
 20
32.266
 30
0.0
 11
285.137
 21
32.416
 31
0.0
  0
LINE
  8
1
  6
CONTINUOUS
 10
285.137
 20
32.966
 30
0.0
 11
285.137
 21
32.816
 31
0.0
  0
LINE
  8
1
  6
CONTINUOUS
 10
285.118
 20
32.454
 30
0.0
 11
285.156
 21
32.378
 31
0.0
  0
LINE
  8
1
  6
CONTINUOUS
 10
285.156
 20
32.778
 30
0.0
 11
285.118
 21
32.854
 31
0.0
  0
LINE
  8
1
  6
CONTINUOUS
 10
284.918
 20
32.416
 30
0.0
 11
285.175
 21
32.416
 31
0.0
  0
LINE
  8
1
  6
CONTINUOUS
 10
284.918
 20
32.816
 30
0.0
 11
285.175
 21
32.816
 31
0.0
  0
LINE
  8
1
  6
CONTINUOUS
 10
284.08
 20
33.768
 30
0.0
 11
284.08
 21
32.468
 31
0.0
  0
LINE
  8
1
  6
CONTINUOUS
 10
284.88
 20
32.519
 30
0.0
 11
284.771
 21
32.422
 31
0.0
  0
TEXT
  8
1
  6
CONTINUOUS
 10
284.361
 20
32.14
 30
0.0
 40
0.075
  1
0.80
  7
ROMANC
  0
LINE
  8
1
  6
CONTINUOUS
 10
284.323
 20
32.178
 30
0.0
 11
284.08
 21
32.178
 31
0.0
  0
LINE
  8
1
  6
CONTINUOUS
 10
284.635
 20
32.178
 30
0.0
 11
284.88
 21
32.178
 31
0.0
  0
LINE
  8
1
  6
CONTINUOUS
 10
284.042
 20
32.159
 30
0.0
 11
284.118
 21
32.197
 31
0.0
  0
LINE
  8
1
  6
CONTINUOUS
 10
284.918
 20
32.197
 30
0.0
 11
284.842
 21
32.159
 31
0.0
  0
LINE
  8
1
  6
CONTINUOUS
 10
284.08
 20
32.43
 30
0.0
 11
284.08
 21
32.14
 31
0.0
  0
LINE
  8
1
  6
CONTINUOUS
 10
284.88
 20
32.481
 30
0.0
 11
284.88
 21
32.14
 31
0.0
  0
LINE
  8
1
  6
CONTINUOUS
 10
289.28
 20
32.468
 30
0.0
 11
289.28
 21
33.768
 31
0.0
  0
TEXT
  8
1
  6
CONTINUOUS
 10
289.55
 20
33.008
 30
0.0
 40
0.075
  1
1.30
 50
90.0
  7
ROMANC
  0
LINE
  8
1
  6
CONTINUOUS
 10
289.513
 20
32.97
 30
0.0
 11
289.513
 21
32.468
 31
0.0
  0
LINE
  8
1
  6
CONTINUOUS
 10
289.513
 20
33.265
 30
0.0
 11
289.513
 21
34.331727
 31
0.0
  0
LINE
  8
1
  6
CONTINUOUS
 10
289.532
 20
32.43
 30
0.0
 11
289.494
 21
32.506
 31
0.0
  0
LINE
  8
1
  6
CONTINUOUS
 10
289.494
 20
33.806
 30
0.0
 11
289.532
 21
33.73
 31
0.0
  0
LINE
  8
1
  6
CONTINUOUS
 10
289.318
 20
32.468
 30
0.0
 11
289.551
 21
32.468
 31
0.0
  0
LINE
  8
1
  6
CONTINUOUS
 10
289.318
 20
33.768
 30
0.0
 11
289.551
 21
33.768
 31
0.0
  0
TEXT
  8
1
  6
CONTINUOUS
 10
289.86
 20
33.808
 30
0.0
 40
0.075
  1
3.10
 50
90.0
  7
ROMANC
  0
LINE
  8
1
  6
CONTINUOUS
 10
289.823
 20
33.77
 30
0.0
 11
289.823
 21
32.368
 31
0.0
  0
LINE
  8
1
  6
CONTINUOUS
 10
289.823
 20
34.065
 30
0.0
 11
289.823
 21
35.468
 31
0.0
  0
LINE
  8
1
  6
CONTINUOUS
 10
289.842
 20
32.33
 30
0.0
 11
289.804
 21
32.406
 31
0.0
  0
LINE
  8
1
  6
CONTINUOUS
 10
289.804
 20
35.506
 30
0.0
 11
289.842
 21
35.43
 31
0.0
  0
LINE
  8
1
  6
CONTINUOUS
 10
286.718
 20
32.368
 30
0.0
 11
289.861
 21
32.368
 31
0.0
  0
LINE
  8
1
  6
CONTINUOUS
 10
286.718
 20
35.468
 30
0.0
 11
289.861
 21
35.468
 31
0.0
  0
TEXT
  8
1
  6
CONTINUOUS
 10
286.561
 20
31.9
 30
0.0
 40
0.075
  1
5.20
  7
ROMANC
  0
LINE
  8
1
  6
CONTINUOUS
 10
286.523
 20
31.937
 30
0.0
 11
284.08
 21
31.937
 31
0.0
  0
LINE
  8
1
  6
CONTINUOUS
 10
286.835
 20
31.937
 30
0.0
 11
289.28
 21
31.937
 31
0.0
  0
LINE
  8
1
  6
CONTINUOUS
 10
284.042
 20
31.918
 30
0.0
 11
284.118
 21
31.956
 31
0.0
  0
LINE
  8
1
  6
CONTINUOUS
 10
289.318
 20
31.956
 30
0.0
 11
289.242
 21
31.918
 31
0.0
  0
LINE
  8
1
  6
CONTINUOUS
 10
284.08
 20
32.43
 30
0.0
 11
284.08
 21
31.899
 31
0.0
  0
LINE
  8
1
  6
CONTINUOUS
 10
289.28
 20
32.43
 30
0.0
 11
289.28
 21
31.899
 31
0.0
  0
ARC
  8
1
  6
CONTINUOUS
 10
286.68
 20
32.43935
 30
0.0
 40
3.03865
 50
46.520478
 51
133.479519
  0
ARC
  8
1
  6
CONTINUOUS
 10
286.68
 20
32.43935
 30
0.0
 40
3.04865
 50
46.520478
 51
133.479519
  0
ARC
  8
1
  6
CONTINUOUS
 10
287.788029
 20
33.469785
 30
0.0
 40
1.531483
 50
11.303303
 51
50.099189
  0
ARC
  8
1
  6
CONTINUOUS
 10
287.788029
 20
33.469785
 30
0.0
 40
1.541483
 50
11.303303
 51
50.099189
  0
ARC
  8
1
  6
CONTINUOUS
 10
285.571971
 20
33.469785
 30
0.0
 40
1.531483
 50
129.900811
 51
168.696697
  0
ARC
  8
1
  6
CONTINUOUS
 10
285.571971
 20
33.469785
 30
0.0
 40
1.541483
 50
129.900811
 51
168.696697
  0
LINE
  8
1
  6
CONTINUOUS
 10
284.07
 20
33.768
 30
0.0
 11
284.07
 21
32.459
 31
0.0
  0
LINE
  8
1
  6
CONTINUOUS
 10
284.06
 20
33.768
 30
0.0
 11
284.06
 21
32.449
 31
0.0
  0
ARC
  8
1
  6
CONTINUOUS
 10
286.68
 20
66.218
 30
0.0
 40
33.86
 50
265.579136
 51
274.420864
  0
ARC
  8
1
  6
CONTINUOUS
 10
286.68
 20
66.218
 30
0.0
 40
33.87
 50
265.563475
 51
274.436525
  0
LINE
  8
1
  6
CONTINUOUS
 10
289.29
 20
32.459
 30
0.0
 11
289.29
 21
33.768
 31
0.0
  0
LINE
  8
1
  6
CONTINUOUS
 10
289.3
 20
32.449
 30
0.0
 11
289.3
 21
33.768
 31
0.0
  0
TEXT
  8
0
  6
CONTINUOUS
 10
283.945
 20
41.099
 30
0.0
 40
0.3
  1
S =1368dm
  7
ROMANC
  0
TEXT
  8
0
  6
CONTINUOUS
 10
283.926
 20
42.381
 30
0.0
 40
0.3
  1
TIPUS   NT1368
  7
ROMANC
  0
LINE
  8
1
  6
CONTINUOUS
 10
289.513
 20
34.868237
 30
0.0
 11
289.513
 21
35.468
 31
0.0
  0
LINE
  8
1
  6
CONTINUOUS
 10
289.496722
 20
35.506
 30
0.0
 11
289.534722
 21
35.43
 31
0.0
  0
TEXT
  8
1
  6
CONTINUOUS
 10
289.55
 20
34.485375
 30
0.0
 40
0.075
  1
1.70
 50
90.0
  7
ROMANC
  0
ENDSEC
  0
EOF
