  0
SECTION
  2
HEADER
  9
$ACADVER
  1
AC1009
  9
$INSBASE
 10
218.171302
 20
64.303462
 30
0.0
  9
$EXTMIN
 10
22.591444
 20
-21.448265
 30
0.0
  9
$EXTMAX
 10
228.671302
 20
98.615031
 30
0.0
  9
$LIMMIN
 10
0.0
 20
0.0
  9
$LIMMAX
 10
410.0
 20
287.0
  9
$ORTHOMODE
 70
     0
  9
$REGENMODE
 70
     1
  9
$FILLMODE
 70
     1
  9
$QTEXTMODE
 70
     0
  9
$MIRRTEXT
 70
     1
  9
$DRAGMODE
 70
     2
  9
$LTSCALE
 40
25.0
  9
$OSMODE
 70
    32
  9
$ATTMODE
 70
     1
  9
$TEXTSIZE
 40
0.1
  9
$TRACEWID
 40
1.0
  9
$TEXTSTYLE
  7
ROMANC
  9
$CLAYER
  8
0
  9
$CELTYPE
  6
BYLAYER
  9
$CECOLOR
 62
   256
  9
$DIMSCALE
 40
0.0
  9
$DIMASZ
 40
0.0
  9
$DIMEXO
 40
0.1
  9
$DIMDLI
 40
7.0
  9
$DIMRND
 40
0.0
  9
$DIMDLE
 40
0.0
  9
$DIMEXE
 40
1.8
  9
$DIMTP
 40
0.0
  9
$DIMTM
 40
0.0
  9
$DIMTXT
 40
0.03
  9
$DIMCEN
 40
1.5
  9
$DIMTSZ
 40
1.0
  9
$DIMTOL
 70
     0
  9
$DIMLIM
 70
     0
  9
$DIMTIH
 70
     0
  9
$DIMTOH
 70
     0
  9
$DIMSE1
 70
     0
  9
$DIMSE2
 70
     0
  9
$DIMTAD
 70
     0
  9
$DIMZIN
 70
     0
  9
$DIMBLK
  1

  9
$DIMASO
 70
     1
  9
$DIMSHO
 70
     0
  9
$DIMPOST
  1

  9
$DIMAPOST
  1

  9
$DIMALT
 70
     0
  9
$DIMALTD
 70
     2
  9
$DIMALTF
 40
25.4
  9
$DIMLFAC
 40
1.0
  9
$DIMTOFL
 70
     1
  9
$DIMTVP
 40
0.0
  9
$DIMTIX
 70
     1
  9
$DIMSOXD
 70
     0
  9
$DIMSAH
 70
     0
  9
$DIMBLK1
  1

  9
$DIMBLK2
  1

  9
$DIMSTYLE
  2
*UNNAMED
  9
$DIMCLRD
 70
     0
  9
$DIMCLRE
 70
     0
  9
$DIMCLRT
 70
     0
  9
$DIMTFAC
 40
116.666667
  9
$DIMGAP
 40
0.09
  9
$LUNITS
 70
     2
  9
$LUPREC
 70
     2
  9
$SKETCHINC
 40
1.0
  9
$FILLETRAD
 40
0.0
  9
$AUNITS
 70
     0
  9
$AUPREC
 70
     0
  9
$MENU
  1
acad
  9
$ELEVATION
 40
0.0
  9
$PELEVATION
 40
0.0
  9
$THICKNESS
 40
0.0
  9
$LIMCHECK
 70
     0
  9
$BLIPMODE
 70
     0
  9
$CHAMFERA
 40
0.0
  9
$CHAMFERB
 40
0.0
  9
$SKPOLY
 70
     0
  9
$TDCREATE
 40
2449965.501658449
  9
$TDUPDATE
 40
2450207.422494560
  9
$TDINDWG
 40
0.0001836806
  9
$TDUSRTIMER
 40
0.0001836806
  9
$USRTIMER
 70
     1
  9
$ANGBASE
 50
0.0
  9
$ANGDIR
 70
     0
  9
$PDMODE
 70
     0
  9
$PDSIZE
 40
0.0
  9
$PLINEWID
 40
0.0
  9
$COORDS
 70
     2
  9
$SPLFRAME
 70
     0
  9
$SPLINETYPE
 70
     6
  9
$SPLINESEGS
 70
     8
  9
$ATTDIA
 70
     0
  9
$ATTREQ
 70
     1
  9
$HANDLING
 70
     0
  9
$HANDSEED
  5
0
  9
$SURFTAB1
 70
     6
  9
$SURFTAB2
 70
     6
  9
$SURFTYPE
 70
     6
  9
$SURFU
 70
     6
  9
$SURFV
 70
     6
  9
$UCSNAME
  2

  9
$UCSORG
 10
0.0
 20
0.0
 30
0.0
  9
$UCSXDIR
 10
1.0
 20
0.0
 30
0.0
  9
$UCSYDIR
 10
0.0
 20
1.0
 30
0.0
  9
$PUCSNAME
  2

  9
$PUCSORG
 10
0.0
 20
0.0
 30
0.0
  9
$PUCSXDIR
 10
1.0
 20
0.0
 30
0.0
  9
$PUCSYDIR
 10
0.0
 20
1.0
 30
0.0
  9
$USERI1
 70
     0
  9
$USERI2
 70
     0
  9
$USERI3
 70
     0
  9
$USERI4
 70
     0
  9
$USERI5
 70
     0
  9
$USERR1
 40
0.0
  9
$USERR2
 40
0.0
  9
$USERR3
 40
0.0
  9
$USERR4
 40
0.0
  9
$USERR5
 40
0.0
  9
$WORLDVIEW
 70
     1
  9
$SHADEDGE
 70
     3
  9
$SHADEDIF
 70
    70
  9
$TILEMODE
 70
     1
  9
$MAXACTVP
 70
    16
  9
$PINSBASE
 10
0.0
 20
0.0
 30
0.0
  9
$PLIMCHECK
 70
     0
  9
$PEXTMIN
 10
1.000000E+20
 20
1.000000E+20
 30
1.000000E+20
  9
$PEXTMAX
 10
-1.000000E+20
 20
-1.000000E+20
 30
-1.000000E+20
  9
$PLIMMIN
 10
0.0
 20
0.0
  9
$PLIMMAX
 10
12.0
 20
9.0
  9
$UNITMODE
 70
     0
  9
$VISRETAIN
 70
     0
  9
$PLINEGEN
 70
     0
  9
$PSLTSCALE
 70
     0
  9
$TREEDEPTH
 70
  3020
  9
$DWGCODEPAGE
  3
iso8859-1
  0
ENDSEC
  0
SECTION
  2
TABLES
  0
TABLE
  2
VPORT
 70
     1
  0
VPORT
  2
*ACTIVE
 70
     0
 10
0.0
 20
0.0
 11
1.0
 21
1.0
 12
221.348601
 22
72.484427
 13
0.0
 23
0.0
 14
1.0
 24
1.0
 15
10.0
 25
10.0
 16
0.0
 26
0.0
 36
1.0
 17
0.0
 27
0.0
 37
0.0
 40
18.86451
 41
1.65
 42
50.0
 43
0.0
 44
0.0
 50
0.0
 51
0.0
 71
     0
 72
   100
 73
     1
 74
     0
 75
     0
 76
     0
 77
     0
 78
     2
  0
ENDTAB
  0
TABLE
  2
LTYPE
 70
     1
  0
LTYPE
  2
CONTINUOUS
 70
    64
  3
Solid line
 72
    65
 73
     0
 40
0.0
  0
ENDTAB
  0
TABLE
  2
LAYER
 70
     2
  0
LAYER
  2
0
 70
    64
 62
     7
  6
CONTINUOUS
  0
LAYER
  2
MESURA
 70
    64
 62
     7
  6
CONTINUOUS
  0
ENDTAB
  0
TABLE
  2
STYLE
 70
     2
  0
STYLE
  2
STANDARD
 70
     0
 40
0.0
 41
1.0
 50
0.0
 71
     0
 42
0.1
  3
txt
  4

  0
STYLE
  2
ROMANC
 70
    64
 40
0.0
 41
1.0
 50
0.0
 71
     0
 42
0.1
  3
romanc
  4

  0
ENDTAB
  0
TABLE
  2
VIEW
 70
     0
  0
ENDTAB
  0
TABLE
  2
UCS
 70
     0
  0
ENDTAB
  0
TABLE
  2
APPID
 70
     1
  0
APPID
  2
ACAD
 70
    64
  0
ENDTAB
  0
TABLE
  2
DIMSTYLE
 70
     0
  0
ENDTAB
  0
ENDSEC
  0
SECTION
  2
BLOCKS
  0
ENDSEC
  0
SECTION
  2
ENTITIES
  0
TEXT
  8
0
 10
220.678184
 20
75.035938
 30
0.0
 40
0.3
  1
P = 45.8 dm
  7
ROMANC
  0
TEXT
  8
0
 10
220.701275
 20
76.263607
 30
0.0
 40
0.3
  1
ESCALA  1:50
  7
ROMANC
  0
TEXT
  8
0
 10
220.701275
 20
76.749322
 30
0.0
 40
0.3
  1
TIPUS   NT133
  7
ROMANC
  0
LINE
  8
0
 10
228.671302
 20
79.153462
 30
0.0
 11
218.171302
 21
79.153462
 31
0.0
  0
TEXT
  8
0
 10
220.714369
 20
75.665017
 30
0.0
 40
0.3
  1
S =  133 dm
  7
ROMANC
  0
LINE
  8
0
 10
218.171302
 20
64.303462
 30
0.0
 11
228.671302
 21
64.303462
 31
0.0
  0
LINE
  8
0
 10
218.171302
 20
79.153462
 30
0.0
 11
218.171302
 21
64.303462
 31
0.0
  0
LINE
  8
0
 10
228.671302
 20
64.303462
 30
0.0
 11
228.671302
 21
79.153462
 31
0.0
  0
TEXT
  8
0
 10
222.783443
 20
71.607809
 30
0.0
 40
0.1
  1
0.96
  7
ROMANC
  0
LINE
  8
MESURA
  6
BYBLOCK
 62
     0
 10
222.375247
 20
71.348185
 30
0.0
 11
222.575247
 21
71.548185
 31
0.0
  0
LINE
  8
MESURA
  6
BYBLOCK
 62
     0
 10
223.334526
 20
71.348185
 30
0.0
 11
223.534526
 21
71.548185
 31
0.0
  0
LINE
  8
0
 10
223.439309
 20
70.37327
 30
0.0
 11
223.439309
 21
71.453504
 31
0.0
  0
LINE
  8
0
 10
222.480028
 20
70.361697
 30
0.0
 11
222.480028
 21
71.453504
 31
0.0
  0
LINE
  8
0
 10
222.480028
 20
71.453504
 30
0.0
 11
223.439309
 21
71.453504
 31
0.0
  0
TEXT
  8
0
 10
222.80479
 20
67.858614
 30
0.0
 40
0.1
  1
0.65
  7
ROMANC
  0
LINE
  8
0
 10
223.290943
 20
69.338328
 30
0.0
 11
223.290943
 21
68.163793
 31
0.0
  0
LINE
  8
MESURA
  6
BYBLOCK
 62
     0
 10
223.190943
 20
68.063793
 30
0.0
 11
223.390943
 21
68.263793
 31
0.0
  0
LINE
  8
0
 10
222.740581
 20
69.338328
 30
0.0
 11
222.740581
 21
68.61288
 31
0.0
  0
LINE
  8
0
 10
223.153352
 20
68.61288
 30
0.0
 11
223.153352
 21
69.338328
 31
0.0
  0
LINE
  8
0
 10
223.153352
 20
68.61288
 30
0.0
 11
222.740581
 21
68.61288
 31
0.0
  0
LINE
  8
0
 10
222.621336
 20
69.338328
 30
0.0
 11
222.621336
 21
68.163793
 31
0.0
  0
LINE
  8
MESURA
  6
BYBLOCK
 62
     0
 10
222.521336
 20
68.063793
 30
0.0
 11
222.721336
 21
68.263793
 31
0.0
  0
LINE
  8
MESURA
  6
BYBLOCK
 62
     0
 10
222.640581
 20
68.51288
 30
0.0
 11
222.840581
 21
68.71288
 31
0.0
  0
LINE
  8
MESURA
  6
BYBLOCK
 62
     0
 10
223.053352
 20
68.51288
 30
0.0
 11
223.253352
 21
68.71288
 31
0.0
  0
TEXT
  8
0
 10
222.80479
 20
68.405609
 30
0.0
 40
0.1
  1
0.40
  7
ROMANC
  0
LINE
  8
0
 10
223.290943
 20
68.163793
 30
0.0
 11
222.621336
 21
68.163793
 31
0.0
  0
LINE
  8
0
 10
224.632945
 20
70.406967
 30
0.0
 11
223.438359
 21
70.406967
 31
0.0
  0
LINE
  8
0
 10
224.632945
 20
69.196958
 30
0.0
 11
224.632945
 21
71.002805
 31
0.0
  0
LINE
  8
0
 10
223.151187
 20
69.343626
 30
0.0
 11
224.632945
 21
69.343626
 31
0.0
  0
LINE
  8
MESURA
  6
BYBLOCK
 62
     0
 10
224.532945
 20
69.096958
 30
0.0
 11
224.732945
 21
69.296958
 31
0.0
  0
LINE
  8
MESURA
  6
BYBLOCK
 62
     0
 10
224.532945
 20
69.243626
 30
0.0
 11
224.732945
 21
69.443626
 31
0.0
  0
LINE
  8
MESURA
  6
BYBLOCK
 62
     0
 10
224.532945
 20
70.306967
 30
0.0
 11
224.732945
 21
70.506967
 31
0.0
  0
LINE
  8
MESURA
  6
BYBLOCK
 62
     0
 10
224.532945
 20
70.902805
 30
0.0
 11
224.732945
 21
71.102805
 31
0.0
  0
LINE
  8
0
 10
223.032945
 20
69.196958
 30
0.0
 11
224.632945
 21
69.196958
 31
0.0
  0
LINE
  8
0
 10
223.032945
 20
70.993638
 30
0.0
 11
224.632945
 21
71.002805
 31
0.0
  0
TEXT
  8
0
 10
225.030755
 20
70.663635
 30
0.0
 40
0.1
  1
0.63
  7
ROMANC
  0
TEXT
  8
0
 10
225.030755
 20
69.783629
 30
0.0
 40
0.1
  1
1.0
  7
ROMANC
  0
TEXT
  8
0
 10
225.030755
 20
69.251958
 30
0.0
 40
0.1
  1
0.15
  7
ROMANC
  0
TEXT
  8
0
 10
224.237487
 20
75.978329
 30
0.0
 40
0.1
  1
2
  7
ROMANC
  0
ARC
  8
0
 10
222.952105
 20
69.47384
 30
0.0
 40
0.265793
 50
270.0
 51
287.257939
  0
ARC
  8
0
 10
222.969763
 20
69.416998
 30
0.0
 40
0.206271
 50
287.257939
 51
306.869898
  0
ARC
  8
0
 10
222.996804
 20
69.380943
 30
0.0
 40
0.161203
 50
306.869898
 51
331.088799
  0
ARC
  8
0
 10
223.038261
 20
69.358047
 30
0.0
 40
0.113843
 50
331.088799
 51
359.437353
  0
LINE
  8
0
 10
223.152099
 20
69.356929
 30
0.0
 11
223.277099
 21
69.356929
 31
0.0
  0
LINE
  8
0
 10
223.277099
 20
69.356929
 30
0.0
 11
223.439309
 21
70.37327
 31
0.0
  0
LINE
  8
0
 10
223.439309
 20
70.37327
 30
0.0
 11
223.439309
 21
70.37327
 31
0.0
  0
ARC
  8
0
 10
222.64355
 20
70.367681
 30
0.0
 40
0.795779
 50
0.402395
 51
17.67204
  0
ARC
  8
0
 10
222.784672
 20
70.414501
 30
0.0
 40
0.647106
 50
17.515242
 51
37.303948
  0
ARC
  8
0
 10
222.891857
 20
70.496166
 30
0.0
 40
0.512355
 50
37.303948
 51
61.469051
  0
ARC
  8
0
 10
222.959989
 20
70.621488
 30
0.0
 40
0.36971
 50
61.469051
 51
90.0
  0
ARC
  8
0
 10
222.959989
 20
70.621488
 30
0.0
 40
0.36971
 50
90.0
 51
118.530949
  0
ARC
  8
0
 10
223.028121
 20
70.496166
 30
0.0
 40
0.512355
 50
118.530949
 51
142.696052
  0
ARC
  8
0
 10
223.135307
 20
70.414501
 30
0.0
 40
0.647106
 50
142.696052
 51
162.484758
  0
ARC
  8
0
 10
223.302588
 20
70.361576
 30
0.0
 40
0.82256
 50
162.475925
 51
179.991521
  0
LINE
  8
0
 10
222.480028
 20
70.361697
 30
0.0
 11
222.62711
 21
69.356929
 31
0.0
  0
LINE
  8
0
 10
222.62711
 20
69.356929
 30
0.0
 11
222.75211
 21
69.356929
 31
0.0
  0
ARC
  8
0
 10
222.865948
 20
69.358047
 30
0.0
 40
0.113843
 50
180.562647
 51
208.911201
  0
ARC
  8
0
 10
222.907405
 20
69.380943
 30
0.0
 40
0.161203
 50
208.911201
 51
233.130102
  0
ARC
  8
0
 10
222.934446
 20
69.416998
 30
0.0
 40
0.206271
 50
233.130102
 51
252.742061
  0
ARC
  8
0
 10
222.952105
 20
69.47384
 30
0.0
 40
0.265793
 50
252.742061
 51
270.0
  0
ARC
  8
0
 10
222.952105
 20
69.47384
 30
0.0
 40
0.255793
 50
270.0
 51
287.257939
  0
ARC
  8
0
 10
222.969763
 20
69.416998
 30
0.0
 40
0.196271
 50
287.257939
 51
306.869898
  0
ARC
  8
0
 10
222.996804
 20
69.380943
 30
0.0
 40
0.151203
 50
306.869898
 51
331.088799
  0
ARC
  8
0
 10
223.038261
 20
69.358047
 30
0.0
 40
0.103843
 50
331.088799
 51
4.906704
  0
LINE
  8
0
 10
223.141724
 20
69.366929
 30
0.0
 11
223.268569
 21
69.366929
 31
0.0
  0
LINE
  8
0
 10
223.268569
 20
69.366929
 30
0.0
 11
223.429303
 21
70.374025
 31
0.0
  0
ARC
  8
0
 10
222.643459
 20
70.367666
 30
0.0
 40
0.78587
 50
0.463593
 51
17.673029
  0
ARC
  8
0
 10
222.784672
 20
70.414501
 30
0.0
 40
0.637106
 50
17.515242
 51
37.303948
  0
ARC
  8
0
 10
222.891857
 20
70.496166
 30
0.0
 40
0.502355
 50
37.303948
 51
61.469051
  0
ARC
  8
0
 10
222.959989
 20
70.621488
 30
0.0
 40
0.35971
 50
61.469051
 51
90.0
  0
ARC
  8
0
 10
222.959989
 20
70.621488
 30
0.0
 40
0.35971
 50
90.0
 51
118.530949
  0
ARC
  8
0
 10
223.028121
 20
70.496166
 30
0.0
 40
0.502355
 50
118.530949
 51
142.696052
  0
ARC
  8
0
 10
223.135311
 20
70.414499
 30
0.0
 40
0.63711
 50
142.696121
 51
162.484827
  0
ARC
  8
0
 10
223.302588
 20
70.361576
 30
0.0
 40
0.81256
 50
162.475925
 51
179.940289
  0
LINE
  8
0
 10
222.490028
 20
70.362422
 30
0.0
 11
222.635753
 21
69.366929
 31
0.0
  0
LINE
  8
0
 10
222.635753
 20
69.366929
 30
0.0
 11
222.762485
 21
69.366929
 31
0.0
  0
ARC
  8
0
 10
222.865948
 20
69.358047
 30
0.0
 40
0.103843
 50
175.093296
 51
208.911201
  0
ARC
  8
0
 10
222.907405
 20
69.380943
 30
0.0
 40
0.151203
 50
208.911201
 51
233.130102
  0
ARC
  8
0
 10
222.934446
 20
69.416998
 30
0.0
 40
0.196271
 50
233.130102
 51
252.742061
  0
ARC
  8
0
 10
222.952105
 20
69.47384
 30
0.0
 40
0.255793
 50
252.742061
 51
270.0
  0
ARC
  8
0
 10
222.952105
 20
69.47384
 30
0.0
 40
0.275793
 50
270.0
 51
287.257939
  0
ARC
  8
0
 10
222.969763
 20
69.416998
 30
0.0
 40
0.216271
 50
287.257939
 51
306.869898
  0
ARC
  8
0
 10
222.996804
 20
69.380943
 30
0.0
 40
0.171203
 50
306.869898
 51
331.088799
  0
ARC
  8
0
 10
223.038261
 20
69.358047
 30
0.0
 40
0.123843
 50
331.088799
 51
354.849382
  0
LINE
  8
0
 10
223.161605
 20
69.346929
 30
0.0
 11
223.28563
 21
69.346929
 31
0.0
  0
LINE
  8
0
 10
223.28563
 20
69.346929
 30
0.0
 11
223.449315
 21
70.372509
 31
0.0
  0
ARC
  8
0
 10
222.64355
 20
70.367681
 30
0.0
 40
0.805779
 50
0.343313
 51
17.671068
  0
ARC
  8
0
 10
222.784672
 20
70.414501
 30
0.0
 40
0.657106
 50
17.516436
 51
37.303948
  0
ARC
  8
0
 10
222.891857
 20
70.496166
 30
0.0
 40
0.522355
 50
37.303948
 51
61.469051
  0
ARC
  8
0
 10
222.959989
 20
70.621488
 30
0.0
 40
0.37971
 50
61.469051
 51
90.0
  0
ARC
  8
0
 10
222.959989
 20
70.621488
 30
0.0
 40
0.37971
 50
90.0
 51
118.530949
  0
ARC
  8
0
 10
223.028121
 20
70.496166
 30
0.0
 40
0.522355
 50
118.530949
 51
142.696052
  0
ARC
  8
0
 10
223.135307
 20
70.414501
 30
0.0
 40
0.657106
 50
142.696052
 51
162.484691
  0
ARC
  8
0
 10
223.302588
 20
70.361576
 30
0.0
 40
0.83256
 50
162.475978
 51
180.041826
  0
LINE
  8
0
 10
222.470028
 20
70.360968
 30
0.0
 11
222.618467
 21
69.346929
 31
0.0
  0
LINE
  8
0
 10
222.618467
 20
69.346929
 30
0.0
 11
222.742605
 21
69.346929
 31
0.0
  0
ARC
  8
0
 10
222.865948
 20
69.358047
 30
0.0
 40
0.123843
 50
185.150618
 51
208.911201
  0
ARC
  8
0
 10
222.907405
 20
69.380943
 30
0.0
 40
0.171203
 50
208.911201
 51
233.130102
  0
ARC
  8
0
 10
222.934446
 20
69.416998
 30
0.0
 40
0.216271
 50
233.130102
 51
252.742061
  0
ARC
  8
0
 10
222.952105
 20
69.47384
 30
0.0
 40
0.275793
 50
252.742061
 51
270.0
  0
ENDSEC
  0
EOF
