  0
SECTION
  2
HEADER
  9
$ACADVER
  1
AC1009
  9
$INSBASE
 10
0.0
 20
0.0
 30
0.0
  9
$EXTMIN
 10
281.396000
 20
29.897000
 30
-2147483.648000
  9
$EXTMAX
 10
291.896000
 20
44.747000
 30
0.000000
  9
$LIMMIN
 10
280.396000
 20
28.897000
  9
$LIMMAX
 10
292.896000
 20
43.747000
  9
$ORTHOMODE
 70
     0
  9
$REGENMODE
 70
     1
  9
$FILLMODE
 70
     1
  9
$QTEXTMODE
 70
     0
  9
$MIRRTEXT
 70
     1
  9
$DRAGMODE
 70
     2
  9
$LTSCALE
 40
1.0
  9
$OSMODE
 70
     0
  9
$ATTMODE
 70
     1
  9
$TEXTSIZE
 40
0.2
  9
$TRACEWID
 40
0.05
  9
$TEXTSTYLE
  7
STANDARD
  9
$CLAYER
  8
0
  9
$CELTYPE
  6
BYLAYER
  9
$CECOLOR
 62
   256
  9
$DIMSCALE
 40
1.0
  9
$DIMASZ
 40
0.18
  9
$DIMEXO
 40
0.0625
  9
$DIMDLI
 40
0.38
  9
$DIMRND
 40
0.0
  9
$DIMDLE
 40
0.0
  9
$DIMEXE
 40
0.18
  9
$DIMTP
 40
0.0
  9
$DIMTM
 40
0.0
  9
$DIMTXT
 40
0.18
  9
$DIMCEN
 40
0.09
  9
$DIMTSZ
 40
0.0
  9
$DIMTOL
 70
     0
  9
$DIMLIM
 70
     0
  9
$DIMTIH
 70
     1
  9
$DIMTOH
 70
     1
  9
$DIMSE1
 70
     0
  9
$DIMSE2
 70
     0
  9
$DIMTAD
 70
     0
  9
$DIMZIN
 70
     0
  9
$DIMBLK
  1

  9
$DIMASO
 70
     1
  9
$DIMSHO
 70
     1
  9
$DIMPOST
  1

  9
$DIMAPOST
  1

  9
$DIMALT
 70
     0
  9
$DIMALTD
 70
     2
  9
$DIMALTF
 40
25.4
  9
$DIMLFAC
 40
1.0
  9
$DIMTOFL
 70
     0
  9
$DIMTVP
 40
0.0
  9
$DIMTIX
 70
     0
  9
$DIMSOXD
 70
     0
  9
$DIMSAH
 70
     0
  9
$DIMBLK1
  1

  9
$DIMBLK2
  1

  9
$DIMSTYLE
  2
*UNNAMED
  9
$DIMCLRD
 70
     0
  9
$DIMCLRE
 70
     0
  9
$DIMCLRT
 70
     0
  9
$DIMTFAC
 40
1.0
  9
$DIMGAP
 40
0.09
  9
$LUNITS
 70
     2
  9
$LUPREC
 70
     4
  9
$AXISMODE
 70
     0
  9
$AXISUNIT
 10
0.0
 20
0.0
  9
$SKETCHINC
 40
0.1
  9
$FILLETRAD
 40
0.0
  9
$AUNITS
 70
     0
  9
$AUPREC
 70
     0
  9
$MENU
  1
acad
  9
$ELEVATION
 40
0.0
  9
$PELEVATION
 40
0.0
  9
$THICKNESS
 40
0.0
  9
$LIMCHECK
 70
     0
  9
$BLIPMODE
 70
     1
  9
$CHAMFERA
 40
0.0
  9
$CHAMFERB
 40
0.0
  9
$SKPOLY
 70
     0
  9
$TDCREATE
 40
2448315.373408102
  9
$TDUPDATE
 40
2448315.373408102
  9
$TDINDWG
 40
0.0000000000
  9
$TDUSRTIMER
 40
0.0000000000
  9
$USRTIMER
 70
     1
  9
$ANGBASE
 50
0.0
  9
$ANGDIR
 70
     0
  9
$PDMODE
 70
     0
  9
$PDSIZE
 40
0.0
  9
$PLINEWID
 40
0.0
  9
$COORDS
 70
     0
  9
$SPLFRAME
 70
     0
  9
$SPLINETYPE
 70
     6
  9
$SPLINESEGS
 70
     8
  9
$ATTDIA
 70
     0
  9
$ATTREQ
 70
     1
  9
$HANDLING
 70
     0
  9
$HANDSEED
  5
0
  9
$SURFTAB1
 70
     6
  9
$SURFTAB2
 70
     6
  9
$SURFTYPE
 70
     6
  9
$SURFU
 70
     6
  9
$SURFV
 70
     6
  9
$UCSNAME
  2

  9
$UCSORG
 10
0.0
 20
0.0
 30
0.0
  9
$UCSXDIR
 10
1.0
 20
0.0
 30
0.0
  9
$UCSYDIR
 10
0.0
 20
1.0
 30
0.0
  9
$PUCSNAME
  2

  9
$PUCSORG
 10
0.0
 20
0.0
 30
0.0
  9
$PUCSXDIR
 10
1.0
 20
0.0
 30
0.0
  9
$PUCSYDIR
 10
0.0
 20
1.0
 30
0.0
  9
$USERI1
 70
     0
  9
$USERI2
 70
     0
  9
$USERI3
 70
     0
  9
$USERI4
 70
     0
  9
$USERI5
 70
     0
  9
$USERR1
 40
0.0
  9
$USERR2
 40
0.0
  9
$USERR3
 40
0.0
  9
$USERR4
 40
0.0
  9
$USERR5
 40
0.0
  9
$WORLDVIEW
 70
     1
  9
$SHADEDGE
 70
     3
  9
$SHADEDIF
 70
    70
  9
$TILEMODE
 70
     1
  9
$MAXACTVP
 70
    16
  9
$PINSBASE
 10
0.0
 20
0.0
 30
0.0
  9
$PLIMCHECK
 70
     0
  9
$PEXTMIN
 10
1.000000E+20
 20
1.000000E+20
 30
1.000000E+20
  9
$PEXTMAX
 10
-1.000000E+20
 20
-1.000000E+20
 30
-1.000000E+20
  9
$PLIMMIN
 10
0.0
 20
0.0
  9
$PLIMMAX
 10
12.0
 20
9.0
  9
$UNITMODE
 70
     0
  9
$VISRETAIN
 70
     0
  0
ENDSEC
  0
SECTION
  2
TABLES
  0
TABLE
  2
LTYPE
 70
    1
  0
LTYPE
  2
CONTINUOUS
 70
    64
  3
Solid Line
 72
    65
 73
0
 40
0.0
  0
ENDTAB
  0
TABLE
  2
LAYER
 70
    8
  0
LAYER
  2
0
 70
    64
 62
7
  6
CONTINUOUS
  0
LAYER
  2
1
 70
    64
 62
7
  6
CONTINUOUS
  0
LAYER
  2
7
 70
    64
 62
7
  6
CONTINUOUS
  0
LAYER
  2
8
 70
    64
 62
7
  6
CONTINUOUS
  0
LAYER
  2
9
 70
    64
 62
7
  6
CONTINUOUS
  0
LAYER
  2
22
 70
    64
 62
7
  6
CONTINUOUS
  0
LAYER
  2
25
 70
    64
 62
7
  6
CONTINUOUS
  0
LAYER
  2
0
 70
    64
 62
7
  6
CONTINUOUS
  0
ENDTAB
  0
TABLE
  2
STYLE
 70
    1
  0
STYLE
  2
ROMANC
70
     0
 40
0.0
 41
1.0
 50
0.0
 71
     0
 42
0.2
  3
ROMANC
  4

  0
ENDTAB
  0
ENDSEC
  0
SECTION
  2
BLOCKS
  0
ENDSEC
  0
SECTION
  2
ENTITIES
  0
TEXT
  8
0
  6
*CONTINUOUS,SOLID
 40
0.100000
 10
286.925000
 20
41.325000
  1
2
  7
ROMANC
  0
TEXT
  8
0
  6
*CONTINUOUS,SOLID
 40
0.300000
 10
283.926000
 20
41.768000
  1
ESCALA  1:50
  7
ROMANC
  0
POLYLINE
  8
0
  6
*CONTINUOUS,SOLID
 66
     1
 70
     1
  0
VERTEX
  8
0
  6
*CONTINUOUS,SOLID
 10
281.396000
 20
44.747000
  0
VERTEX
  8
0
  6
*CONTINUOUS,SOLID
 10
291.896000
 20
44.747000
  0
VERTEX
  8
0
  6
*CONTINUOUS,SOLID
 10
291.896000
 20
29.897000
  0
VERTEX
  8
0
  6
*CONTINUOUS,SOLID
 10
281.396000
 20
29.897000
  0
SEQEND
  8
0
  0
TEXT
  8
0
  6
*CONTINUOUS,SOLID
 40
0.300000
 10
283.945000
 20
41.099000
  1
S = 132 dm
  7
ROMANC
  0
TEXT
  8
0
  6
*CONTINUOUS,SOLID
 40
0.300000
 10
283.922000
 20
40.529000
  1
P = 47 dm
  7
ROMANC
  0
TEXT
  8
0
  6
*CONTINUOUS,SOLID
 40
0.300000
 10
283.926000
 20
42.381000
  1
TIPUS   NT132B
  7
ROMANC
  0
POLYLINE
  8
1
  6
*CONTINUOUS,SOLID
 66
     1
 70
     0
  0
VERTEX
  8
1
  6
*CONTINUOUS,SOLID
 10
285.753000
 20
35.867000
 42
0.024503
  0
VERTEX
  8
1
  6
*CONTINUOUS,SOLID
 10
285.754912
 20
35.827986
 42
0.025057
  0
VERTEX
  8
1
  6
*CONTINUOUS,SOLID
 10
285.760667
 20
35.789354
 42
0.025427
  0
VERTEX
  8
1
  6
*CONTINUOUS,SOLID
 10
285.770008
 20
35.752583
 42
0.027129
  0
VERTEX
  8
1
  6
*CONTINUOUS,SOLID
 10
285.783144
 20
35.717000
 42
0.027894
  0
VERTEX
  8
1
  6
*CONTINUOUS,SOLID
 10
285.799207
 20
35.684880
 42
0.030788
  0
VERTEX
  8
1
  6
*CONTINUOUS,SOLID
 10
285.818901
 20
35.654868
 42
0.031954
  0
VERTEX
  8
1
  6
*CONTINUOUS,SOLID
 10
285.840597
 20
35.629447
 42
0.035805
  0
VERTEX
  8
1
  6
*CONTINUOUS,SOLID
 10
285.865500
 20
35.607192
 42
0.037204
  0
VERTEX
  8
1
  6
*CONTINUOUS,SOLID
 10
285.891476
 20
35.590088
 42
0.040948
  0
VERTEX
  8
1
  6
*CONTINUOUS,SOLID
 10
285.919766
 20
35.577222
 42
0.042016
  0
VERTEX
  8
1
  6
*CONTINUOUS,SOLID
 10
285.948452
 20
35.569625
 42
0.043662
  0
VERTEX
  8
1
  6
*CONTINUOUS,SOLID
 10
285.978000
 20
35.567000
 42
0.043662
  0
VERTEX
  8
1
  6
*CONTINUOUS,SOLID
 10
286.007548
 20
35.569625
 42
0.042016
  0
VERTEX
  8
1
  6
*CONTINUOUS,SOLID
 10
286.036234
 20
35.577222
 42
0.040948
  0
VERTEX
  8
1
  6
*CONTINUOUS,SOLID
 10
286.064524
 20
35.590088
 42
0.037204
  0
VERTEX
  8
1
  6
*CONTINUOUS,SOLID
 10
286.090500
 20
35.607192
 42
0.035805
  0
VERTEX
  8
1
  6
*CONTINUOUS,SOLID
 10
286.115403
 20
35.629447
 42
0.031954
  0
VERTEX
  8
1
  6
*CONTINUOUS,SOLID
 10
286.137099
 20
35.654868
 42
0.030788
  0
VERTEX
  8
1
  6
*CONTINUOUS,SOLID
 10
286.156793
 20
35.684880
 42
0.027894
  0
VERTEX
  8
1
  6
*CONTINUOUS,SOLID
 10
286.172856
 20
35.717000
 42
0.027129
  0
VERTEX
  8
1
  6
*CONTINUOUS,SOLID
 10
286.185992
 20
35.752583
 42
0.025427
  0
VERTEX
  8
1
  6
*CONTINUOUS,SOLID
 10
286.195333
 20
35.789354
 42
0.025057
  0
VERTEX
  8
1
  6
*CONTINUOUS,SOLID
 10
286.201088
 20
35.827986
 42
0.024503
  0
VERTEX
  8
1
  6
*CONTINUOUS,SOLID
 10
286.203000
 20
35.867000
  0
SEQEND
  8
0
  0
LINE
  8
1
  6
*CONTINUOUS,SOLID
 10
285.593000
 20
36.817000
 11
285.593000
 21
35.857000
  0
LINE
  8
1
  6
*CONTINUOUS,SOLID
 10
285.583000
 20
36.817000
 11
285.583000
 21
35.847000
  0
ARC
  8
1
  6
*CONTINUOUS,SOLID
 10
286.053000
 20
36.864500
 40
0.462500
 50
353.974425
 51
546.025575
  0
ARC
  8
1
  6
*CONTINUOUS,SOLID
 10
286.053000
 20
36.864500
 40
0.472500
 50
353.974425
 51
546.025575
  0
LINE
  8
1
  6
*CONTINUOUS,SOLID
 10
286.513000
 20
35.857000
 11
286.513000
 21
36.817000
  0
LINE
  8
1
  6
*CONTINUOUS,SOLID
 10
286.523000
 20
35.847000
 11
286.523000
 21
36.817000
  0
LINE
  8
1
  6
*CONTINUOUS,SOLID
 10
286.213000
 20
35.857000
 11
286.513000
 21
35.857000
  0
LINE
  8
1
  6
*CONTINUOUS,SOLID
 10
286.223000
 20
35.847000
 11
286.523000
 21
35.847000
  0
LINE
  8
1
  6
*CONTINUOUS,SOLID
 10
285.593000
 20
35.857000
 11
285.743000
 21
35.857000
  0
LINE
  8
1
  6
*CONTINUOUS,SOLID
 10
285.583000
 20
35.847000
 11
285.733000
 21
35.847000
  0
POLYLINE
  8
1
  6
*CONTINUOUS,SOLID
 66
     1
 70
     0
  0
VERTEX
  8
1
  6
*CONTINUOUS,SOLID
 10
285.743122
 20
35.857000
 42
0.026494
  0
VERTEX
  8
1
  6
*CONTINUOUS,SOLID
 10
285.746446
 20
35.814117
 42
0.027313
  0
VERTEX
  8
1
  6
*CONTINUOUS,SOLID
 10
285.754345
 20
35.771842
 42
0.027809
  0
VERTEX
  8
1
  6
*CONTINUOUS,SOLID
 10
285.766409
 20
35.732130
 42
0.030008
  0
VERTEX
  8
1
  6
*CONTINUOUS,SOLID
 10
285.782955
 20
35.694083
 42
0.030980
  0
VERTEX
  8
1
  6
*CONTINUOUS,SOLID
 10
285.802746
 20
35.660483
 42
0.034548
  0
VERTEX
  8
1
  6
*CONTINUOUS,SOLID
 10
285.826729
 20
35.629766
 42
0.035958
  0
VERTEX
  8
1
  6
*CONTINUOUS,SOLID
 10
285.852763
 20
35.604707
 42
0.040323
  0
VERTEX
  8
1
  6
*CONTINUOUS,SOLID
 10
285.882262
 20
35.583892
 42
0.041809
  0
VERTEX
  8
1
  6
*CONTINUOUS,SOLID
 10
285.912729
 20
35.569227
 42
0.045150
  0
VERTEX
  8
1
  6
*CONTINUOUS,SOLID
 10
285.945238
 20
35.560027
 42
0.045842
  0
VERTEX
  8
1
  6
*CONTINUOUS,SOLID
 10
285.978000
 20
35.557036
 42
0.045842
  0
VERTEX
  8
1
  6
*CONTINUOUS,SOLID
 10
286.010762
 20
35.560027
 42
0.045150
  0
VERTEX
  8
1
  6
*CONTINUOUS,SOLID
 10
286.043271
 20
35.569227
 42
0.041809
  0
VERTEX
  8
1
  6
*CONTINUOUS,SOLID
 10
286.073738
 20
35.583892
 42
0.040323
  0
VERTEX
  8
1
  6
*CONTINUOUS,SOLID
 10
286.103237
 20
35.604707
 42
0.035958
  0
VERTEX
  8
1
  6
*CONTINUOUS,SOLID
 10
286.129271
 20
35.629766
 42
0.034548
  0
VERTEX
  8
1
  6
*CONTINUOUS,SOLID
 10
286.153254
 20
35.660483
 42
0.030980
  0
VERTEX
  8
1
  6
*CONTINUOUS,SOLID
 10
286.173045
 20
35.694083
 42
0.030008
  0
VERTEX
  8
1
  6
*CONTINUOUS,SOLID
 10
286.189591
 20
35.732130
 42
0.027809
  0
VERTEX
  8
1
  6
*CONTINUOUS,SOLID
 10
286.201655
 20
35.771842
 42
0.027313
  0
VERTEX
  8
1
  6
*CONTINUOUS,SOLID
 10
286.209554
 20
35.814117
 42
0.026494
  0
VERTEX
  8
1
  6
*CONTINUOUS,SOLID
 10
286.212878
 20
35.857000
  0
SEQEND
  8
0
  0
POLYLINE
  8
1
  6
*CONTINUOUS,SOLID
 66
     1
 70
     0
  0
VERTEX
  8
1
  6
*CONTINUOUS,SOLID
 10
285.733479
 20
35.847000
 42
0.026287
  0
VERTEX
  8
1
  6
*CONTINUOUS,SOLID
 10
285.737832
 20
35.803772
 42
0.027184
  0
VERTEX
  8
1
  6
*CONTINUOUS,SOLID
 10
285.746762
 20
35.761259
 42
0.027691
  0
VERTEX
  8
1
  6
*CONTINUOUS,SOLID
 10
285.759811
 20
35.721456
 42
0.029860
  0
VERTEX
  8
1
  6
*CONTINUOUS,SOLID
 10
285.777326
 20
35.683421
 42
0.030802
  0
VERTEX
  8
1
  6
*CONTINUOUS,SOLID
 10
285.798034
 20
35.649874
 42
0.034194
  0
VERTEX
  8
1
  6
*CONTINUOUS,SOLID
 10
285.822887
 20
35.619301
 42
0.035516
  0
VERTEX
  8
1
  6
*CONTINUOUS,SOLID
 10
285.849768
 20
35.594349
 42
0.039544
  0
VERTEX
  8
1
  6
*CONTINUOUS,SOLID
 10
285.880039
 20
35.573693
 42
0.040894
  0
VERTEX
  8
1
  6
*CONTINUOUS,SOLID
 10
285.911286
 20
35.559120
 42
0.043903
  0
VERTEX
  8
1
  6
*CONTINUOUS,SOLID
 10
285.944512
 20
35.550003
 42
0.044517
  0
VERTEX
  8
1
  6
*CONTINUOUS,SOLID
 10
285.978000
 20
35.547034
 42
0.044517
  0
VERTEX
  8
1
  6
*CONTINUOUS,SOLID
 10
286.011488
 20
35.550003
 42
0.043903
  0
VERTEX
  8
1
  6
*CONTINUOUS,SOLID
 10
286.044714
 20
35.559120
 42
0.040894
  0
VERTEX
  8
1
  6
*CONTINUOUS,SOLID
 10
286.075961
 20
35.573693
 42
0.039544
  0
VERTEX
  8
1
  6
*CONTINUOUS,SOLID
 10
286.106232
 20
35.594349
 42
0.035516
  0
VERTEX
  8
1
  6
*CONTINUOUS,SOLID
 10
286.133113
 20
35.619301
 42
0.034194
  0
VERTEX
  8
1
  6
*CONTINUOUS,SOLID
 10
286.157966
 20
35.649874
 42
0.030802
  0
VERTEX
  8
1
  6
*CONTINUOUS,SOLID
 10
286.178674
 20
35.683421
 42
0.029860
  0
VERTEX
  8
1
  6
*CONTINUOUS,SOLID
 10
286.196189
 20
35.721456
 42
0.027691
  0
VERTEX
  8
1
  6
*CONTINUOUS,SOLID
 10
286.209238
 20
35.761259
 42
0.027184
  0
VERTEX
  8
1
  6
*CONTINUOUS,SOLID
 10
286.218168
 20
35.803772
 42
0.026287
  0
VERTEX
  8
1
  6
*CONTINUOUS,SOLID
 10
286.222521
 20
35.847000
  0
SEQEND
  8
0
  0
LINE
  8
1
  6
*CONTINUOUS,SOLID
 10
285.603000
 20
35.867000
 11
285.753000
 21
35.867000
  0
TEXT
  8
1
  6
*CONTINUOUS,SOLID
 40
0.075000
 10
285.197000
 20
35.320000
  1
0.15
  7
ROMANC
  0
LINE
  8
1
  6
*CONTINUOUS,SOLID
 10
285.530000
 20
35.358000
 11
285.603000
 21
35.358000
  0
LINE
  8
1
  6
*CONTINUOUS,SOLID
 10
285.903000
 20
35.358000
 11
285.753000
 21
35.358000
  0
LINE
  8
1
  6
*CONTINUOUS,SOLID
 10
285.640000
 20
35.377000
 11
285.566000
 21
35.339000
  0
LINE
  8
1
  6
*CONTINUOUS,SOLID
 10
285.716000
 20
35.339000
 11
285.790000
 21
35.377000
  0
LINE
  8
1
  6
*CONTINUOUS,SOLID
 10
285.603000
 20
35.829000
 11
285.603000
 21
35.320000
  0
LINE
  8
1
  6
*CONTINUOUS,SOLID
 10
285.753000
 20
35.829000
 11
285.753000
 21
35.320000
  0
LINE
  8
1
  6
*CONTINUOUS,SOLID
 10
286.203000
 20
35.867000
 11
286.503000
 21
35.867000
  0
TEXT
  8
1
  6
*CONTINUOUS,SOLID
 40
0.075000
 10
285.856000
 20
35.046000
  1
0.45
  7
ROMANC
  0
LINE
  8
1
  6
*CONTINUOUS,SOLID
 10
285.603000
 20
35.084000
 11
285.753000
 21
35.084000
  0
LINE
  8
1
  6
*CONTINUOUS,SOLID
 10
286.353000
 20
35.084000
 11
286.203000
 21
35.084000
  0
LINE
  8
1
  6
*CONTINUOUS,SOLID
 10
285.790000
 20
35.103000
 11
285.716000
 21
35.065000
  0
LINE
  8
1
  6
*CONTINUOUS,SOLID
 10
286.166000
 20
35.065000
 11
286.240000
 21
35.103000
  0
LINE
  8
1
  6
*CONTINUOUS,SOLID
 10
285.753000
 20
35.829000
 11
285.753000
 21
35.046000
  0
LINE
  8
1
  6
*CONTINUOUS,SOLID
 10
286.203000
 20
35.829000
 11
286.203000
 21
35.046000
  0
LINE
  8
1
  6
*CONTINUOUS,SOLID
 10
286.503000
 20
35.867000
 11
286.503000
 21
36.817000
  0
TEXT
  8
1
  6
*CONTINUOUS,SOLID
 40
0.075000
 10
286.703000
 20
35.320000
  1
0.30
  7
ROMANC
  0
LINE
  8
1
  6
*CONTINUOUS,SOLID
 10
286.053000
 20
35.358000
 11
286.203000
 21
35.358000
  0
LINE
  8
1
  6
*CONTINUOUS,SOLID
 10
286.665000
 20
35.358000
 11
286.503000
 21
35.358000
  0
LINE
  8
1
  6
*CONTINUOUS,SOLID
 10
286.240000
 20
35.377000
 11
286.166000
 21
35.339000
  0
LINE
  8
1
  6
*CONTINUOUS,SOLID
 10
286.466000
 20
35.339000
 11
286.540000
 21
35.377000
  0
LINE
  8
1
  6
*CONTINUOUS,SOLID
 10
286.203000
 20
35.829000
 11
286.203000
 21
35.320000
  0
LINE
  8
1
  6
*CONTINUOUS,SOLID
 10
286.503000
 20
35.829000
 11
286.503000
 21
35.320000
  0
LINE
  8
1
  6
*CONTINUOUS,SOLID
 10
285.603000
 20
36.817000
 11
285.603000
 21
35.867000
  0
TEXT
  8
1
  6
*CONTINUOUS,SOLID
 40
0.075000
 10
285.934000
 20
34.740000
  1
0.90
  7
ROMANC
  0
LINE
  8
1
  6
*CONTINUOUS,SOLID
 10
285.896000
 20
34.778000
 11
285.603000
 21
34.778000
  0
LINE
  8
1
  6
*CONTINUOUS,SOLID
 10
286.208000
 20
34.778000
 11
286.503000
 21
34.778000
  0
LINE
  8
1
  6
*CONTINUOUS,SOLID
 10
285.566000
 20
34.759000
 11
285.640000
 21
34.797000
  0
LINE
  8
1
  6
*CONTINUOUS,SOLID
 10
286.540000
 20
34.797000
 11
286.466000
 21
34.759000
  0
LINE
  8
1
  6
*CONTINUOUS,SOLID
 10
285.603000
 20
35.829000
 11
285.603000
 21
34.740000
  0
LINE
  8
1
  6
*CONTINUOUS,SOLID
 10
286.503000
 20
35.829000
 11
286.503000
 21
34.740000
  0
TEXT
  8
1
  6
*CONTINUOUS,SOLID
 40
0.075000
 10
287.122000
 20
36.055000
  1
0.30
 50
90.000000
  7
ROMANC
  0
LINE
  8
1
  6
*CONTINUOUS,SOLID
 10
287.085000
 20
35.941000
 11
287.085000
 21
35.867000
  0
LINE
  8
1
  6
*CONTINUOUS,SOLID
 10
287.085000
 20
35.417000
 11
287.085000
 21
35.567000
  0
LINE
  8
1
  6
*CONTINUOUS,SOLID
 10
287.104000
 20
35.830000
 11
287.066000
 21
35.904000
  0
LINE
  8
1
  6
*CONTINUOUS,SOLID
 10
287.066000
 20
35.604000
 11
287.104000
 21
35.530000
  0
LINE
  8
1
  6
*CONTINUOUS,SOLID
 10
286.241000
 20
35.867000
 11
287.123000
 21
35.867000
  0
LINE
  8
1
  6
*CONTINUOUS,SOLID
 10
286.016000
 20
35.567000
 11
287.123000
 21
35.567000
  0
TEXT
  8
1
  6
*CONTINUOUS,SOLID
 40
0.075000
 10
287.472000
 20
36.223000
  1
0.95
 50
90.000000
  7
ROMANC
  0
LINE
  8
1
  6
*CONTINUOUS,SOLID
 10
287.434000
 20
36.185000
 11
287.434000
 21
35.867000
  0
LINE
  8
1
  6
*CONTINUOUS,SOLID
 10
287.434000
 20
36.497000
 11
287.434000
 21
36.817000
  0
LINE
  8
1
  6
*CONTINUOUS,SOLID
 10
287.453000
 20
35.830000
 11
287.415000
 21
35.904000
  0
LINE
  8
1
  6
*CONTINUOUS,SOLID
 10
287.415000
 20
36.854000
 11
287.453000
 21
36.780000
  0
LINE
  8
1
  6
*CONTINUOUS,SOLID
 10
286.541000
 20
35.867000
 11
287.472000
 21
35.867000
  0
LINE
  8
1
  6
*CONTINUOUS,SOLID
 10
286.541000
 20
36.817000
 11
287.472000
 21
36.817000
  0
ARC
  8
1
  6
*CONTINUOUS,SOLID
 10
286.053000
 20
36.864500
 40
0.452500
 50
353.974425
 51
546.025575
  0
TEXT
  8
1
  6
*CONTINUOUS,SOLID
 40
0.075000
 10
284.990000
 20
36.331000
  1
1.75
 50
90.000000
  7
ROMANC
  0
LINE
  8
1
  6
*CONTINUOUS,SOLID
 10
284.952000
 20
36.293000
 11
284.952000
 21
35.567000
  0
LINE
  8
1
  6
*CONTINUOUS,SOLID
 10
284.952000
 20
36.588000
 11
284.952000
 21
37.315000
  0
LINE
  8
1
  6
*CONTINUOUS,SOLID
 10
284.971000
 20
35.530000
 11
284.933000
 21
35.604000
  0
LINE
  8
1
  6
*CONTINUOUS,SOLID
 10
284.933000
 20
37.352000
 11
284.971000
 21
37.278000
  0
LINE
  8
1
  6
*CONTINUOUS,SOLID
 10
285.940000
 20
35.567000
 11
284.914000
 21
35.567000
  0
LINE
  8
1
  6
*CONTINUOUS,SOLID
 10
286.062000
 20
37.315000
 11
284.914000
 21
37.315000
  0
TEXT
  8
1
  6
*CONTINUOUS,SOLID
 40
0.075000
 10
285.934000
 20
37.754000
  1
0.90
  7
ROMANC
  0
LINE
  8
1
  6
*CONTINUOUS,SOLID
 10
285.896000
 20
37.792000
 11
285.603000
 21
37.792000
  0
LINE
  8
1
  6
*CONTINUOUS,SOLID
 10
286.208000
 20
37.792000
 11
286.503000
 21
37.792000
  0
LINE
  8
1
  6
*CONTINUOUS,SOLID
 10
285.566000
 20
37.773000
 11
285.640000
 21
37.811000
  0
LINE
  8
1
  6
*CONTINUOUS,SOLID
 10
286.540000
 20
37.811000
 11
286.466000
 21
37.773000
  0
LINE
  8
1
  6
*CONTINUOUS,SOLID
 10
285.603000
 20
36.950000
 11
285.603000
 21
37.830000
  0
LINE
  8
1
  6
*CONTINUOUS,SOLID
 10
286.503000
 20
36.855000
 11
286.503000
 21
37.830000
  0
ENDSEC
  0
EOF
