  0
SECTION
  2
HEADER
  9
$ACADVER
  1
AC1009
  9
$INSBASE
 10
105.464027
 20
-4.528761
 30
0.0
  9
$EXTMIN
 10
281.395795
 20
29.897444
 30
0.0
  9
$EXTMAX
 10
291.895795
 20
44.747444
 30
0.0
  9
$LIMMIN
 10
0.0
 20
0.0
  9
$LIMMAX
 10
410.0
 20
287.0
  9
$ORTHOMODE
 70
     1
  9
$REGENMODE
 70
     1
  9
$FILLMODE
 70
     1
  9
$QTEXTMODE
 70
     0
  9
$MIRRTEXT
 70
     1
  9
$DRAGMODE
 70
     2
  9
$LTSCALE
 40
25.0
  9
$OSMODE
 70
    32
  9
$ATTMODE
 70
     1
  9
$TEXTSIZE
 40
0.1
  9
$TRACEWID
 40
1.0
  9
$TEXTSTYLE
  7
ROMANC
  9
$CLAYER
  8
0
  9
$CELTYPE
  6
BYLAYER
  9
$CECOLOR
 62
   256
  9
$DIMSCALE
 40
1.5
  9
$DIMASZ
 40
0.1
  9
$DIMEXO
 40
0.01
  9
$DIMDLI
 40
7.0
  9
$DIMRND
 40
0.0
  9
$DIMDLE
 40
0.0
  9
$DIMEXE
 40
0.01
  9
$DIMTP
 40
0.0
  9
$DIMTM
 40
0.0
  9
$DIMTXT
 40
0.05
  9
$DIMCEN
 40
0.1
  9
$DIMTSZ
 40
0.0
  9
$DIMTOL
 70
     0
  9
$DIMLIM
 70
     0
  9
$DIMTIH
 70
     0
  9
$DIMTOH
 70
     0
  9
$DIMSE1
 70
     0
  9
$DIMSE2
 70
     0
  9
$DIMTAD
 70
     1
  9
$DIMZIN
 70
     0
  9
$DIMBLK
  1

  9
$DIMASO
 70
     1
  9
$DIMSHO
 70
     0
  9
$DIMPOST
  1

  9
$DIMAPOST
  1

  9
$DIMALT
 70
     0
  9
$DIMALTD
 70
     2
  9
$DIMALTF
 40
25.4
  9
$DIMLFAC
 40
1.0
  9
$DIMTOFL
 70
     1
  9
$DIMTVP
 40
0.0
  9
$DIMTIX
 70
     1
  9
$DIMSOXD
 70
     0
  9
$DIMSAH
 70
     0
  9
$DIMBLK1
  1

  9
$DIMBLK2
  1

  9
$DIMSTYLE
  2
*UNNAMED
  9
$DIMCLRD
 70
     0
  9
$DIMCLRE
 70
     0
  9
$DIMCLRT
 70
     0
  9
$DIMTFAC
 40
70.0
  9
$DIMGAP
 40
0.09
  9
$LUNITS
 70
     2
  9
$LUPREC
 70
     2
  9
$SKETCHINC
 40
1.0
  9
$FILLETRAD
 40
0.0
  9
$AUNITS
 70
     0
  9
$AUPREC
 70
     0
  9
$MENU
  1
acad
  9
$ELEVATION
 40
0.0
  9
$PELEVATION
 40
0.0
  9
$THICKNESS
 40
0.0
  9
$LIMCHECK
 70
     0
  9
$BLIPMODE
 70
     0
  9
$CHAMFERA
 40
0.0
  9
$CHAMFERB
 40
0.0
  9
$SKPOLY
 70
     0
  9
$TDCREATE
 40
2450305.554557986
  9
$TDUPDATE
 40
2450910.542382176
  9
$TDINDWG
 40
0.1361268519
  9
$TDUSRTIMER
 40
0.1361268519
  9
$USRTIMER
 70
     1
  9
$ANGBASE
 50
0.0
  9
$ANGDIR
 70
     0
  9
$PDMODE
 70
     0
  9
$PDSIZE
 40
0.0
  9
$PLINEWID
 40
0.0
  9
$COORDS
 70
     2
  9
$SPLFRAME
 70
     0
  9
$SPLINETYPE
 70
     6
  9
$SPLINESEGS
 70
     8
  9
$ATTDIA
 70
     0
  9
$ATTREQ
 70
     1
  9
$HANDLING
 70
     0
  9
$HANDSEED
  5
0
  9
$SURFTAB1
 70
     6
  9
$SURFTAB2
 70
     6
  9
$SURFTYPE
 70
     6
  9
$SURFU
 70
     6
  9
$SURFV
 70
     6
  9
$UCSNAME
  2

  9
$UCSORG
 10
0.0
 20
0.0
 30
0.0
  9
$UCSXDIR
 10
1.0
 20
0.0
 30
0.0
  9
$UCSYDIR
 10
0.0
 20
1.0
 30
0.0
  9
$PUCSNAME
  2

  9
$PUCSORG
 10
0.0
 20
0.0
 30
0.0
  9
$PUCSXDIR
 10
1.0
 20
0.0
 30
0.0
  9
$PUCSYDIR
 10
0.0
 20
1.0
 30
0.0
  9
$USERI1
 70
     0
  9
$USERI2
 70
     0
  9
$USERI3
 70
     0
  9
$USERI4
 70
     0
  9
$USERI5
 70
     0
  9
$USERR1
 40
0.0
  9
$USERR2
 40
0.0
  9
$USERR3
 40
0.0
  9
$USERR4
 40
0.0
  9
$USERR5
 40
0.0
  9
$WORLDVIEW
 70
     1
  9
$SHADEDGE
 70
     3
  9
$SHADEDIF
 70
    70
  9
$TILEMODE
 70
     1
  9
$MAXACTVP
 70
    16
  9
$PINSBASE
 10
0.0
 20
0.0
 30
0.0
  9
$PLIMCHECK
 70
     0
  9
$PEXTMIN
 10
1.000000E+20
 20
1.000000E+20
 30
1.000000E+20
  9
$PEXTMAX
 10
-1.000000E+20
 20
-1.000000E+20
 30
-1.000000E+20
  9
$PLIMMIN
 10
0.0
 20
0.0
  9
$PLIMMAX
 10
12.0
 20
9.0
  9
$UNITMODE
 70
     0
  9
$VISRETAIN
 70
     0
  9
$PLINEGEN
 70
     0
  9
$PSLTSCALE
 70
     0
  9
$TREEDEPTH
 70
  3020
  9
$DWGCODEPAGE
  3
iso8859-1
  0
ENDSEC
  0
SECTION
  2
TABLES
  0
TABLE
  2
VPORT
 70
     2
  0
VPORT
  2
*ACTIVE
 70
     0
 10
0.0
 20
0.0
 11
1.0
 21
1.0
 12
292.715233
 22
37.322444
 13
0.0
 23
0.0
 14
1.0
 24
1.0
 15
10.0
 25
10.0
 16
0.0
 26
0.0
 36
1.0
 17
0.0
 27
0.0
 37
0.0
 40
14.85
 41
1.524503
 42
50.0
 43
0.0
 44
0.0
 50
0.0
 51
0.0
 71
     0
 72
   100
 73
     1
 74
     0
 75
     0
 76
     0
 77
     0
 78
     1
  0
ENDTAB
  0
TABLE
  2
LTYPE
 70
     1
  0
LTYPE
  2
CONTINUOUS
 70
    64
  3
Solid line
 72
    65
 73
     0
 40
0.0
  0
ENDTAB
  0
TABLE
  2
LAYER
 70
     3
  0
LAYER
  2
0
 70
    64
 62
     7
  6
CONTINUOUS
  0
LAYER
  2
MESURA
 70
     0
 62
     7
  6
CONTINUOUS
  0
LAYER
  2
DEFPOINTS
 70
    64
 62
     7
  6
CONTINUOUS
  0
ENDTAB
  0
TABLE
  2
STYLE
 70
     2
  0
STYLE
  2
STANDARD
 70
     0
 40
0.0
 41
1.0
 50
0.0
 71
     0
 42
0.1
  3
txt
  4

  0
STYLE
  2
ROMANC
 70
    64
 40
0.0
 41
1.0
 50
0.0
 71
     0
 42
0.1
  3
romanc
  4

  0
ENDTAB
  0
TABLE
  2
VIEW
 70
     0
  0
ENDTAB
  0
TABLE
  2
UCS
 70
     0
  0
ENDTAB
  0
TABLE
  2
APPID
 70
     1
  0
APPID
  2
ACAD
 70
    64
  0
ENDTAB
  0
TABLE
  2
DIMSTYLE
 70
     1
  0
DIMSTYLE
  2
SILVIA
 70
     0
  3

  4

  5

  6

  7

 40
1.5
 41
0.1
 42
0.01
 43
7.0
 44
0.01
 45
0.0
 46
0.0
 47
0.0
 48
0.0
140
0.05
141
0.1
142
0.0
143
25.4
144
1.0
145
0.0
146
70.0
147
0.09
 71
     0
 72
     0
 73
     0
 74
     0
 75
     0
 76
     0
 77
     1
 78
     0
170
     0
171
     2
172
     1
173
     0
174
     1
175
     0
176
     0
177
     0
178
     0
  0
ENDTAB
  0
ENDSEC
  0
SECTION
  2
BLOCKS
  0
BLOCK
  8
0
  2
*D1
 70
    65
 10
0.0
 20
0.0
 30
0.0
  3
*D
  0
LINE
  8
0
  6
BYBLOCK
 62
     0
 10
286.110738
 20
34.12426
 30
0.0
 11
286.110738
 21
33.697503
 31
0.0
  0
LINE
  8
0
  6
BYBLOCK
 62
     0
 10
287.310738
 20
34.12426
 30
0.0
 11
287.310738
 21
33.697503
 31
0.0
  0
LINE
  8
0
  6
BYBLOCK
 62
     0
 10
286.260738
 20
33.712503
 30
0.0
 11
287.160738
 21
33.712503
 31
0.0
  0
SOLID
  8
0
  6
BYBLOCK
 62
     0
 10
286.260738
 20
33.737503
 30
0.0
 11
286.260738
 21
33.687503
 31
0.0
 12
286.110738
 22
33.712503
 32
0.0
 13
286.110738
 23
33.712503
 33
0.0
  0
SOLID
  8
0
  6
BYBLOCK
 62
     0
 10
287.160738
 20
33.737503
 30
0.0
 11
287.160738
 21
33.687503
 31
0.0
 12
287.310738
 22
33.712503
 32
0.0
 13
287.310738
 23
33.712503
 33
0.0
  0
TEXT
  8
0
  6
BYBLOCK
 62
     0
 10
286.580381
 20
33.750003
 30
0.0
 40
0.075
  1
1.20
  7
ROMANC
 72
     1
 11
286.710738
 21
33.787503
 31
0.0
 73
     2
  0
POINT
  8
DEFPOINTS
  6
BYBLOCK
 62
     0
 10
286.110738
 20
34.13926
 30
0.0
  0
POINT
  8
DEFPOINTS
  6
BYBLOCK
 62
     0
 10
287.310738
 20
34.13926
 30
0.0
  0
POINT
  8
DEFPOINTS
  6
BYBLOCK
 62
     0
 10
287.310738
 20
33.712503
 30
0.0
  0
ENDBLK
  8
0
  0
BLOCK
  8
0
  2
*D2
 70
    65
 10
0.0
 20
0.0
 30
0.0
  3
*D
  0
LINE
  8
0
  6
BYBLOCK
 62
     0
 10
285.010738
 20
34.52426
 30
0.0
 11
285.010738
 21
33.697503
 31
0.0
  0
LINE
  8
0
  6
BYBLOCK
 62
     0
 10
286.110738
 20
34.12426
 30
0.0
 11
286.110738
 21
33.697503
 31
0.0
  0
LINE
  8
0
  6
BYBLOCK
 62
     0
 10
285.160738
 20
33.712503
 30
0.0
 11
285.960738
 21
33.712503
 31
0.0
  0
SOLID
  8
0
  6
BYBLOCK
 62
     0
 10
285.160738
 20
33.737503
 30
0.0
 11
285.160738
 21
33.687503
 31
0.0
 12
285.010738
 22
33.712503
 32
0.0
 13
285.010738
 23
33.712503
 33
0.0
  0
SOLID
  8
0
  6
BYBLOCK
 62
     0
 10
285.960738
 20
33.737503
 30
0.0
 11
285.960738
 21
33.687503
 31
0.0
 12
286.110738
 22
33.712503
 32
0.0
 13
286.110738
 23
33.712503
 33
0.0
  0
TEXT
  8
0
  6
BYBLOCK
 62
     0
 10
285.430381
 20
33.750003
 30
0.0
 40
0.075
  1
1.10
  7
ROMANC
 72
     1
 11
285.560738
 21
33.787503
 31
0.0
 73
     2
  0
POINT
  8
DEFPOINTS
  6
BYBLOCK
 62
     0
 10
285.010738
 20
34.53926
 30
0.0
  0
POINT
  8
DEFPOINTS
  6
BYBLOCK
 62
     0
 10
286.110738
 20
34.13926
 30
0.0
  0
POINT
  8
DEFPOINTS
  6
BYBLOCK
 62
     0
 10
286.110738
 20
33.712503
 30
0.0
  0
ENDBLK
  8
0
  0
BLOCK
  8
0
  2
*D4
 70
    65
 10
0.0
 20
0.0
 30
0.0
  3
*D
  0
LINE
  8
0
  6
BYBLOCK
 62
     0
 10
284.995738
 20
34.53926
 30
0.0
 11
284.582265
 21
34.53926
 31
0.0
  0
LINE
  8
0
  6
BYBLOCK
 62
     0
 10
286.095738
 20
34.13926
 30
0.0
 11
284.582265
 21
34.13926
 31
0.0
  0
LINE
  8
0
  6
BYBLOCK
 62
     0
 10
284.597265
 20
34.68926
 30
0.0
 11
284.597265
 21
34.83926
 31
0.0
  0
LINE
  8
0
  6
BYBLOCK
 62
     0
 10
284.597265
 20
33.98926
 30
0.0
 11
284.597265
 21
33.83926
 31
0.0
  0
SOLID
  8
0
  6
BYBLOCK
 62
     0
 10
284.572265
 20
34.68926
 30
0.0
 11
284.622265
 21
34.68926
 31
0.0
 12
284.597265
 22
34.53926
 32
0.0
 13
284.597265
 23
34.53926
 33
0.0
  0
SOLID
  8
0
  6
BYBLOCK
 62
     0
 10
284.572265
 20
33.98926
 30
0.0
 11
284.622265
 21
33.98926
 31
0.0
 12
284.597265
 22
34.13926
 32
0.0
 13
284.597265
 23
34.13926
 33
0.0
  0
LINE
  8
0
  6
BYBLOCK
 62
     0
 10
284.597265
 20
34.53926
 30
0.0
 11
284.597265
 21
34.13926
 31
0.0
  0
TEXT
  8
0
  6
BYBLOCK
 62
     0
 10
284.559765
 20
34.21426
 30
0.0
 40
0.075
  1
0.40
 50
90.0
  7
ROMANC
 72
     1
 11
284.522265
 21
34.33926
 31
0.0
 73
     2
  0
POINT
  8
DEFPOINTS
  6
BYBLOCK
 62
     0
 10
285.010738
 20
34.53926
 30
0.0
  0
POINT
  8
DEFPOINTS
  6
BYBLOCK
 62
     0
 10
286.110738
 20
34.13926
 30
0.0
  0
POINT
  8
DEFPOINTS
  6
BYBLOCK
 62
     0
 10
284.597265
 20
34.13926
 30
0.0
  0
ENDBLK
  8
0
  0
BLOCK
  8
0
  2
*D5
 70
    65
 10
0.0
 20
0.0
 30
0.0
  3
*D
  0
LINE
  8
0
  6
BYBLOCK
 62
     0
 10
284.995738
 20
35.53926
 30
0.0
 11
284.582265
 21
35.53926
 31
0.0
  0
LINE
  8
0
  6
BYBLOCK
 62
     0
 10
284.995738
 20
34.53926
 30
0.0
 11
284.582265
 21
34.53926
 31
0.0
  0
LINE
  8
0
  6
BYBLOCK
 62
     0
 10
284.597265
 20
35.38926
 30
0.0
 11
284.597265
 21
34.68926
 31
0.0
  0
SOLID
  8
0
  6
BYBLOCK
 62
     0
 10
284.572265
 20
35.38926
 30
0.0
 11
284.622265
 21
35.38926
 31
0.0
 12
284.597265
 22
35.53926
 32
0.0
 13
284.597265
 23
35.53926
 33
0.0
  0
SOLID
  8
0
  6
BYBLOCK
 62
     0
 10
284.572265
 20
34.68926
 30
0.0
 11
284.622265
 21
34.68926
 31
0.0
 12
284.597265
 22
34.53926
 32
0.0
 13
284.597265
 23
34.53926
 33
0.0
  0
TEXT
  8
0
  6
BYBLOCK
 62
     0
 10
284.559765
 20
34.908903
 30
0.0
 40
0.075
  1
1.00
 50
90.0
  7
ROMANC
 72
     1
 11
284.522265
 21
35.03926
 31
0.0
 73
     2
  0
POINT
  8
DEFPOINTS
  6
BYBLOCK
 62
     0
 10
285.010738
 20
35.53926
 30
0.0
  0
POINT
  8
DEFPOINTS
  6
BYBLOCK
 62
     0
 10
285.010738
 20
34.53926
 30
0.0
  0
POINT
  8
DEFPOINTS
  6
BYBLOCK
 62
     0
 10
284.597265
 20
34.53926
 30
0.0
  0
ENDBLK
  8
0
  0
BLOCK
  8
0
  2
*D6
 70
    65
 10
0.0
 20
0.0
 30
0.0
  3
*D
  0
LINE
  8
0
  6
BYBLOCK
 62
     0
 10
286.145738
 20
36.78926
 30
0.0
 11
284.180061
 21
36.78926
 31
0.0
  0
LINE
  8
0
  6
BYBLOCK
 62
     0
 10
286.145738
 20
34.13926
 30
0.0
 11
284.180061
 21
34.13926
 31
0.0
  0
LINE
  8
0
  6
BYBLOCK
 62
     0
 10
284.195061
 20
36.63926
 30
0.0
 11
284.195061
 21
34.28926
 31
0.0
  0
SOLID
  8
0
  6
BYBLOCK
 62
     0
 10
284.170061
 20
36.63926
 30
0.0
 11
284.220061
 21
36.63926
 31
0.0
 12
284.195061
 22
36.78926
 32
0.0
 13
284.195061
 23
36.78926
 33
0.0
  0
SOLID
  8
0
  6
BYBLOCK
 62
     0
 10
284.170061
 20
34.28926
 30
0.0
 11
284.220061
 21
34.28926
 31
0.0
 12
284.195061
 22
34.13926
 32
0.0
 13
284.195061
 23
34.13926
 33
0.0
  0
TEXT
  8
0
  6
BYBLOCK
 62
     0
 10
284.157561
 20
35.33926
 30
0.0
 40
0.075
  1
2.65
 50
90.0
  7
ROMANC
 72
     1
 11
284.120061
 21
35.46426
 31
0.0
 73
     2
  0
POINT
  8
DEFPOINTS
  6
BYBLOCK
 62
     0
 10
286.160738
 20
36.78926
 30
0.0
  0
POINT
  8
DEFPOINTS
  6
BYBLOCK
 62
     0
 10
286.160738
 20
34.13926
 30
0.0
  0
POINT
  8
DEFPOINTS
  6
BYBLOCK
 62
     0
 10
284.195061
 20
34.13926
 30
0.0
  0
ENDBLK
  8
0
  0
BLOCK
  8
0
  2
*D7
 70
    65
 10
0.0
 20
0.0
 30
0.0
  3
*D
  0
LINE
  8
0
  6
BYBLOCK
 62
     0
 10
285.36447
 20
35.55426
 30
0.0
 11
285.36447
 21
35.554887
 31
0.0
  0
LINE
  8
0
  6
BYBLOCK
 62
     0
 10
287.66447
 20
35.55426
 30
0.0
 11
287.66447
 21
35.554887
 31
0.0
  0
LINE
  8
0
  6
BYBLOCK
 62
     0
 10
285.51447
 20
35.539887
 30
0.0
 11
287.51447
 21
35.539887
 31
0.0
  0
SOLID
  8
0
  6
BYBLOCK
 62
     0
 10
285.51447
 20
35.564887
 30
0.0
 11
285.51447
 21
35.514887
 31
0.0
 12
285.36447
 22
35.539887
 32
0.0
 13
285.36447
 23
35.539887
 33
0.0
  0
SOLID
  8
0
  6
BYBLOCK
 62
     0
 10
287.51447
 20
35.564887
 30
0.0
 11
287.51447
 21
35.514887
 31
0.0
 12
287.66447
 22
35.539887
 32
0.0
 13
287.66447
 23
35.539887
 33
0.0
  0
TEXT
  8
0
  6
BYBLOCK
 62
     0
 10
286.38947
 20
35.577387
 30
0.0
 40
0.075
  1
2.30
  7
ROMANC
 72
     1
 11
286.51447
 21
35.614887
 31
0.0
 73
     2
  0
POINT
  8
DEFPOINTS
  6
BYBLOCK
 62
     0
 10
285.36447
 20
35.53926
 30
0.0
  0
POINT
  8
DEFPOINTS
  6
BYBLOCK
 62
     0
 10
287.66447
 20
35.53926
 30
0.0
  0
POINT
  8
DEFPOINTS
  6
BYBLOCK
 62
     0
 10
287.66447
 20
35.539887
 30
0.0
  0
ENDBLK
  8
0
  0
BLOCK
  8
0
  2
*D8
 70
    65
 10
0.0
 20
0.0
 30
0.0
  3
*D
  0
LINE
  8
0
  6
BYBLOCK
 62
     0
 10
284.191219
 20
35.506272
 30
0.0
 11
284.191219
 21
35.506272
 31
0.0
  0
LINE
  8
0
  6
BYBLOCK
 62
     0
 10
285.391219
 20
35.506272
 30
0.0
 11
285.391219
 21
35.506272
 31
0.0
  0
LINE
  8
0
  6
BYBLOCK
 62
     0
 10
284.341219
 20
35.491272
 30
0.0
 11
285.241219
 21
35.491272
 31
0.0
  0
SOLID
  8
0
  6
BYBLOCK
 62
     0
 10
284.341219
 20
35.516272
 30
0.0
 11
284.341219
 21
35.466272
 31
0.0
 12
284.191219
 22
35.491272
 32
0.0
 13
284.191219
 23
35.491272
 33
0.0
  0
SOLID
  8
0
  6
BYBLOCK
 62
     0
 10
285.241219
 20
35.516272
 30
0.0
 11
285.241219
 21
35.466272
 31
0.0
 12
285.391219
 22
35.491272
 32
0.0
 13
285.391219
 23
35.491272
 33
0.0
  0
TEXT
  8
0
  6
BYBLOCK
 62
     0
 10
284.660862
 20
35.528772
 30
0.0
 40
0.075
  1
1.20
  7
ROMANC
 72
     1
 11
284.791219
 21
35.566272
 31
0.0
 73
     2
  0
POINT
  8
DEFPOINTS
  6
BYBLOCK
 62
     0
 10
284.191219
 20
35.491272
 30
0.0
  0
POINT
  8
DEFPOINTS
  6
BYBLOCK
 62
     0
 10
285.391219
 20
35.491272
 30
0.0
  0
POINT
  8
DEFPOINTS
  6
BYBLOCK
 62
     0
 10
285.391219
 20
35.491272
 30
0.0
  0
ENDBLK
  8
0
  0
BLOCK
  8
0
  2
*D9
 70
    65
 10
0.0
 20
0.0
 30
0.0
  3
*D
  0
LINE
  8
0
  6
BYBLOCK
 62
     0
 10
284.591219
 20
34.226272
 30
0.0
 11
284.591219
 21
33.782096
 31
0.0
  0
LINE
  8
0
  6
BYBLOCK
 62
     0
 10
284.991219
 20
34.226272
 30
0.0
 11
284.991219
 21
33.782096
 31
0.0
  0
LINE
  8
0
  6
BYBLOCK
 62
     0
 10
284.441219
 20
33.797096
 30
0.0
 11
284.291219
 21
33.797096
 31
0.0
  0
LINE
  8
0
  6
BYBLOCK
 62
     0
 10
285.141219
 20
33.797096
 30
0.0
 11
285.291219
 21
33.797096
 31
0.0
  0
SOLID
  8
0
  6
BYBLOCK
 62
     0
 10
284.441219
 20
33.822096
 30
0.0
 11
284.441219
 21
33.772096
 31
0.0
 12
284.591219
 22
33.797096
 32
0.0
 13
284.591219
 23
33.797096
 33
0.0
  0
SOLID
  8
0
  6
BYBLOCK
 62
     0
 10
285.141219
 20
33.822096
 30
0.0
 11
285.141219
 21
33.772096
 31
0.0
 12
284.991219
 22
33.797096
 32
0.0
 13
284.991219
 23
33.797096
 33
0.0
  0
LINE
  8
0
  6
BYBLOCK
 62
     0
 10
284.591219
 20
33.797096
 30
0.0
 11
284.991219
 21
33.797096
 31
0.0
  0
TEXT
  8
0
  6
BYBLOCK
 62
     0
 10
284.666219
 20
33.834596
 30
0.0
 40
0.075
  1
0.40
  7
ROMANC
 72
     1
 11
284.791219
 21
33.872096
 31
0.0
 73
     2
  0
POINT
  8
DEFPOINTS
  6
BYBLOCK
 62
     0
 10
284.591219
 20
34.241272
 30
0.0
  0
POINT
  8
DEFPOINTS
  6
BYBLOCK
 62
     0
 10
284.991219
 20
34.241272
 30
0.0
  0
POINT
  8
DEFPOINTS
  6
BYBLOCK
 62
     0
 10
284.991219
 20
33.797096
 30
0.0
  0
ENDBLK
  8
0
  0
BLOCK
  8
0
  2
*D10
 70
    65
 10
0.0
 20
0.0
 30
0.0
  3
*D
  0
LINE
  8
0
  6
BYBLOCK
 62
     0
 10
284.231219
 20
34.241272
 30
0.0
 11
284.306219
 21
34.241272
 31
0.0
  0
LINE
  8
0
  6
BYBLOCK
 62
     0
 10
284.576219
 20
34.241272
 30
0.0
 11
284.276219
 21
34.241272
 31
0.0
  0
LINE
  8
0
  6
BYBLOCK
 62
     0
 10
284.291219
 20
34.091272
 30
0.0
 11
284.291219
 21
33.941272
 31
0.0
  0
LINE
  8
0
  6
BYBLOCK
 62
     0
 10
284.291219
 20
34.391272
 30
0.0
 11
284.291219
 21
34.541272
 31
0.0
  0
SOLID
  8
0
  6
BYBLOCK
 62
     0
 10
284.266219
 20
34.091272
 30
0.0
 11
284.316219
 21
34.091272
 31
0.0
 12
284.291219
 22
34.241272
 32
0.0
 13
284.291219
 23
34.241272
 33
0.0
  0
SOLID
  8
0
  6
BYBLOCK
 62
     0
 10
284.266219
 20
34.391272
 30
0.0
 11
284.316219
 21
34.391272
 31
0.0
 12
284.291219
 22
34.241272
 32
0.0
 13
284.291219
 23
34.241272
 33
0.0
  0
LINE
  8
0
  6
BYBLOCK
 62
     0
 10
284.291219
 20
34.241272
 30
0.0
 11
284.291219
 21
34.241272
 31
0.0
  0
TEXT
  8
0
  6
BYBLOCK
 62
     0
 10
284.253719
 20
34.116272
 30
0.0
 40
0.075
  1
0.00
 50
90.0
  7
ROMANC
 72
     1
 11
284.216219
 21
34.241272
 31
0.0
 73
     2
  0
POINT
  8
DEFPOINTS
  6
BYBLOCK
 62
     0
 10
284.216219
 20
34.241272
 30
0.0
  0
POINT
  8
DEFPOINTS
  6
BYBLOCK
 62
     0
 10
284.591219
 20
34.241272
 30
0.0
  0
POINT
  8
DEFPOINTS
  6
BYBLOCK
 62
     0
 10
284.291219
 20
34.241272
 30
0.0
  0
ENDBLK
  8
0
  0
BLOCK
  8
0
  2
*D11
 70
    65
 10
0.0
 20
0.0
 30
0.0
  3
*D
  0
LINE
  8
0
  6
BYBLOCK
 62
     0
 10
284.216219
 20
34.226272
 30
0.0
 11
284.216219
 21
33.782096
 31
0.0
  0
LINE
  8
0
  6
BYBLOCK
 62
     0
 10
284.591219
 20
34.226272
 30
0.0
 11
284.591219
 21
33.782096
 31
0.0
  0
LINE
  8
0
  6
BYBLOCK
 62
     0
 10
284.066219
 20
33.797096
 30
0.0
 11
283.916219
 21
33.797096
 31
0.0
  0
LINE
  8
0
  6
BYBLOCK
 62
     0
 10
284.741219
 20
33.797096
 30
0.0
 11
284.891219
 21
33.797096
 31
0.0
  0
SOLID
  8
0
  6
BYBLOCK
 62
     0
 10
284.066219
 20
33.822096
 30
0.0
 11
284.066219
 21
33.772096
 31
0.0
 12
284.216219
 22
33.797096
 32
0.0
 13
284.216219
 23
33.797096
 33
0.0
  0
SOLID
  8
0
  6
BYBLOCK
 62
     0
 10
284.741219
 20
33.822096
 30
0.0
 11
284.741219
 21
33.772096
 31
0.0
 12
284.591219
 22
33.797096
 32
0.0
 13
284.591219
 23
33.797096
 33
0.0
  0
LINE
  8
0
  6
BYBLOCK
 62
     0
 10
284.216219
 20
33.797096
 30
0.0
 11
284.591219
 21
33.797096
 31
0.0
  0
TEXT
  8
0
  6
BYBLOCK
 62
     0
 10
284.278719
 20
33.834596
 30
0.0
 40
0.075
  1
0.38
  7
ROMANC
 72
     1
 11
284.403719
 21
33.872096
 31
0.0
 73
     2
  0
POINT
  8
DEFPOINTS
  6
BYBLOCK
 62
     0
 10
284.216219
 20
34.241272
 30
0.0
  0
POINT
  8
DEFPOINTS
  6
BYBLOCK
 62
     0
 10
284.591219
 20
34.241272
 30
0.0
  0
POINT
  8
DEFPOINTS
  6
BYBLOCK
 62
     0
 10
284.591219
 20
33.797096
 30
0.0
  0
ENDBLK
  8
0
  0
BLOCK
  8
0
  2
*D12
 70
    65
 10
0.0
 20
0.0
 30
0.0
  3
*D
  0
LINE
  8
0
  6
BYBLOCK
 62
     0
 10
284.591219
 20
34.226272
 30
0.0
 11
284.591219
 21
33.868618
 31
0.0
  0
LINE
  8
0
  6
BYBLOCK
 62
     0
 10
284.991219
 20
34.226272
 30
0.0
 11
284.991219
 21
33.868618
 31
0.0
  0
LINE
  8
0
  6
BYBLOCK
 62
     0
 10
284.441219
 20
33.883618
 30
0.0
 11
284.291219
 21
33.883618
 31
0.0
  0
LINE
  8
0
  6
BYBLOCK
 62
     0
 10
285.141219
 20
33.883618
 30
0.0
 11
285.291219
 21
33.883618
 31
0.0
  0
SOLID
  8
0
  6
BYBLOCK
 62
     0
 10
284.441219
 20
33.908618
 30
0.0
 11
284.441219
 21
33.858618
 31
0.0
 12
284.591219
 22
33.883618
 32
0.0
 13
284.591219
 23
33.883618
 33
0.0
  0
SOLID
  8
0
  6
BYBLOCK
 62
     0
 10
285.141219
 20
33.908618
 30
0.0
 11
285.141219
 21
33.858618
 31
0.0
 12
284.991219
 22
33.883618
 32
0.0
 13
284.991219
 23
33.883618
 33
0.0
  0
LINE
  8
0
  6
BYBLOCK
 62
     0
 10
284.591219
 20
33.883618
 30
0.0
 11
284.991219
 21
33.883618
 31
0.0
  0
TEXT
  8
0
  6
BYBLOCK
 62
     0
 10
284.666219
 20
33.921118
 30
0.0
 40
0.075
  1
0.40
  7
ROMANC
 72
     1
 11
284.791219
 21
33.958618
 31
0.0
 73
     2
  0
POINT
  8
DEFPOINTS
  6
BYBLOCK
 62
     0
 10
284.591219
 20
34.241272
 30
0.0
  0
POINT
  8
DEFPOINTS
  6
BYBLOCK
 62
     0
 10
284.991219
 20
34.241272
 30
0.0
  0
POINT
  8
DEFPOINTS
  6
BYBLOCK
 62
     0
 10
284.991219
 20
33.883618
 30
0.0
  0
ENDBLK
  8
0
  0
BLOCK
  8
0
  2
*D13
 70
    65
 10
0.0
 20
0.0
 30
0.0
  3
*D
  0
LINE
  8
0
  6
BYBLOCK
 62
     0
 10
284.591219
 20
34.226272
 30
0.0
 11
284.591219
 21
33.810937
 31
0.0
  0
LINE
  8
0
  6
BYBLOCK
 62
     0
 10
284.991219
 20
34.226272
 30
0.0
 11
284.991219
 21
33.810937
 31
0.0
  0
LINE
  8
0
  6
BYBLOCK
 62
     0
 10
284.441219
 20
33.825937
 30
0.0
 11
284.291219
 21
33.825937
 31
0.0
  0
LINE
  8
0
  6
BYBLOCK
 62
     0
 10
285.141219
 20
33.825937
 30
0.0
 11
285.291219
 21
33.825937
 31
0.0
  0
SOLID
  8
0
  6
BYBLOCK
 62
     0
 10
284.441219
 20
33.850937
 30
0.0
 11
284.441219
 21
33.800937
 31
0.0
 12
284.591219
 22
33.825937
 32
0.0
 13
284.591219
 23
33.825937
 33
0.0
  0
SOLID
  8
0
  6
BYBLOCK
 62
     0
 10
285.141219
 20
33.850937
 30
0.0
 11
285.141219
 21
33.800937
 31
0.0
 12
284.991219
 22
33.825937
 32
0.0
 13
284.991219
 23
33.825937
 33
0.0
  0
LINE
  8
0
  6
BYBLOCK
 62
     0
 10
284.591219
 20
33.825937
 30
0.0
 11
284.991219
 21
33.825937
 31
0.0
  0
TEXT
  8
0
  6
BYBLOCK
 62
     0
 10
284.666219
 20
33.863437
 30
0.0
 40
0.075
  1
0.40
  7
ROMANC
 72
     1
 11
284.791219
 21
33.900937
 31
0.0
 73
     2
  0
POINT
  8
DEFPOINTS
  6
BYBLOCK
 62
     0
 10
284.591219
 20
34.241272
 30
0.0
  0
POINT
  8
DEFPOINTS
  6
BYBLOCK
 62
     0
 10
284.991219
 20
34.241272
 30
0.0
  0
POINT
  8
DEFPOINTS
  6
BYBLOCK
 62
     0
 10
284.991219
 20
33.825937
 30
0.0
  0
ENDBLK
  8
0
  0
BLOCK
  8
0
  2
*D14
 70
    65
 10
0.0
 20
0.0
 30
0.0
  3
*D
  0
LINE
  8
0
  6
BYBLOCK
 62
     0
 10
284.216219
 20
34.226272
 30
0.0
 11
284.216219
 21
33.499457
 31
0.0
  0
LINE
  8
0
  6
BYBLOCK
 62
     0
 10
285.366219
 20
34.226272
 30
0.0
 11
285.366219
 21
33.499457
 31
0.0
  0
LINE
  8
0
  6
BYBLOCK
 62
     0
 10
284.366219
 20
33.514457
 30
0.0
 11
285.216219
 21
33.514457
 31
0.0
  0
SOLID
  8
0
  6
BYBLOCK
 62
     0
 10
284.366219
 20
33.539457
 30
0.0
 11
284.366219
 21
33.489457
 31
0.0
 12
284.216219
 22
33.514457
 32
0.0
 13
284.216219
 23
33.514457
 33
0.0
  0
SOLID
  8
0
  6
BYBLOCK
 62
     0
 10
285.216219
 20
33.539457
 30
0.0
 11
285.216219
 21
33.489457
 31
0.0
 12
285.366219
 22
33.514457
 32
0.0
 13
285.366219
 23
33.514457
 33
0.0
  0
TEXT
  8
0
  6
BYBLOCK
 62
     0
 10
284.660862
 20
33.551957
 30
0.0
 40
0.075
  1
1.15
  7
ROMANC
 72
     1
 11
284.791219
 21
33.589457
 31
0.0
 73
     2
  0
POINT
  8
DEFPOINTS
  6
BYBLOCK
 62
     0
 10
284.216219
 20
34.241272
 30
0.0
  0
POINT
  8
DEFPOINTS
  6
BYBLOCK
 62
     0
 10
285.366219
 20
34.241272
 30
0.0
  0
POINT
  8
DEFPOINTS
  6
BYBLOCK
 62
     0
 10
285.366219
 20
33.514457
 30
0.0
  0
ENDBLK
  8
0
  0
BLOCK
  8
0
  2
*D15
 70
    65
 10
0.0
 20
0.0
 30
0.0
  3
*D
  0
LINE
  8
0
  6
BYBLOCK
 62
     0
 10
284.806219
 20
34.091272
 30
0.0
 11
285.650827
 21
34.091272
 31
0.0
  0
LINE
  8
0
  6
BYBLOCK
 62
     0
 10
285.006219
 20
34.241272
 30
0.0
 11
285.650827
 21
34.241272
 31
0.0
  0
LINE
  8
0
  6
BYBLOCK
 62
     0
 10
285.635827
 20
33.941272
 30
0.0
 11
285.635827
 21
33.791272
 31
0.0
  0
LINE
  8
0
  6
BYBLOCK
 62
     0
 10
285.635827
 20
34.391272
 30
0.0
 11
285.635827
 21
34.541272
 31
0.0
  0
SOLID
  8
0
  6
BYBLOCK
 62
     0
 10
285.610827
 20
33.941272
 30
0.0
 11
285.660827
 21
33.941272
 31
0.0
 12
285.635827
 22
34.091272
 32
0.0
 13
285.635827
 23
34.091272
 33
0.0
  0
SOLID
  8
0
  6
BYBLOCK
 62
     0
 10
285.610827
 20
34.391272
 30
0.0
 11
285.660827
 21
34.391272
 31
0.0
 12
285.635827
 22
34.241272
 32
0.0
 13
285.635827
 23
34.241272
 33
0.0
  0
LINE
  8
0
  6
BYBLOCK
 62
     0
 10
285.635827
 20
34.091272
 30
0.0
 11
285.635827
 21
34.241272
 31
0.0
  0
TEXT
  8
0
  6
BYBLOCK
 62
     0
 10
285.598327
 20
34.041272
 30
0.0
 40
0.075
  1
0.15
 50
90.0
  7
ROMANC
 72
     1
 11
285.560827
 21
34.166272
 31
0.0
 73
     2
  0
POINT
  8
DEFPOINTS
  6
BYBLOCK
 62
     0
 10
284.791219
 20
34.091272
 30
0.0
  0
POINT
  8
DEFPOINTS
  6
BYBLOCK
 62
     0
 10
284.991219
 20
34.241272
 30
0.0
  0
POINT
  8
DEFPOINTS
  6
BYBLOCK
 62
     0
 10
285.635827
 20
34.241272
 30
0.0
  0
ENDBLK
  8
0
  0
BLOCK
  8
0
  2
*D16
 70
    65
 10
0.0
 20
0.0
 30
0.0
  3
*D
  0
LINE
  8
0
  6
BYBLOCK
 62
     0
 10
284.806219
 20
34.091272
 30
0.0
 11
285.650827
 21
34.091272
 31
0.0
  0
LINE
  8
0
  6
BYBLOCK
 62
     0
 10
285.006219
 20
34.241272
 30
0.0
 11
285.650827
 21
34.241272
 31
0.0
  0
LINE
  8
0
  6
BYBLOCK
 62
     0
 10
285.635827
 20
33.941272
 30
0.0
 11
285.635827
 21
33.791272
 31
0.0
  0
LINE
  8
0
  6
BYBLOCK
 62
     0
 10
285.635827
 20
34.391272
 30
0.0
 11
285.635827
 21
34.541272
 31
0.0
  0
SOLID
  8
0
  6
BYBLOCK
 62
     0
 10
285.610827
 20
33.941272
 30
0.0
 11
285.660827
 21
33.941272
 31
0.0
 12
285.635827
 22
34.091272
 32
0.0
 13
285.635827
 23
34.091272
 33
0.0
  0
SOLID
  8
0
  6
BYBLOCK
 62
     0
 10
285.610827
 20
34.391272
 30
0.0
 11
285.660827
 21
34.391272
 31
0.0
 12
285.635827
 22
34.241272
 32
0.0
 13
285.635827
 23
34.241272
 33
0.0
  0
LINE
  8
0
  6
BYBLOCK
 62
     0
 10
285.635827
 20
34.091272
 30
0.0
 11
285.635827
 21
34.241272
 31
0.0
  0
TEXT
  8
0
  6
BYBLOCK
 62
     0
 10
285.598327
 20
33.798995
 30
0.0
 40
0.075
  1
0.15
 50
90.0
  7
ROMANC
 72
     1
 11
285.560827
 21
33.923995
 31
0.0
 73
     2
  0
POINT
  8
DEFPOINTS
  6
BYBLOCK
 62
     0
 10
284.791219
 20
34.091272
 30
0.0
  0
POINT
  8
DEFPOINTS
  6
BYBLOCK
 62
     0
 10
284.991219
 20
34.241272
 30
0.0
  0
POINT
  8
DEFPOINTS
  6
BYBLOCK
 62
     0
 10
285.635827
 20
34.241272
 30
0.0
  0
ENDBLK
  8
0
  0
BLOCK
  8
0
  2
*D17
 70
    65
 10
0.0
 20
0.0
 30
0.0
  3
*D
  0
LINE
  8
0
  6
BYBLOCK
 62
     0
 10
285.381219
 20
34.241272
 30
0.0
 11
285.650827
 21
34.241272
 31
0.0
  0
LINE
  8
0
  6
BYBLOCK
 62
     0
 10
285.406219
 20
35.491272
 30
0.0
 11
285.650827
 21
35.491272
 31
0.0
  0
LINE
  8
0
  6
BYBLOCK
 62
     0
 10
285.635827
 20
34.391272
 30
0.0
 11
285.635827
 21
35.341272
 31
0.0
  0
SOLID
  8
0
  6
BYBLOCK
 62
     0
 10
285.610827
 20
34.391272
 30
0.0
 11
285.660827
 21
34.391272
 31
0.0
 12
285.635827
 22
34.241272
 32
0.0
 13
285.635827
 23
34.241272
 33
0.0
  0
SOLID
  8
0
  6
BYBLOCK
 62
     0
 10
285.610827
 20
35.341272
 30
0.0
 11
285.660827
 21
35.341272
 31
0.0
 12
285.635827
 22
35.491272
 32
0.0
 13
285.635827
 23
35.491272
 33
0.0
  0
TEXT
  8
0
  6
BYBLOCK
 62
     0
 10
285.598327
 20
34.735914
 30
0.0
 40
0.075
  1
1.25
 50
90.0
  7
ROMANC
 72
     1
 11
285.560827
 21
34.866272
 31
0.0
 73
     2
  0
POINT
  8
DEFPOINTS
  6
BYBLOCK
 62
     0
 10
285.366219
 20
34.241272
 30
0.0
  0
POINT
  8
DEFPOINTS
  6
BYBLOCK
 62
     0
 10
285.391219
 20
35.491272
 30
0.0
  0
POINT
  8
DEFPOINTS
  6
BYBLOCK
 62
     0
 10
285.635827
 20
35.491272
 30
0.0
  0
ENDBLK
  8
0
  0
BLOCK
  8
0
  2
*D18
 70
    65
 10
0.0
 20
0.0
 30
0.0
  3
*D
  0
LINE
  8
0
  6
BYBLOCK
 62
     0
 10
284.806219
 20
36.291272
 30
0.0
 11
285.927824
 21
36.291272
 31
0.0
  0
LINE
  8
0
  6
BYBLOCK
 62
     0
 10
284.806219
 20
34.091272
 30
0.0
 11
285.927824
 21
34.091272
 31
0.0
  0
LINE
  8
0
  6
BYBLOCK
 62
     0
 10
285.912824
 20
36.141272
 30
0.0
 11
285.912824
 21
34.241272
 31
0.0
  0
SOLID
  8
0
  6
BYBLOCK
 62
     0
 10
285.887824
 20
36.141272
 30
0.0
 11
285.937824
 21
36.141272
 31
0.0
 12
285.912824
 22
36.291272
 32
0.0
 13
285.912824
 23
36.291272
 33
0.0
  0
SOLID
  8
0
  6
BYBLOCK
 62
     0
 10
285.887824
 20
34.241272
 30
0.0
 11
285.937824
 21
34.241272
 31
0.0
 12
285.912824
 22
34.091272
 32
0.0
 13
285.912824
 23
34.091272
 33
0.0
  0
TEXT
  8
0
  6
BYBLOCK
 62
     0
 10
285.875324
 20
35.066272
 30
0.0
 40
0.075
  1
2.20
 50
90.0
  7
ROMANC
 72
     1
 11
285.837824
 21
35.191272
 31
0.0
 73
     2
  0
POINT
  8
DEFPOINTS
  6
BYBLOCK
 62
     0
 10
284.791219
 20
36.291272
 30
0.0
  0
POINT
  8
DEFPOINTS
  6
BYBLOCK
 62
     0
 10
284.791219
 20
34.091272
 30
0.0
  0
POINT
  8
DEFPOINTS
  6
BYBLOCK
 62
     0
 10
285.912824
 20
34.091272
 30
0.0
  0
ENDBLK
  8
0
  0
BLOCK
  8
0
  2
*D19
 70
    65
 10
0.0
 20
0.0
 30
0.0
  3
*D
  0
LINE
  8
0
  6
BYBLOCK
 62
     0
 10
286.436553
 20
33.462354
 30
0.0
 11
286.436553
 21
33.179404
 31
0.0
  0
LINE
  8
0
  6
BYBLOCK
 62
     0
 10
285.236553
 20
33.462354
 30
0.0
 11
285.236553
 21
33.179404
 31
0.0
  0
LINE
  8
0
  6
BYBLOCK
 62
     0
 10
286.286553
 20
33.194404
 30
0.0
 11
285.386553
 21
33.194404
 31
0.0
  0
SOLID
  8
0
  6
BYBLOCK
 62
     0
 10
286.286553
 20
33.219404
 30
0.0
 11
286.286553
 21
33.169404
 31
0.0
 12
286.436553
 22
33.194404
 32
0.0
 13
286.436553
 23
33.194404
 33
0.0
  0
SOLID
  8
0
  6
BYBLOCK
 62
     0
 10
285.386553
 20
33.219404
 30
0.0
 11
285.386553
 21
33.169404
 31
0.0
 12
285.236553
 22
33.194404
 32
0.0
 13
285.236553
 23
33.194404
 33
0.0
  0
TEXT
  8
0
  6
BYBLOCK
 62
     0
 10
285.706196
 20
33.231904
 30
0.0
 40
0.075
  1
1.20
  7
ROMANC
 72
     1
 11
285.836553
 21
33.269404
 31
0.0
 73
     2
  0
POINT
  8
DEFPOINTS
  6
BYBLOCK
 62
     0
 10
286.436553
 20
33.477354
 30
0.0
  0
POINT
  8
DEFPOINTS
  6
BYBLOCK
 62
     0
 10
285.236553
 20
33.477354
 30
0.0
  0
POINT
  8
DEFPOINTS
  6
BYBLOCK
 62
     0
 10
285.236553
 20
33.194404
 30
0.0
  0
ENDBLK
  8
0
  0
BLOCK
  8
0
  2
*D20
 70
    65
 10
0.0
 20
0.0
 30
0.0
  3
*D
  0
LINE
  8
0
  6
BYBLOCK
 62
     0
 10
286.436553
 20
34.592354
 30
0.0
 11
286.436553
 21
34.592354
 31
0.0
  0
LINE
  8
0
  6
BYBLOCK
 62
     0
 10
285.236553
 20
34.592354
 30
0.0
 11
285.236553
 21
34.592354
 31
0.0
  0
LINE
  8
0
  6
BYBLOCK
 62
     0
 10
286.286553
 20
34.577354
 30
0.0
 11
285.386553
 21
34.577354
 31
0.0
  0
SOLID
  8
0
  6
BYBLOCK
 62
     0
 10
286.286553
 20
34.602354
 30
0.0
 11
286.286553
 21
34.552354
 31
0.0
 12
286.436553
 22
34.577354
 32
0.0
 13
286.436553
 23
34.577354
 33
0.0
  0
SOLID
  8
0
  6
BYBLOCK
 62
     0
 10
285.386553
 20
34.602354
 30
0.0
 11
285.386553
 21
34.552354
 31
0.0
 12
285.236553
 22
34.577354
 32
0.0
 13
285.236553
 23
34.577354
 33
0.0
  0
TEXT
  8
0
  6
BYBLOCK
 62
     0
 10
285.706196
 20
34.614854
 30
0.0
 40
0.075
  1
1.20
  7
ROMANC
 72
     1
 11
285.836553
 21
34.652354
 31
0.0
 73
     2
  0
POINT
  8
DEFPOINTS
  6
BYBLOCK
 62
     0
 10
286.436553
 20
34.577354
 30
0.0
  0
POINT
  8
DEFPOINTS
  6
BYBLOCK
 62
     0
 10
285.236553
 20
34.577354
 30
0.0
  0
POINT
  8
DEFPOINTS
  6
BYBLOCK
 62
     0
 10
285.236553
 20
34.577354
 30
0.0
  0
ENDBLK
  8
0
  0
BLOCK
  8
0
  2
*D21
 70
    65
 10
0.0
 20
0.0
 30
0.0
  3
*D
  0
LINE
  8
0
  6
BYBLOCK
 62
     0
 10
286.451553
 20
34.577354
 30
0.0
 11
286.785329
 21
34.577354
 31
0.0
  0
LINE
  8
0
  6
BYBLOCK
 62
     0
 10
286.451553
 20
33.477354
 30
0.0
 11
286.785329
 21
33.477354
 31
0.0
  0
LINE
  8
0
  6
BYBLOCK
 62
     0
 10
286.770329
 20
34.427354
 30
0.0
 11
286.770329
 21
33.627354
 31
0.0
  0
SOLID
  8
0
  6
BYBLOCK
 62
     0
 10
286.745329
 20
34.427354
 30
0.0
 11
286.795329
 21
34.427354
 31
0.0
 12
286.770329
 22
34.577354
 32
0.0
 13
286.770329
 23
34.577354
 33
0.0
  0
SOLID
  8
0
  6
BYBLOCK
 62
     0
 10
286.745329
 20
33.627354
 30
0.0
 11
286.795329
 21
33.627354
 31
0.0
 12
286.770329
 22
33.477354
 32
0.0
 13
286.770329
 23
33.477354
 33
0.0
  0
TEXT
  8
0
  6
BYBLOCK
 62
     0
 10
286.732829
 20
33.896997
 30
0.0
 40
0.075
  1
1.10
 50
90.0
  7
ROMANC
 72
     1
 11
286.695329
 21
34.027354
 31
0.0
 73
     2
  0
POINT
  8
DEFPOINTS
  6
BYBLOCK
 62
     0
 10
286.436553
 20
34.577354
 30
0.0
  0
POINT
  8
DEFPOINTS
  6
BYBLOCK
 62
     0
 10
286.436553
 20
33.477354
 30
0.0
  0
POINT
  8
DEFPOINTS
  6
BYBLOCK
 62
     0
 10
286.770329
 20
33.477354
 30
0.0
  0
ENDBLK
  8
0
  0
BLOCK
  8
0
  2
*D22
 70
    65
 10
0.0
 20
0.0
 30
0.0
  3
*D
  0
LINE
  8
0
  6
BYBLOCK
 62
     0
 10
285.851553
 20
35.077354
 30
0.0
 11
287.088996
 21
35.077354
 31
0.0
  0
LINE
  8
0
  6
BYBLOCK
 62
     0
 10
285.851553
 20
33.477354
 30
0.0
 11
287.088996
 21
33.477354
 31
0.0
  0
LINE
  8
0
  6
BYBLOCK
 62
     0
 10
287.073996
 20
34.927354
 30
0.0
 11
287.073996
 21
33.627354
 31
0.0
  0
SOLID
  8
0
  6
BYBLOCK
 62
     0
 10
287.048996
 20
34.927354
 30
0.0
 11
287.098996
 21
34.927354
 31
0.0
 12
287.073996
 22
35.077354
 32
0.0
 13
287.073996
 23
35.077354
 33
0.0
  0
SOLID
  8
0
  6
BYBLOCK
 62
     0
 10
287.048996
 20
33.627354
 30
0.0
 11
287.098996
 21
33.627354
 31
0.0
 12
287.073996
 22
33.477354
 32
0.0
 13
287.073996
 23
33.477354
 33
0.0
  0
TEXT
  8
0
  6
BYBLOCK
 62
     0
 10
287.036496
 20
34.146997
 30
0.0
 40
0.075
  1
1.60
 50
90.0
  7
ROMANC
 72
     1
 11
286.998996
 21
34.277354
 31
0.0
 73
     2
  0
POINT
  8
DEFPOINTS
  6
BYBLOCK
 62
     0
 10
285.836553
 20
35.077354
 30
0.0
  0
POINT
  8
DEFPOINTS
  6
BYBLOCK
 62
     0
 10
285.836553
 20
33.477354
 30
0.0
  0
POINT
  8
DEFPOINTS
  6
BYBLOCK
 62
     0
 10
287.073996
 20
33.477354
 30
0.0
  0
ENDBLK
  8
0
  0
BLOCK
  8
0
  2
*D23
 70
    65
 10
0.0
 20
0.0
 30
0.0
  3
*D
  0
LINE
  8
0
  6
BYBLOCK
 62
     0
 10
285.882355
 20
33.951333
 30
0.0
 11
285.882355
 21
33.55293
 31
0.0
  0
LINE
  8
0
  6
BYBLOCK
 62
     0
 10
286.282355
 20
33.951333
 30
0.0
 11
286.282355
 21
33.55293
 31
0.0
  0
LINE
  8
0
  6
BYBLOCK
 62
     0
 10
285.732355
 20
33.56793
 30
0.0
 11
285.582355
 21
33.56793
 31
0.0
  0
LINE
  8
0
  6
BYBLOCK
 62
     0
 10
286.432355
 20
33.56793
 30
0.0
 11
286.582355
 21
33.56793
 31
0.0
  0
SOLID
  8
0
  6
BYBLOCK
 62
     0
 10
285.732355
 20
33.59293
 30
0.0
 11
285.732355
 21
33.54293
 31
0.0
 12
285.882355
 22
33.56793
 32
0.0
 13
285.882355
 23
33.56793
 33
0.0
  0
SOLID
  8
0
  6
BYBLOCK
 62
     0
 10
286.432355
 20
33.59293
 30
0.0
 11
286.432355
 21
33.54293
 31
0.0
 12
286.282355
 22
33.56793
 32
0.0
 13
286.282355
 23
33.56793
 33
0.0
  0
LINE
  8
0
  6
BYBLOCK
 62
     0
 10
285.882355
 20
33.56793
 30
0.0
 11
286.282355
 21
33.56793
 31
0.0
  0
TEXT
  8
0
  6
BYBLOCK
 62
     0
 10
285.957355
 20
33.60543
 30
0.0
 40
0.075
  1
0.40
  7
ROMANC
 72
     1
 11
286.082355
 21
33.64293
 31
0.0
 73
     2
  0
POINT
  8
DEFPOINTS
  6
BYBLOCK
 62
     0
 10
285.882355
 20
33.966333
 30
0.0
  0
POINT
  8
DEFPOINTS
  6
BYBLOCK
 62
     0
 10
286.282355
 20
33.966333
 30
0.0
  0
POINT
  8
DEFPOINTS
  6
BYBLOCK
 62
     0
 10
286.282355
 20
33.56793
 30
0.0
  0
ENDBLK
  8
0
  0
BLOCK
  8
0
  2
*D24
 70
    65
 10
0.0
 20
0.0
 30
0.0
  3
*D
  0
LINE
  8
0
  6
BYBLOCK
 62
     0
 10
286.897355
 20
33.966333
 30
0.0
 11
287.178729
 21
33.966333
 31
0.0
  0
LINE
  8
0
  6
BYBLOCK
 62
     0
 10
286.897355
 20
34.966333
 30
0.0
 11
287.178729
 21
34.966333
 31
0.0
  0
LINE
  8
0
  6
BYBLOCK
 62
     0
 10
287.163729
 20
34.116333
 30
0.0
 11
287.163729
 21
34.816333
 31
0.0
  0
SOLID
  8
0
  6
BYBLOCK
 62
     0
 10
287.138729
 20
34.116333
 30
0.0
 11
287.188729
 21
34.116333
 31
0.0
 12
287.163729
 22
33.966333
 32
0.0
 13
287.163729
 23
33.966333
 33
0.0
  0
SOLID
  8
0
  6
BYBLOCK
 62
     0
 10
287.138729
 20
34.816333
 30
0.0
 11
287.188729
 21
34.816333
 31
0.0
 12
287.163729
 22
34.966333
 32
0.0
 13
287.163729
 23
34.966333
 33
0.0
  0
TEXT
  8
0
  6
BYBLOCK
 62
     0
 10
287.126229
 20
34.335976
 30
0.0
 40
0.075
  1
1.00
 50
90.0
  7
ROMANC
 72
     1
 11
287.088729
 21
34.466333
 31
0.0
 73
     2
  0
POINT
  8
DEFPOINTS
  6
BYBLOCK
 62
     0
 10
286.882355
 20
33.966333
 30
0.0
  0
POINT
  8
DEFPOINTS
  6
BYBLOCK
 62
     0
 10
286.882355
 20
34.966333
 30
0.0
  0
POINT
  8
DEFPOINTS
  6
BYBLOCK
 62
     0
 10
287.163729
 20
34.966333
 30
0.0
  0
ENDBLK
  8
0
  0
BLOCK
  8
0
  2
*D25
 70
    65
 10
0.0
 20
0.0
 30
0.0
  3
*D
  0
LINE
  8
0
  6
BYBLOCK
 62
     0
 10
285.282355
 20
33.951333
 30
0.0
 11
285.282355
 21
33.281203
 31
0.0
  0
LINE
  8
0
  6
BYBLOCK
 62
     0
 10
286.882355
 20
33.951333
 30
0.0
 11
286.882355
 21
33.281203
 31
0.0
  0
LINE
  8
0
  6
BYBLOCK
 62
     0
 10
285.432355
 20
33.296203
 30
0.0
 11
286.732355
 21
33.296203
 31
0.0
  0
SOLID
  8
0
  6
BYBLOCK
 62
     0
 10
285.432355
 20
33.321203
 30
0.0
 11
285.432355
 21
33.271203
 31
0.0
 12
285.282355
 22
33.296203
 32
0.0
 13
285.282355
 23
33.296203
 33
0.0
  0
SOLID
  8
0
  6
BYBLOCK
 62
     0
 10
286.732355
 20
33.321203
 30
0.0
 11
286.732355
 21
33.271203
 31
0.0
 12
286.882355
 22
33.296203
 32
0.0
 13
286.882355
 23
33.296203
 33
0.0
  0
TEXT
  8
0
  6
BYBLOCK
 62
     0
 10
285.951998
 20
33.333703
 30
0.0
 40
0.075
  1
1.60
  7
ROMANC
 72
     1
 11
286.082355
 21
33.371203
 31
0.0
 73
     2
  0
POINT
  8
DEFPOINTS
  6
BYBLOCK
 62
     0
 10
285.282355
 20
33.966333
 30
0.0
  0
POINT
  8
DEFPOINTS
  6
BYBLOCK
 62
     0
 10
286.882355
 20
33.966333
 30
0.0
  0
POINT
  8
DEFPOINTS
  6
BYBLOCK
 62
     0
 10
286.882355
 20
33.296203
 30
0.0
  0
ENDBLK
  8
0
  0
BLOCK
  8
0
  2
*D26
 70
    65
 10
0.0
 20
0.0
 30
0.0
  3
*D
  0
LINE
  8
0
  6
BYBLOCK
 62
     0
 10
286.097355
 20
33.766333
 30
0.0
 11
287.178729
 21
33.766333
 31
0.0
  0
LINE
  8
0
  6
BYBLOCK
 62
     0
 10
286.297355
 20
33.966333
 30
0.0
 11
287.178729
 21
33.966333
 31
0.0
  0
LINE
  8
0
  6
BYBLOCK
 62
     0
 10
287.163729
 20
33.616333
 30
0.0
 11
287.163729
 21
33.466333
 31
0.0
  0
LINE
  8
0
  6
BYBLOCK
 62
     0
 10
287.163729
 20
34.116333
 30
0.0
 11
287.163729
 21
34.266333
 31
0.0
  0
SOLID
  8
0
  6
BYBLOCK
 62
     0
 10
287.138729
 20
33.616333
 30
0.0
 11
287.188729
 21
33.616333
 31
0.0
 12
287.163729
 22
33.766333
 32
0.0
 13
287.163729
 23
33.766333
 33
0.0
  0
SOLID
  8
0
  6
BYBLOCK
 62
     0
 10
287.138729
 20
34.116333
 30
0.0
 11
287.188729
 21
34.116333
 31
0.0
 12
287.163729
 22
33.966333
 32
0.0
 13
287.163729
 23
33.966333
 33
0.0
  0
LINE
  8
0
  6
BYBLOCK
 62
     0
 10
287.163729
 20
33.766333
 30
0.0
 11
287.163729
 21
33.966333
 31
0.0
  0
TEXT
  8
0
  6
BYBLOCK
 62
     0
 10
287.126229
 20
33.741333
 30
0.0
 40
0.075
  1
0.20
 50
90.0
  7
ROMANC
 72
     1
 11
287.088729
 21
33.866333
 31
0.0
 73
     2
  0
POINT
  8
DEFPOINTS
  6
BYBLOCK
 62
     0
 10
286.082355
 20
33.766333
 30
0.0
  0
POINT
  8
DEFPOINTS
  6
BYBLOCK
 62
     0
 10
286.282355
 20
33.966333
 30
0.0
  0
POINT
  8
DEFPOINTS
  6
BYBLOCK
 62
     0
 10
287.163729
 20
33.966333
 30
0.0
  0
ENDBLK
  8
0
  0
BLOCK
  8
0
  2
*D27
 70
    65
 10
0.0
 20
0.0
 30
0.0
  3
*D
  0
LINE
  8
0
  6
BYBLOCK
 62
     0
 10
286.097355
 20
33.766333
 30
0.0
 11
287.178729
 21
33.766333
 31
0.0
  0
LINE
  8
0
  6
BYBLOCK
 62
     0
 10
286.297355
 20
33.966333
 30
0.0
 11
287.178729
 21
33.966333
 31
0.0
  0
LINE
  8
0
  6
BYBLOCK
 62
     0
 10
287.163729
 20
33.616333
 30
0.0
 11
287.163729
 21
33.466333
 31
0.0
  0
LINE
  8
0
  6
BYBLOCK
 62
     0
 10
287.163729
 20
34.116333
 30
0.0
 11
287.163729
 21
34.266333
 31
0.0
  0
SOLID
  8
0
  6
BYBLOCK
 62
     0
 10
287.138729
 20
33.616333
 30
0.0
 11
287.188729
 21
33.616333
 31
0.0
 12
287.163729
 22
33.766333
 32
0.0
 13
287.163729
 23
33.766333
 33
0.0
  0
SOLID
  8
0
  6
BYBLOCK
 62
     0
 10
287.138729
 20
34.116333
 30
0.0
 11
287.188729
 21
34.116333
 31
0.0
 12
287.163729
 22
33.966333
 32
0.0
 13
287.163729
 23
33.966333
 33
0.0
  0
LINE
  8
0
  6
BYBLOCK
 62
     0
 10
287.163729
 20
33.766333
 30
0.0
 11
287.163729
 21
33.966333
 31
0.0
  0
TEXT
  8
0
  6
BYBLOCK
 62
     0
 10
287.126229
 20
33.468808
 30
0.0
 40
0.075
  1
0.20
 50
90.0
  7
ROMANC
 72
     1
 11
287.088729
 21
33.593808
 31
0.0
 73
     2
  0
POINT
  8
DEFPOINTS
  6
BYBLOCK
 62
     0
 10
286.082355
 20
33.766333
 30
0.0
  0
POINT
  8
DEFPOINTS
  6
BYBLOCK
 62
     0
 10
286.282355
 20
33.966333
 30
0.0
  0
POINT
  8
DEFPOINTS
  6
BYBLOCK
 62
     0
 10
287.163729
 20
33.966333
 30
0.0
  0
ENDBLK
  8
0
  0
BLOCK
  8
0
  2
*D28
 70
    65
 10
0.0
 20
0.0
 30
0.0
  3
*D
  0
LINE
  8
0
  6
BYBLOCK
 62
     0
 10
285.282355
 20
34.981333
 30
0.0
 11
285.282355
 21
34.981333
 31
0.0
  0
LINE
  8
0
  6
BYBLOCK
 62
     0
 10
286.882355
 20
34.981333
 30
0.0
 11
286.882355
 21
34.981333
 31
0.0
  0
LINE
  8
0
  6
BYBLOCK
 62
     0
 10
285.432355
 20
34.966333
 30
0.0
 11
286.732355
 21
34.966333
 31
0.0
  0
SOLID
  8
0
  6
BYBLOCK
 62
     0
 10
285.432355
 20
34.991333
 30
0.0
 11
285.432355
 21
34.941333
 31
0.0
 12
285.282355
 22
34.966333
 32
0.0
 13
285.282355
 23
34.966333
 33
0.0
  0
SOLID
  8
0
  6
BYBLOCK
 62
     0
 10
286.732355
 20
34.991333
 30
0.0
 11
286.732355
 21
34.941333
 31
0.0
 12
286.882355
 22
34.966333
 32
0.0
 13
286.882355
 23
34.966333
 33
0.0
  0
TEXT
  8
0
  6
BYBLOCK
 62
     0
 10
285.951998
 20
35.003833
 30
0.0
 40
0.075
  1
1.60
  7
ROMANC
 72
     1
 11
286.082355
 21
35.041333
 31
0.0
 73
     2
  0
POINT
  8
DEFPOINTS
  6
BYBLOCK
 62
     0
 10
285.282355
 20
34.966333
 30
0.0
  0
POINT
  8
DEFPOINTS
  6
BYBLOCK
 62
     0
 10
286.882355
 20
34.966333
 30
0.0
  0
POINT
  8
DEFPOINTS
  6
BYBLOCK
 62
     0
 10
286.882355
 20
34.966333
 30
0.0
  0
ENDBLK
  8
0
  0
BLOCK
  8
0
  2
*D29
 70
    65
 10
0.0
 20
0.0
 30
0.0
  3
*D
  0
LINE
  8
0
  6
BYBLOCK
 62
     0
 10
286.097355
 20
33.766333
 30
0.0
 11
287.433318
 21
33.766333
 31
0.0
  0
LINE
  8
0
  6
BYBLOCK
 62
     0
 10
286.097355
 20
35.366333
 30
0.0
 11
287.433318
 21
35.366333
 31
0.0
  0
LINE
  8
0
  6
BYBLOCK
 62
     0
 10
287.418318
 20
33.916333
 30
0.0
 11
287.418318
 21
35.216333
 31
0.0
  0
SOLID
  8
0
  6
BYBLOCK
 62
     0
 10
287.393318
 20
33.916333
 30
0.0
 11
287.443318
 21
33.916333
 31
0.0
 12
287.418318
 22
33.766333
 32
0.0
 13
287.418318
 23
33.766333
 33
0.0
  0
SOLID
  8
0
  6
BYBLOCK
 62
     0
 10
287.393318
 20
35.216333
 30
0.0
 11
287.443318
 21
35.216333
 31
0.0
 12
287.418318
 22
35.366333
 32
0.0
 13
287.418318
 23
35.366333
 33
0.0
  0
TEXT
  8
0
  6
BYBLOCK
 62
     0
 10
287.380818
 20
34.435976
 30
0.0
 40
0.075
  1
1.60
 50
90.0
  7
ROMANC
 72
     1
 11
287.343318
 21
34.566333
 31
0.0
 73
     2
  0
POINT
  8
DEFPOINTS
  6
BYBLOCK
 62
     0
 10
286.082355
 20
33.766333
 30
0.0
  0
POINT
  8
DEFPOINTS
  6
BYBLOCK
 62
     0
 10
286.082355
 20
35.366333
 30
0.0
  0
POINT
  8
DEFPOINTS
  6
BYBLOCK
 62
     0
 10
287.418318
 20
35.366333
 30
0.0
  0
ENDBLK
  8
0
  0
BLOCK
  8
0
  2
*D30
 70
    65
 10
0.0
 20
0.0
 30
0.0
  3
*D
  0
LINE
  8
0
  6
BYBLOCK
 62
     0
 10
287.793919
 20
33.980594
 30
0.0
 11
287.793919
 21
32.974902
 31
0.0
  0
LINE
  8
0
  6
BYBLOCK
 62
     0
 10
288.793919
 20
33.980594
 30
0.0
 11
288.793919
 21
32.974902
 31
0.0
  0
LINE
  8
0
  6
BYBLOCK
 62
     0
 10
287.943919
 20
32.989902
 30
0.0
 11
288.643919
 21
32.989902
 31
0.0
  0
SOLID
  8
0
  6
BYBLOCK
 62
     0
 10
287.943919
 20
33.014902
 30
0.0
 11
287.943919
 21
32.964902
 31
0.0
 12
287.793919
 22
32.989902
 32
0.0
 13
287.793919
 23
32.989902
 33
0.0
  0
SOLID
  8
0
  6
BYBLOCK
 62
     0
 10
288.643919
 20
33.014902
 30
0.0
 11
288.643919
 21
32.964902
 31
0.0
 12
288.793919
 22
32.989902
 32
0.0
 13
288.793919
 23
32.989902
 33
0.0
  0
TEXT
  8
0
  6
BYBLOCK
 62
     0
 10
288.163562
 20
33.027402
 30
0.0
 40
0.075
  1
1.00
  7
ROMANC
 72
     1
 11
288.293919
 21
33.064902
 31
0.0
 73
     2
  0
POINT
  8
DEFPOINTS
  6
BYBLOCK
 62
     0
 10
287.793919
 20
33.995594
 30
0.0
  0
POINT
  8
DEFPOINTS
  6
BYBLOCK
 62
     0
 10
288.793919
 20
33.995594
 30
0.0
  0
POINT
  8
DEFPOINTS
  6
BYBLOCK
 62
     0
 10
288.793919
 20
32.989902
 30
0.0
  0
ENDBLK
  8
0
  0
BLOCK
  8
0
  2
*D31
 70
    65
 10
0.0
 20
0.0
 30
0.0
  3
*D
  0
LINE
  8
0
  6
BYBLOCK
 62
     0
 10
288.808919
 20
35.345594
 30
0.0
 11
289.566256
 21
35.345594
 31
0.0
  0
LINE
  8
0
  6
BYBLOCK
 62
     0
 10
288.808919
 20
33.995594
 30
0.0
 11
289.566256
 21
33.995594
 31
0.0
  0
LINE
  8
0
  6
BYBLOCK
 62
     0
 10
289.551256
 20
35.195594
 30
0.0
 11
289.551256
 21
34.145594
 31
0.0
  0
SOLID
  8
0
  6
BYBLOCK
 62
     0
 10
289.526256
 20
35.195594
 30
0.0
 11
289.576256
 21
35.195594
 31
0.0
 12
289.551256
 22
35.345594
 32
0.0
 13
289.551256
 23
35.345594
 33
0.0
  0
SOLID
  8
0
  6
BYBLOCK
 62
     0
 10
289.526256
 20
34.145594
 30
0.0
 11
289.576256
 21
34.145594
 31
0.0
 12
289.551256
 22
33.995594
 32
0.0
 13
289.551256
 23
33.995594
 33
0.0
  0
TEXT
  8
0
  6
BYBLOCK
 62
     0
 10
289.513756
 20
34.540237
 30
0.0
 40
0.075
  1
1.35
 50
90.0
  7
ROMANC
 72
     1
 11
289.476256
 21
34.670594
 31
0.0
 73
     2
  0
POINT
  8
DEFPOINTS
  6
BYBLOCK
 62
     0
 10
288.793919
 20
35.345594
 30
0.0
  0
POINT
  8
DEFPOINTS
  6
BYBLOCK
 62
     0
 10
288.793919
 20
33.995594
 30
0.0
  0
POINT
  8
DEFPOINTS
  6
BYBLOCK
 62
     0
 10
289.551256
 20
33.995594
 30
0.0
  0
ENDBLK
  8
0
  0
BLOCK
  8
0
  2
*D32
 70
    65
 10
0.0
 20
0.0
 30
0.0
  3
*D
  0
LINE
  8
0
  6
BYBLOCK
 62
     0
 10
288.808919
 20
35.345594
 30
0.0
 11
289.30398
 21
35.345594
 31
0.0
  0
LINE
  8
0
  6
BYBLOCK
 62
     0
 10
288.808919
 20
33.995594
 30
0.0
 11
289.30398
 21
33.995594
 31
0.0
  0
LINE
  8
0
  6
BYBLOCK
 62
     0
 10
289.28898
 20
35.195594
 30
0.0
 11
289.28898
 21
34.145594
 31
0.0
  0
SOLID
  8
0
  6
BYBLOCK
 62
     0
 10
289.26398
 20
35.195594
 30
0.0
 11
289.31398
 21
35.195594
 31
0.0
 12
289.28898
 22
35.345594
 32
0.0
 13
289.28898
 23
35.345594
 33
0.0
  0
SOLID
  8
0
  6
BYBLOCK
 62
     0
 10
289.26398
 20
34.145594
 30
0.0
 11
289.31398
 21
34.145594
 31
0.0
 12
289.28898
 22
33.995594
 32
0.0
 13
289.28898
 23
33.995594
 33
0.0
  0
TEXT
  8
0
  6
BYBLOCK
 62
     0
 10
289.25148
 20
34.540237
 30
0.0
 40
0.075
  1
1.35
 50
90.0
  7
ROMANC
 72
     1
 11
289.21398
 21
34.670594
 31
0.0
 73
     2
  0
POINT
  8
DEFPOINTS
  6
BYBLOCK
 62
     0
 10
288.793919
 20
35.345594
 30
0.0
  0
POINT
  8
DEFPOINTS
  6
BYBLOCK
 62
     0
 10
288.793919
 20
33.995594
 30
0.0
  0
POINT
  8
DEFPOINTS
  6
BYBLOCK
 62
     0
 10
289.28898
 20
33.995594
 30
0.0
  0
ENDBLK
  8
0
  0
BLOCK
  8
0
  2
*D33
 70
    65
 10
0.0
 20
0.0
 30
0.0
  3
*D
  0
LINE
  8
0
  6
BYBLOCK
 62
     0
 10
287.793919
 20
33.980594
 30
0.0
 11
287.793919
 21
33.132196
 31
0.0
  0
LINE
  8
0
  6
BYBLOCK
 62
     0
 10
288.793919
 20
33.980594
 30
0.0
 11
288.793919
 21
33.132196
 31
0.0
  0
LINE
  8
0
  6
BYBLOCK
 62
     0
 10
287.943919
 20
33.147196
 30
0.0
 11
288.643919
 21
33.147196
 31
0.0
  0
SOLID
  8
0
  6
BYBLOCK
 62
     0
 10
287.943919
 20
33.172196
 30
0.0
 11
287.943919
 21
33.122196
 31
0.0
 12
287.793919
 22
33.147196
 32
0.0
 13
287.793919
 23
33.147196
 33
0.0
  0
SOLID
  8
0
  6
BYBLOCK
 62
     0
 10
288.643919
 20
33.172196
 30
0.0
 11
288.643919
 21
33.122196
 31
0.0
 12
288.793919
 22
33.147196
 32
0.0
 13
288.793919
 23
33.147196
 33
0.0
  0
TEXT
  8
0
  6
BYBLOCK
 62
     0
 10
288.163562
 20
33.184696
 30
0.0
 40
0.075
  1
1.00
  7
ROMANC
 72
     1
 11
288.293919
 21
33.222196
 31
0.0
 73
     2
  0
POINT
  8
DEFPOINTS
  6
BYBLOCK
 62
     0
 10
287.793919
 20
33.995594
 30
0.0
  0
POINT
  8
DEFPOINTS
  6
BYBLOCK
 62
     0
 10
288.793919
 20
33.995594
 30
0.0
  0
POINT
  8
DEFPOINTS
  6
BYBLOCK
 62
     0
 10
288.793919
 20
33.147196
 30
0.0
  0
ENDBLK
  8
0
  0
BLOCK
  8
0
  2
*D34
 70
    65
 10
0.0
 20
0.0
 30
0.0
  3
*D
  0
LINE
  8
0
  6
BYBLOCK
 62
     0
 10
284.793919
 20
33.649019
 30
0.0
 11
284.793919
 21
33.132196
 31
0.0
  0
LINE
  8
0
  6
BYBLOCK
 62
     0
 10
287.793919
 20
33.965594
 30
0.0
 11
287.793919
 21
33.132196
 31
0.0
  0
LINE
  8
0
  6
BYBLOCK
 62
     0
 10
284.943919
 20
33.147196
 30
0.0
 11
287.643919
 21
33.147196
 31
0.0
  0
SOLID
  8
0
  6
BYBLOCK
 62
     0
 10
284.943919
 20
33.172196
 30
0.0
 11
284.943919
 21
33.122196
 31
0.0
 12
284.793919
 22
33.147196
 32
0.0
 13
284.793919
 23
33.147196
 33
0.0
  0
SOLID
  8
0
  6
BYBLOCK
 62
     0
 10
287.643919
 20
33.172196
 30
0.0
 11
287.643919
 21
33.122196
 31
0.0
 12
287.793919
 22
33.147196
 32
0.0
 13
287.793919
 23
33.147196
 33
0.0
  0
TEXT
  8
0
  6
BYBLOCK
 62
     0
 10
286.168919
 20
33.184696
 30
0.0
 40
0.075
  1
3.00
  7
ROMANC
 72
     1
 11
286.293919
 21
33.222196
 31
0.0
 73
     2
  0
POINT
  8
DEFPOINTS
  6
BYBLOCK
 62
     0
 10
284.793919
 20
33.664019
 30
0.0
  0
POINT
  8
DEFPOINTS
  6
BYBLOCK
 62
     0
 10
287.793919
 20
33.980594
 30
0.0
  0
POINT
  8
DEFPOINTS
  6
BYBLOCK
 62
     0
 10
287.793919
 20
33.147196
 30
0.0
  0
ENDBLK
  8
0
  0
BLOCK
  8
0
  2
*D35
 70
    65
 10
0.0
 20
0.0
 30
0.0
  3
*D
  0
LINE
  8
0
  6
BYBLOCK
 62
     0
 10
284.793919
 20
33.649019
 30
0.0
 11
284.793919
 21
32.757687
 31
0.0
  0
LINE
  8
0
  6
BYBLOCK
 62
     0
 10
288.793919
 20
33.980594
 30
0.0
 11
288.793919
 21
32.757687
 31
0.0
  0
LINE
  8
0
  6
BYBLOCK
 62
     0
 10
284.943919
 20
32.772687
 30
0.0
 11
288.643919
 21
32.772687
 31
0.0
  0
SOLID
  8
0
  6
BYBLOCK
 62
     0
 10
284.943919
 20
32.797687
 30
0.0
 11
284.943919
 21
32.747687
 31
0.0
 12
284.793919
 22
32.772687
 32
0.0
 13
284.793919
 23
32.772687
 33
0.0
  0
SOLID
  8
0
  6
BYBLOCK
 62
     0
 10
288.643919
 20
32.797687
 30
0.0
 11
288.643919
 21
32.747687
 31
0.0
 12
288.793919
 22
32.772687
 32
0.0
 13
288.793919
 23
32.772687
 33
0.0
  0
TEXT
  8
0
  6
BYBLOCK
 62
     0
 10
286.670705
 20
32.810187
 30
0.0
 40
0.075
  1
4.00
  7
ROMANC
 72
     1
 11
286.793919
 21
32.847687
 31
0.0
 73
     2
  0
POINT
  8
DEFPOINTS
  6
BYBLOCK
 62
     0
 10
284.793919
 20
33.664019
 30
0.0
  0
POINT
  8
DEFPOINTS
  6
BYBLOCK
 62
     0
 10
288.793919
 20
33.995594
 30
0.0
  0
POINT
  8
DEFPOINTS
  6
BYBLOCK
 62
     0
 10
288.793919
 20
32.772687
 30
0.0
  0
ENDBLK
  8
0
  0
BLOCK
  8
0
  2
*D36
 70
    65
 10
0.0
 20
0.0
 30
0.0
  3
*D
  0
LINE
  8
0
  6
BYBLOCK
 62
     0
 10
284.793919
 20
35.360594
 30
0.0
 11
284.793919
 21
35.360594
 31
0.0
  0
LINE
  8
0
  6
BYBLOCK
 62
     0
 10
288.793919
 20
35.360594
 30
0.0
 11
288.793919
 21
35.360594
 31
0.0
  0
LINE
  8
0
  6
BYBLOCK
 62
     0
 10
284.943919
 20
35.345594
 30
0.0
 11
288.643919
 21
35.345594
 31
0.0
  0
SOLID
  8
0
  6
BYBLOCK
 62
     0
 10
284.943919
 20
35.370594
 30
0.0
 11
284.943919
 21
35.320594
 31
0.0
 12
284.793919
 22
35.345594
 32
0.0
 13
284.793919
 23
35.345594
 33
0.0
  0
SOLID
  8
0
  6
BYBLOCK
 62
     0
 10
288.643919
 20
35.370594
 30
0.0
 11
288.643919
 21
35.320594
 31
0.0
 12
288.793919
 22
35.345594
 32
0.0
 13
288.793919
 23
35.345594
 33
0.0
  0
TEXT
  8
0
  6
BYBLOCK
 62
     0
 10
286.670705
 20
35.383094
 30
0.0
 40
0.075
  1
4.00
  7
ROMANC
 72
     1
 11
286.793919
 21
35.420594
 31
0.0
 73
     2
  0
POINT
  8
DEFPOINTS
  6
BYBLOCK
 62
     0
 10
284.793919
 20
35.345594
 30
0.0
  0
POINT
  8
DEFPOINTS
  6
BYBLOCK
 62
     0
 10
288.793919
 20
35.345594
 30
0.0
  0
POINT
  8
DEFPOINTS
  6
BYBLOCK
 62
     0
 10
288.793919
 20
35.345594
 30
0.0
  0
ENDBLK
  8
0
  0
BLOCK
  8
0
  2
*D37
 70
    65
 10
0.0
 20
0.0
 30
0.0
  3
*D
  0
LINE
  8
0
  6
BYBLOCK
 62
     0
 10
287.808919
 20
33.995594
 30
0.0
 11
289.30398
 21
33.995594
 31
0.0
  0
LINE
  8
0
  6
BYBLOCK
 62
     0
 10
286.308919
 20
33.495594
 30
0.0
 11
289.30398
 21
33.495594
 31
0.0
  0
LINE
  8
0
  6
BYBLOCK
 62
     0
 10
289.28898
 20
34.145594
 30
0.0
 11
289.28898
 21
34.295594
 31
0.0
  0
LINE
  8
0
  6
BYBLOCK
 62
     0
 10
289.28898
 20
33.345594
 30
0.0
 11
289.28898
 21
33.195594
 31
0.0
  0
SOLID
  8
0
  6
BYBLOCK
 62
     0
 10
289.26398
 20
34.145594
 30
0.0
 11
289.31398
 21
34.145594
 31
0.0
 12
289.28898
 22
33.995594
 32
0.0
 13
289.28898
 23
33.995594
 33
0.0
  0
SOLID
  8
0
  6
BYBLOCK
 62
     0
 10
289.26398
 20
33.345594
 30
0.0
 11
289.31398
 21
33.345594
 31
0.0
 12
289.28898
 22
33.495594
 32
0.0
 13
289.28898
 23
33.495594
 33
0.0
  0
LINE
  8
0
  6
BYBLOCK
 62
     0
 10
289.28898
 20
33.995594
 30
0.0
 11
289.28898
 21
33.495594
 31
0.0
  0
TEXT
  8
0
  6
BYBLOCK
 62
     0
 10
289.25148
 20
33.620594
 30
0.0
 40
0.075
  1
0.50
 50
90.0
  7
ROMANC
 72
     1
 11
289.21398
 21
33.745594
 31
0.0
 73
     2
  0
POINT
  8
DEFPOINTS
  6
BYBLOCK
 62
     0
 10
287.793919
 20
33.995594
 30
0.0
  0
POINT
  8
DEFPOINTS
  6
BYBLOCK
 62
     0
 10
286.293919
 20
33.495594
 30
0.0
  0
POINT
  8
DEFPOINTS
  6
BYBLOCK
 62
     0
 10
289.28898
 20
33.495594
 30
0.0
  0
ENDBLK
  8
0
  0
BLOCK
  8
0
  2
*D38
 70
    65
 10
0.0
 20
0.0
 30
0.0
  3
*D
  0
LINE
  8
0
  6
BYBLOCK
 62
     0
 10
286.808919
 20
37.345594
 30
0.0
 11
289.731115
 21
37.345594
 31
0.0
  0
LINE
  8
0
  6
BYBLOCK
 62
     0
 10
286.308919
 20
33.495594
 30
0.0
 11
289.731115
 21
33.495594
 31
0.0
  0
LINE
  8
0
  6
BYBLOCK
 62
     0
 10
289.716115
 20
37.195594
 30
0.0
 11
289.716115
 21
33.645594
 31
0.0
  0
SOLID
  8
0
  6
BYBLOCK
 62
     0
 10
289.691115
 20
37.195594
 30
0.0
 11
289.741115
 21
37.195594
 31
0.0
 12
289.716115
 22
37.345594
 32
0.0
 13
289.716115
 23
37.345594
 33
0.0
  0
SOLID
  8
0
  6
BYBLOCK
 62
     0
 10
289.691115
 20
33.645594
 30
0.0
 11
289.741115
 21
33.645594
 31
0.0
 12
289.716115
 22
33.495594
 32
0.0
 13
289.716115
 23
33.495594
 33
0.0
  0
TEXT
  8
0
  6
BYBLOCK
 62
     0
 10
289.678615
 20
35.295594
 30
0.0
 40
0.075
  1
3.85
 50
90.0
  7
ROMANC
 72
     1
 11
289.641115
 21
35.420594
 31
0.0
 73
     2
  0
POINT
  8
DEFPOINTS
  6
BYBLOCK
 62
     0
 10
286.793919
 20
37.345594
 30
0.0
  0
POINT
  8
DEFPOINTS
  6
BYBLOCK
 62
     0
 10
286.293919
 20
33.495594
 30
0.0
  0
POINT
  8
DEFPOINTS
  6
BYBLOCK
 62
     0
 10
289.716115
 20
33.495594
 30
0.0
  0
ENDBLK
  8
0
  0
ENDSEC
  0
SECTION
  2
ENTITIES
  0
LINE
  8
0
 10
291.895795
 20
29.897444
 30
0.0
 11
291.895795
 21
44.747444
 31
0.0
  0
TEXT
  8
0
 10
283.887846
 20
40.56142
 30
0.0
 40
0.3
  1
P = 137.1 dm
  7
ROMANC
  0
LINE
  8
0
 10
281.395795
 20
44.747444
 30
0.0
 11
281.395795
 21
29.897444
 31
0.0
  0
LINE
  8
0
 10
281.395795
 20
29.897444
 30
0.0
 11
291.895795
 21
29.897444
 31
0.0
  0
LINE
  8
0
 10
291.895795
 20
44.747444
 30
0.0
 11
281.395795
 21
44.747444
 31
0.0
  0
TEXT
  8
0
 10
287.122271
 20
41.564915
 30
0.0
 40
0.1
  1
2
  7
ROMANC
  0
TEXT
  8
0
 10
283.925768
 20
41.857589
 30
0.0
 40
0.3
  1
ESCALA  1:50
  7
ROMANC
  0
TEXT
  8
0
 10
283.925768
 20
42.343303
 30
0.0
 40
0.3
  1
TIPUS   NT1308
  7
ROMANC
  0
TEXT
  8
0
 10
283.938862
 20
41.258999
 30
0.0
 40
0.3
  1
S= 1308 dm
  7
ROMANC
  0
LINE
  8
0
 10
287.845981
 20
33.980594
 30
0.0
 11
287.845981
 21
35.345594
 31
0.0
  0
ARC
  8
0
 10
285.830981
 20
35.345594
 30
0.0
 40
2.015
 50
0.000007
 51
179.999993
  0
LINE
  8
0
 10
283.815981
 20
35.345594
 30
0.0
 11
283.815981
 21
33.664019
 31
0.0
  0
ARC
  8
0
 10
283.873906
 20
33.664019
 30
0.0
 40
0.057925
 50
180.0
 51
254.832999
  0
ARC
  8
0
 10
284.573457
 20
36.244668
 30
0.0
 40
2.731709
 50
254.832999
 51
263.59348
  0
ARC
  8
0
 10
285.02447
 20
40.261419
 30
0.0
 40
6.773701
 50
263.59348
 51
267.337137
  0
ARC
  8
0
 10
285.330981
 20
46.85174
 30
0.0
 40
13.371146
 50
267.337137
 51
270.0
  0
ARC
  8
0
 10
285.330981
 20
46.85174
 30
0.0
 40
13.371146
 50
270.0
 51
272.662863
  0
ARC
  8
0
 10
285.637492
 20
40.261419
 30
0.0
 40
6.773701
 50
272.662863
 51
276.40652
  0
ARC
  8
0
 10
286.088505
 20
36.244668
 30
0.0
 40
2.731709
 50
276.40652
 51
285.167001
  0
ARC
  8
0
 10
286.788057
 20
33.664019
 30
0.0
 40
0.057925
 50
285.167001
 51
0.0
  0
LINE
  8
0
 10
286.845981
 20
33.664019
 30
0.0
 11
286.845981
 21
33.980594
 31
0.0
  0
LINE
  8
0
 10
286.845981
 20
33.980594
 30
0.0
 11
287.845981
 21
33.980594
 31
0.0
  0
LINE
  8
0
 10
287.838481
 20
33.988094
 30
0.0
 11
287.838481
 21
35.345594
 31
0.0
  0
ARC
  8
0
 10
285.830981
 20
35.345594
 30
0.0
 40
2.0075
 50
0.000005
 51
179.999995
  0
LINE
  8
0
 10
283.823481
 20
35.345594
 30
0.0
 11
283.823481
 21
33.664019
 31
0.0
  0
ARC
  8
0
 10
283.873906
 20
33.664019
 30
0.0
 40
0.050425
 50
180.0
 51
254.832999
  0
ARC
  8
0
 10
284.573457
 20
36.244668
 30
0.0
 40
2.724209
 50
254.832999
 51
263.59348
  0
ARC
  8
0
 10
285.02447
 20
40.261419
 30
0.0
 40
6.766201
 50
263.59348
 51
267.337137
  0
ARC
  8
0
 10
285.330981
 20
46.85174
 30
0.0
 40
13.363646
 50
267.337137
 51
270.0
  0
ARC
  8
0
 10
285.330981
 20
46.85174
 30
0.0
 40
13.363646
 50
270.0
 51
272.662863
  0
ARC
  8
0
 10
285.637492
 20
40.261419
 30
0.0
 40
6.766201
 50
272.662863
 51
276.40652
  0
ARC
  8
0
 10
286.088505
 20
36.244668
 30
0.0
 40
2.724209
 50
276.40652
 51
285.167001
  0
ARC
  8
0
 10
286.788057
 20
33.664019
 30
0.0
 40
0.050425
 50
285.167001
 51
0.0
  0
LINE
  8
0
 10
286.838481
 20
33.664019
 30
0.0
 11
286.838481
 21
33.988094
 31
0.0
  0
LINE
  8
0
 10
286.838481
 20
33.988094
 30
0.0
 11
287.838481
 21
33.988094
 31
0.0
  0
LINE
  8
0
  6
BYBLOCK
 62
     0
 10
285.845981
 20
37.345594
 30
0.0
 11
288.768177
 21
37.345594
 31
0.0
  0
LINE
  8
0
  6
BYBLOCK
 62
     0
 10
285.345981
 20
33.495594
 30
0.0
 11
288.768177
 21
33.495594
 31
0.0
  0
LINE
  8
0
  6
BYBLOCK
 62
     0
 10
288.753177
 20
37.195594
 30
0.0
 11
288.753177
 21
33.645594
 31
0.0
  0
SOLID
  8
0
  6
BYBLOCK
 62
     0
 10
288.728177
 20
37.195594
 30
0.0
 11
288.778177
 21
37.195594
 31
0.0
 12
288.753177
 22
37.345594
 32
0.0
 13
288.753177
 23
37.345594
 33
0.0
  0
SOLID
  8
0
  6
BYBLOCK
 62
     0
 10
288.728177
 20
33.645594
 30
0.0
 11
288.778177
 21
33.645594
 31
0.0
 12
288.753177
 22
33.495594
 32
0.0
 13
288.753177
 23
33.495594
 33
0.0
  0
TEXT
  8
0
  6
BYBLOCK
 62
     0
 10
288.715677
 20
35.295594
 30
0.0
 40
0.075
  1
3.85
 50
90.0
  7
ROMANC
 72
     1
 11
288.678177
 21
35.420594
 31
0.0
 73
     2
  0
POINT
  8
DEFPOINTS
  6
BYBLOCK
 62
     0
 10
285.830981
 20
37.345594
 30
0.0
  0
POINT
  8
DEFPOINTS
  6
BYBLOCK
 62
     0
 10
285.330981
 20
33.495594
 30
0.0
  0
POINT
  8
DEFPOINTS
  6
BYBLOCK
 62
     0
 10
288.753177
 20
33.495594
 30
0.0
  0
LINE
  8
0
  6
BYBLOCK
 62
     0
 10
286.845981
 20
33.995594
 30
0.0
 11
288.341042
 21
33.995594
 31
0.0
  0
LINE
  8
0
  6
BYBLOCK
 62
     0
 10
285.345981
 20
33.495594
 30
0.0
 11
288.341042
 21
33.495594
 31
0.0
  0
LINE
  8
0
  6
BYBLOCK
 62
     0
 10
288.326042
 20
34.145594
 30
0.0
 11
288.326042
 21
34.295594
 31
0.0
  0
LINE
  8
0
  6
BYBLOCK
 62
     0
 10
288.326042
 20
33.345594
 30
0.0
 11
288.326042
 21
33.195594
 31
0.0
  0
SOLID
  8
0
  6
BYBLOCK
 62
     0
 10
288.301042
 20
34.145594
 30
0.0
 11
288.351042
 21
34.145594
 31
0.0
 12
288.326042
 22
33.995594
 32
0.0
 13
288.326042
 23
33.995594
 33
0.0
  0
SOLID
  8
0
  6
BYBLOCK
 62
     0
 10
288.301042
 20
33.345594
 30
0.0
 11
288.351042
 21
33.345594
 31
0.0
 12
288.326042
 22
33.495594
 32
0.0
 13
288.326042
 23
33.495594
 33
0.0
  0
LINE
  8
0
  6
BYBLOCK
 62
     0
 10
288.326042
 20
33.995594
 30
0.0
 11
288.326042
 21
33.495594
 31
0.0
  0
TEXT
  8
0
  6
BYBLOCK
 62
     0
 10
288.288542
 20
33.620594
 30
0.0
 40
0.075
  1
0.50
 50
90.0
  7
ROMANC
 72
     1
 11
288.251042
 21
33.745594
 31
0.0
 73
     2
  0
POINT
  8
DEFPOINTS
  6
BYBLOCK
 62
     0
 10
286.830981
 20
33.995594
 30
0.0
  0
POINT
  8
DEFPOINTS
  6
BYBLOCK
 62
     0
 10
285.330981
 20
33.495594
 30
0.0
  0
POINT
  8
DEFPOINTS
  6
BYBLOCK
 62
     0
 10
288.326042
 20
33.495594
 30
0.0
  0
LINE
  8
0
  6
BYBLOCK
 62
     0
 10
283.830981
 20
35.360594
 30
0.0
 11
283.830981
 21
35.360594
 31
0.0
  0
LINE
  8
0
  6
BYBLOCK
 62
     0
 10
287.830981
 20
35.360594
 30
0.0
 11
287.830981
 21
35.360594
 31
0.0
  0
LINE
  8
0
  6
BYBLOCK
 62
     0
 10
283.980981
 20
35.345594
 30
0.0
 11
287.680981
 21
35.345594
 31
0.0
  0
SOLID
  8
0
  6
BYBLOCK
 62
     0
 10
283.980981
 20
35.370594
 30
0.0
 11
283.980981
 21
35.320594
 31
0.0
 12
283.830981
 22
35.345594
 32
0.0
 13
283.830981
 23
35.345594
 33
0.0
  0
SOLID
  8
0
  6
BYBLOCK
 62
     0
 10
287.680981
 20
35.370594
 30
0.0
 11
287.680981
 21
35.320594
 31
0.0
 12
287.830981
 22
35.345594
 32
0.0
 13
287.830981
 23
35.345594
 33
0.0
  0
TEXT
  8
0
  6
BYBLOCK
 62
     0
 10
285.707767
 20
35.383094
 30
0.0
 40
0.075
  1
4.00
  7
ROMANC
 72
     1
 11
285.830981
 21
35.420594
 31
0.0
 73
     2
  0
POINT
  8
DEFPOINTS
  6
BYBLOCK
 62
     0
 10
283.830981
 20
35.345594
 30
0.0
  0
POINT
  8
DEFPOINTS
  6
BYBLOCK
 62
     0
 10
287.830981
 20
35.345594
 30
0.0
  0
POINT
  8
DEFPOINTS
  6
BYBLOCK
 62
     0
 10
287.830981
 20
35.345594
 30
0.0
  0
LINE
  8
0
  6
BYBLOCK
 62
     0
 10
283.830981
 20
33.649019
 30
0.0
 11
283.830981
 21
32.757687
 31
0.0
  0
LINE
  8
0
  6
BYBLOCK
 62
     0
 10
287.830981
 20
33.980594
 30
0.0
 11
287.830981
 21
32.757687
 31
0.0
  0
LINE
  8
0
  6
BYBLOCK
 62
     0
 10
283.980981
 20
32.772687
 30
0.0
 11
287.680981
 21
32.772687
 31
0.0
  0
SOLID
  8
0
  6
BYBLOCK
 62
     0
 10
283.980981
 20
32.797687
 30
0.0
 11
283.980981
 21
32.747687
 31
0.0
 12
283.830981
 22
32.772687
 32
0.0
 13
283.830981
 23
32.772687
 33
0.0
  0
SOLID
  8
0
  6
BYBLOCK
 62
     0
 10
287.680981
 20
32.797687
 30
0.0
 11
287.680981
 21
32.747687
 31
0.0
 12
287.830981
 22
32.772687
 32
0.0
 13
287.830981
 23
32.772687
 33
0.0
  0
TEXT
  8
0
  6
BYBLOCK
 62
     0
 10
285.707767
 20
32.810187
 30
0.0
 40
0.075
  1
4.00
  7
ROMANC
 72
     1
 11
285.830981
 21
32.847687
 31
0.0
 73
     2
  0
POINT
  8
DEFPOINTS
  6
BYBLOCK
 62
     0
 10
283.830981
 20
33.664019
 30
0.0
  0
POINT
  8
DEFPOINTS
  6
BYBLOCK
 62
     0
 10
287.830981
 20
33.995594
 30
0.0
  0
POINT
  8
DEFPOINTS
  6
BYBLOCK
 62
     0
 10
287.830981
 20
32.772687
 30
0.0
  0
LINE
  8
0
  6
BYBLOCK
 62
     0
 10
283.830981
 20
33.649019
 30
0.0
 11
283.830981
 21
33.132196
 31
0.0
  0
LINE
  8
0
  6
BYBLOCK
 62
     0
 10
286.830981
 20
33.965594
 30
0.0
 11
286.830981
 21
33.132196
 31
0.0
  0
LINE
  8
0
  6
BYBLOCK
 62
     0
 10
283.980981
 20
33.147196
 30
0.0
 11
286.680981
 21
33.147196
 31
0.0
  0
SOLID
  8
0
  6
BYBLOCK
 62
     0
 10
283.980981
 20
33.172196
 30
0.0
 11
283.980981
 21
33.122196
 31
0.0
 12
283.830981
 22
33.147196
 32
0.0
 13
283.830981
 23
33.147196
 33
0.0
  0
SOLID
  8
0
  6
BYBLOCK
 62
     0
 10
286.680981
 20
33.172196
 30
0.0
 11
286.680981
 21
33.122196
 31
0.0
 12
286.830981
 22
33.147196
 32
0.0
 13
286.830981
 23
33.147196
 33
0.0
  0
TEXT
  8
0
  6
BYBLOCK
 62
     0
 10
285.205981
 20
33.184696
 30
0.0
 40
0.075
  1
3.00
  7
ROMANC
 72
     1
 11
285.330981
 21
33.222196
 31
0.0
 73
     2
  0
POINT
  8
DEFPOINTS
  6
BYBLOCK
 62
     0
 10
283.830981
 20
33.664019
 30
0.0
  0
POINT
  8
DEFPOINTS
  6
BYBLOCK
 62
     0
 10
286.830981
 20
33.980594
 30
0.0
  0
POINT
  8
DEFPOINTS
  6
BYBLOCK
 62
     0
 10
286.830981
 20
33.147196
 30
0.0
  0
LINE
  8
0
  6
BYBLOCK
 62
     0
 10
287.845981
 20
35.345594
 30
0.0
 11
288.341042
 21
35.345594
 31
0.0
  0
LINE
  8
0
  6
BYBLOCK
 62
     0
 10
287.845981
 20
33.995594
 30
0.0
 11
288.341042
 21
33.995594
 31
0.0
  0
LINE
  8
0
  6
BYBLOCK
 62
     0
 10
288.326042
 20
35.195594
 30
0.0
 11
288.326042
 21
34.145594
 31
0.0
  0
SOLID
  8
0
  6
BYBLOCK
 62
     0
 10
288.301042
 20
35.195594
 30
0.0
 11
288.351042
 21
35.195594
 31
0.0
 12
288.326042
 22
35.345594
 32
0.0
 13
288.326042
 23
35.345594
 33
0.0
  0
SOLID
  8
0
  6
BYBLOCK
 62
     0
 10
288.301042
 20
34.145594
 30
0.0
 11
288.351042
 21
34.145594
 31
0.0
 12
288.326042
 22
33.995594
 32
0.0
 13
288.326042
 23
33.995594
 33
0.0
  0
TEXT
  8
0
  6
BYBLOCK
 62
     0
 10
288.288542
 20
34.540237
 30
0.0
 40
0.075
  1
1.35
 50
90.0
  7
ROMANC
 72
     1
 11
288.251042
 21
34.670594
 31
0.0
 73
     2
  0
POINT
  8
DEFPOINTS
  6
BYBLOCK
 62
     0
 10
287.830981
 20
35.345594
 30
0.0
  0
POINT
  8
DEFPOINTS
  6
BYBLOCK
 62
     0
 10
287.830981
 20
33.995594
 30
0.0
  0
POINT
  8
DEFPOINTS
  6
BYBLOCK
 62
     0
 10
288.326042
 20
33.995594
 30
0.0
  0
LINE
  8
0
  6
BYBLOCK
 62
     0
 10
286.830981
 20
33.980594
 30
0.0
 11
286.830981
 21
33.132196
 31
0.0
  0
LINE
  8
0
  6
BYBLOCK
 62
     0
 10
287.830981
 20
33.980594
 30
0.0
 11
287.830981
 21
33.132196
 31
0.0
  0
LINE
  8
0
  6
BYBLOCK
 62
     0
 10
286.980981
 20
33.147196
 30
0.0
 11
287.680981
 21
33.147196
 31
0.0
  0
SOLID
  8
0
  6
BYBLOCK
 62
     0
 10
286.980981
 20
33.172196
 30
0.0
 11
286.980981
 21
33.122196
 31
0.0
 12
286.830981
 22
33.147196
 32
0.0
 13
286.830981
 23
33.147196
 33
0.0
  0
SOLID
  8
0
  6
BYBLOCK
 62
     0
 10
287.680981
 20
33.172196
 30
0.0
 11
287.680981
 21
33.122196
 31
0.0
 12
287.830981
 22
33.147196
 32
0.0
 13
287.830981
 23
33.147196
 33
0.0
  0
TEXT
  8
0
  6
BYBLOCK
 62
     0
 10
287.200624
 20
33.184696
 30
0.0
 40
0.075
  1
1.00
  7
ROMANC
 72
     1
 11
287.330981
 21
33.222196
 31
0.0
 73
     2
  0
POINT
  8
DEFPOINTS
  6
BYBLOCK
 62
     0
 10
286.830981
 20
33.995594
 30
0.0
  0
POINT
  8
DEFPOINTS
  6
BYBLOCK
 62
     0
 10
287.830981
 20
33.995594
 30
0.0
  0
POINT
  8
DEFPOINTS
  6
BYBLOCK
 62
     0
 10
287.830981
 20
33.147196
 30
0.0
  0
LINE
  8
0
 10
287.830981
 20
33.995594
 30
0.0
 11
287.830981
 21
35.345594
 31
0.0
  0
ARC
  8
0
 10
285.830981
 20
35.345594
 30
0.0
 40
2.0
 50
0.0
 51
180.0
  0
LINE
  8
0
 10
283.830981
 20
35.345594
 30
0.0
 11
283.830981
 21
33.664019
 31
0.0
  0
ARC
  8
0
 10
283.873906
 20
33.664019
 30
0.0
 40
0.042925
 50
180.0
 51
254.832999
  0
ARC
  8
0
 10
284.573457
 20
36.244668
 30
0.0
 40
2.716709
 50
254.832999
 51
263.59348
  0
ARC
  8
0
 10
285.02447
 20
40.261419
 30
0.0
 40
6.758701
 50
263.59348
 51
267.337137
  0
ARC
  8
0
 10
285.330981
 20
46.85174
 30
0.0
 40
13.356146
 50
267.337137
 51
270.0
  0
ARC
  8
0
 10
285.330981
 20
46.85174
 30
0.0
 40
13.356146
 50
270.0
 51
272.662863
  0
ARC
  8
0
 10
285.637492
 20
40.261419
 30
0.0
 40
6.758701
 50
272.662863
 51
276.40652
  0
ARC
  8
0
 10
286.088505
 20
36.244668
 30
0.0
 40
2.716709
 50
276.40652
 51
285.167001
  0
ARC
  8
0
 10
286.788057
 20
33.664019
 30
0.0
 40
0.042925
 50
285.167001
 51
0.0
  0
LINE
  8
0
 10
286.830981
 20
33.664019
 30
0.0
 11
286.830981
 21
33.995594
 31
0.0
  0
LINE
  8
0
 10
286.830981
 20
33.995594
 30
0.0
 11
287.830981
 21
33.995594
 31
0.0
  0
ENDSEC
  0
EOF
