  0
SECTION
  2
HEADER
  9
$ACADVER
  1
AC1014
  9
$ACADMAINTVER
 70
     9
  9
$DWGCODEPAGE
  3
ANSI_1252
  9
$INSBASE
 10
0.0
 20
0.0
 30
0.0
  9
$EXTMIN
 10
281.3957950010681
 20
29.89744399853511
 30
0.0
  9
$EXTMAX
 10
291.8957950010682
 20
44.74744399853511
 30
0.0
  9
$LIMMIN
 10
0.0
 20
0.0
  9
$LIMMAX
 10
12.0
 20
9.0
  9
$ORTHOMODE
 70
     0
  9
$REGENMODE
 70
     1
  9
$FILLMODE
 70
     1
  9
$QTEXTMODE
 70
     0
  9
$MIRRTEXT
 70
     1
  9
$DRAGMODE
 70
     2
  9
$LTSCALE
 40
1.0
  9
$OSMODE
 70
    37
  9
$ATTMODE
 70
     1
  9
$TEXTSIZE
 40
0.0
  9
$TRACEWID
 40
0.05
  9
$TEXTSTYLE
  7
STANDARD
  9
$CLAYER
  8
0
  9
$CELTYPE
  6
CONTINUOUS
  9
$CECOLOR
 62
   256
  9
$CELTSCALE
 40
1.0
  9
$DELOBJ
 70
     1
  9
$DISPSILH
 70
     0
  9
$DIMSCALE
 40
1.0
  9
$DIMASZ
 40
0.18
  9
$DIMEXO
 40
0.0625
  9
$DIMDLI
 40
0.38
  9
$DIMRND
 40
0.0
  9
$DIMDLE
 40
0.0
  9
$DIMEXE
 40
0.18
  9
$DIMTP
 40
0.0
  9
$DIMTM
 40
0.0
  9
$DIMTXT
 40
0.18
  9
$DIMCEN
 40
0.09
  9
$DIMTSZ
 40
0.0
  9
$DIMTOL
 70
     0
  9
$DIMLIM
 70
     0
  9
$DIMTIH
 70
     1
  9
$DIMTOH
 70
     1
  9
$DIMSE1
 70
     0
  9
$DIMSE2
 70
     0
  9
$DIMTAD
 70
     0
  9
$DIMZIN
 70
     0
  9
$DIMBLK
  1

  9
$DIMASO
 70
     1
  9
$DIMSHO
 70
     1
  9
$DIMPOST
  1

  9
$DIMAPOST
  1

  9
$DIMALT
 70
     0
  9
$DIMALTD
 70
     2
  9
$DIMALTF
 40
25.4
  9
$DIMLFAC
 40
1.0
  9
$DIMTOFL
 70
     0
  9
$DIMTVP
 40
0.0
  9
$DIMTIX
 70
     0
  9
$DIMSOXD
 70
     0
  9
$DIMSAH
 70
     0
  9
$DIMBLK1
  1

  9
$DIMBLK2
  1

  9
$DIMSTYLE
  2
STANDARD
  9
$DIMCLRD
 70
     0
  9
$DIMCLRE
 70
     0
  9
$DIMCLRT
 70
     0
  9
$DIMTFAC
 40
1.0
  9
$DIMGAP
 40
0.09
  9
$DIMJUST
 70
     0
  9
$DIMSD1
 70
     0
  9
$DIMSD2
 70
     0
  9
$DIMTOLJ
 70
     1
  9
$DIMTZIN
 70
     0
  9
$DIMALTZ
 70
     0
  9
$DIMALTTZ
 70
     0
  9
$DIMFIT
 70
     3
  9
$DIMUPT
 70
     0
  9
$DIMUNIT
 70
     2
  9
$DIMDEC
 70
     4
  9
$DIMTDEC
 70
     4
  9
$DIMALTU
 70
     2
  9
$DIMALTTD
 70
     2
  9
$DIMTXSTY
  7
STANDARD
  9
$DIMAUNIT
 70
     0
  9
$LUNITS
 70
     2
  9
$LUPREC
 70
     4
  9
$SKETCHINC
 40
0.1
  9
$FILLETRAD
 40
0.0
  9
$AUNITS
 70
     0
  9
$AUPREC
 70
     0
  9
$MENU
  1
acad
  9
$ELEVATION
 40
0.0
  9
$PELEVATION
 40
0.0
  9
$THICKNESS
 40
0.0
  9
$LIMCHECK
 70
     0
  9
$BLIPMODE
 70
     0
  9
$CHAMFERA
 40
0.0
  9
$CHAMFERB
 40
0.0
  9
$CHAMFERC
 40
0.0
  9
$CHAMFERD
 40
0.0
  9
$SKPOLY
 70
     0
  9
$TDCREATE
 40
2452480.625995370
  9
$TDUPDATE
 40
2452481.554549571
  9
$TDINDWG
 40
0.0031317361
  9
$TDUSRTIMER
 40
0.0031317361
  9
$USRTIMER
 70
     1
  9
$ANGBASE
 50
0.0
  9
$ANGDIR
 70
     0
  9
$PDMODE
 70
     0
  9
$PDSIZE
 40
0.0
  9
$PLINEWID
 40
0.0
  9
$COORDS
 70
     1
  9
$SPLFRAME
 70
     0
  9
$SPLINETYPE
 70
     6
  9
$SPLINESEGS
 70
    10
  9
$ATTDIA
 70
     0
  9
$ATTREQ
 70
     1
  9
$HANDLING
 70
 10241
  9
$HANDSEED
  5
107
  9
$SURFTAB1
 70
     6
  9
$SURFTAB2
 70
     6
  9
$SURFTYPE
 70
     6
  9
$SURFU
 70
     6
  9
$SURFV
 70
     6
  9
$UCSNAME
  2

  9
$UCSORG
 10
0.0
 20
0.0
 30
0.0
  9
$UCSXDIR
 10
1.0
 20
0.0
 30
0.0
  9
$UCSYDIR
 10
0.0
 20
1.0
 30
0.0
  9
$PUCSNAME
  2

  9
$PUCSORG
 10
0.0
 20
0.0
 30
0.0
  9
$PUCSXDIR
 10
1.0
 20
0.0
 30
0.0
  9
$PUCSYDIR
 10
0.0
 20
1.0
 30
0.0
  9
$USERI1
 70
     0
  9
$USERI2
 70
     0
  9
$USERI3
 70
     0
  9
$USERI4
 70
     0
  9
$USERI5
 70
     0
  9
$USERR1
 40
0.0
  9
$USERR2
 40
0.0
  9
$USERR3
 40
0.0
  9
$USERR4
 40
0.0
  9
$USERR5
 40
0.0
  9
$WORLDVIEW
 70
     1
  9
$SHADEDGE
 70
     3
  9
$SHADEDIF
 70
    70
  9
$TILEMODE
 70
     1
  9
$MAXACTVP
 70
    16
  9
$PINSBASE
 10
0.0
 20
0.0
 30
0.0
  9
$PLIMCHECK
 70
     0
  9
$PEXTMIN
 10
-1.000000000000000E+20
 20
-1.000000000000000E+20
 30
-1.000000000000000E+20
  9
$PEXTMAX
 10
-1.000000000000000E+20
 20
-1.000000000000000E+20
 30
-1.000000000000000E+20
  9
$PLIMMIN
 10
0.0
 20
0.0
  9
$PLIMMAX
 10
12.0
 20
9.0
  9
$UNITMODE
 70
     0
  9
$VISRETAIN
 70
     0
  9
$PLINEGEN
 70
     1
  9
$PSLTSCALE
 70
     0
  9
$TREEDEPTH
 70
  3020
  9
$PICKSTYLE
 70
     1
  9
$CMLSTYLE
  2
STANDARD
  9
$CMLJUST
 70
     0
  9
$CMLSCALE
 40
1.0
  9
$PROXYGRAPHICS
 70
     0
  9
$MEASUREMENT
 70
     0
  0
ENDSEC
  0
SECTION
  2
CLASSES
  0
CLASS
  1
LWPOLYLINE
  2
AcDbPolyline
  3
AutoCAD 2000
 90
        0
280
     0
281
     1
  0
CLASS
  1
IMAGE
  2
AcDbRasterImage
  3
ISM
 90
      127
280
     0
281
     1
  0
CLASS
  1
OLE2FRAME
  2
AcDbOle2Frame
  3
AutoCAD 2000
 90
        0
280
     0
281
     1
  0
CLASS
  1
HATCH
  2
AcDbHatch
  3
AutoCAD 2000
 90
        0
280
     0
281
     1
  0
CLASS
  1
DICTIONARYVAR
  2
AcDbDictionaryVar
  3
AutoCAD 2000
 90
        0
280
     0
281
     0
  0
CLASS
  1
RASTERVARIABLES
  2
AcDbRasterVariables
  3
ISM
 90
        0
280
     0
281
     0
  0
CLASS
  1
IMAGEDEF
  2
AcDbRasterImageDef
  3
ISM
 90
        0
280
     0
281
     0
  0
CLASS
  1
IMAGEDEF_REACTOR
  2
AcDbRasterImageDefReactor
  3
ISM
 90
        1
280
     0
281
     0
  0
CLASS
  1
IDBUFFER
  2
AcDbIdBuffer
  3
AutoCAD 2000
 90
        0
280
     0
281
     0
  0
CLASS
  1
SPATIAL_FILTER
  2
AcDbSpatialFilter
  3
AutoCAD 2000
 90
        0
280
     0
281
     0
  0
CLASS
  1
XRECORD
  2
AcDbXrecord
  3
AutoCAD 2000
 90
        0
280
     0
281
     0
  0
CLASS
  1
SORTENTSTABLE
  2
AcDbSortentsTable
  3
AutoCAD 2000
 90
        0
280
     0
281
     0
  0
CLASS
  1
LAYER_INDEX
  2
AcDbLayerIndex
  3
AutoCAD 2000
 90
        0
280
     0
281
     0
  0
CLASS
  1
SPATIAL_INDEX
  2
AcDbSpatialIndex
  3
AutoCAD 2000
 90
        0
280
     0
281
     0
  0
CLASS
  1
OBJECT_PTR
  2
CAseDLPNTableRecord
  3
ASE-LPNTableRecord
 90
        1
280
     0
281
     0
  0
CLASS
  1
ACDBDICTIONARYWDFLT
  2
AcDbDictionaryWithDefault
  3
AutoCAD 2000
 90
        0
280
     0
281
     0
  0
CLASS
  1
ACDBPLACEHOLDER
  2
AcDbPlaceHolder
  3
AutoCAD 2000
 90
        0
280
     0
281
     0
  0
CLASS
  1
LAYOUT
  2
AcDbLayout
  3
AutoCAD 2000
 90
        0
280
     0
281
     0
  0
CLASS
  1
LONG_TRANSACTION
  2
AcDbLongTransaction
  3
AutoCAD 2000
 90
        0
280
     0
281
     0
  0
CLASS
  1
LWPOLYLINE
  2
AcDbPolyline
  3
AutoCAD 2000
 90
        0
280
     0
281
     1
  0
CLASS
  1
HATCH
  2
AcDbHatch
  3
AutoCAD 2000
 90
        0
280
     0
281
     1
  0
CLASS
  1
XRECORD
  2
AcDbXrecord
  3
AutoCAD 2000
 90
        0
280
     0
281
     0
  0
ENDSEC
  0
SECTION
  2
TABLES
  0
TABLE
  2
VPORT
  5
7
330
0
100
AcDbSymbolTable
 70
     2
  0
VPORT
  5
E2
330
7
100
AcDbSymbolTableRecord
100
AcDbViewportTableRecord
  2
*ACTIVE
 70
     0
 10
0.0
 20
0.0
 11
1.0
 21
1.0
 12
-4.481963534410001
 22
0.8531813339965887
 13
0.0
 23
0.0
 14
0.0
 24
0.0
 15
0.0
 25
0.0
 16
0.0
 26
0.0
 36
1.0
 17
291.1309801310043
 27
37.3224
 37
0.0
 40
16.6788352105726
 41
1.421313506815365
 42
50.0
 43
74.25
 44
-74.25
 50
0.0
 51
0.0
 71
    22
 72
   100
 73
     1
 74
     0
 75
     0
 76
     0
 77
     0
 78
     0
  0
ENDTAB
  0
TABLE
  2
LTYPE
  5
4
330
0
100
AcDbSymbolTable
 70
     7
  0
LTYPE
  5
11
330
4
100
AcDbSymbolTableRecord
100
AcDbLinetypeTableRecord
  2
BYBLOCK
 70
     0
  3

 72
    65
 73
     0
 40
0.0
  0
LTYPE
  5
12
330
4
100
AcDbSymbolTableRecord
100
AcDbLinetypeTableRecord
  2
BYLAYER
 70
     0
  3

 72
    65
 73
     0
 40
0.0
  0
LTYPE
  5
13
330
4
100
AcDbSymbolTableRecord
100
AcDbLinetypeTableRecord
  2
CONTINUOUS
 70
     0
  3
Solid line
 72
    65
 73
     0
 40
0.0
  0
LTYPE
  5
22
330
4
100
AcDbSymbolTableRecord
100
AcDbLinetypeTableRecord
  2
DOT
 70
    32
  3
. . . . . . . . . . . . . . . . . . . . . . . . . . . . . . . . .
 72
    65
 73
     2
 40
0.25
 49
0.0
 74
     0
 49
-0.25
 74
     0
  0
LTYPE
  5
23
330
4
100
AcDbSymbolTableRecord
100
AcDbLinetypeTableRecord
  2
HIDDEN
 70
    32
  3
__ __ __ __ __ __ __ __ __ __ __ __ __ __ __ __ __ __ __ __ __ 
 72
    65
 73
     2
 40
0.375
 49
0.25
 74
     0
 49
-0.125
 74
     0
  0
LTYPE
  5
24
330
4
100
AcDbSymbolTableRecord
100
AcDbLinetypeTableRecord
  2
DASHED
 70
    32
  3
__ __ __ __ __ __ __ __ __ __ __ __ __ __ __ __ __ __ __ __ __
 72
    65
 73
     2
 40
0.75
 49
0.5
 74
     0
 49
-0.25
 74
     0
  0
LTYPE
  5
25
330
4
100
AcDbSymbolTableRecord
100
AcDbLinetypeTableRecord
  2
DASHDOT
 70
    32
  3
__ . __ . __ . __ . __ . __ . __ . __ . __ . __ . __ . __ . _
 72
    65
 73
     4
 40
1.0
 49
0.5
 74
     0
 49
-0.25
 74
     0
 49
0.0
 74
     0
 49
-0.25
 74
     0
  0
LTYPE
  5
26
330
4
100
AcDbSymbolTableRecord
100
AcDbLinetypeTableRecord
  2
DIVIDE
 70
    32
  3
____ . . ____ . . ____ . . ____ . . ____ . . ____ . . ____ . .
 72
    65
 73
     6
 40
1.25
 49
0.5
 74
     0
 49
-0.25
 74
     0
 49
0.0
 74
     0
 49
-0.25
 74
     0
 49
0.0
 74
     0
 49
-0.25
 74
     0
  0
LTYPE
  5
27
330
4
100
AcDbSymbolTableRecord
100
AcDbLinetypeTableRecord
  2
CENTER
 70
    32
  3
____ _ ____ _ ____ _ ____ _ ____ _ ____ _ ____ _ ____ _ ____ _
 72
    65
 73
     4
 40
2.0
 49
1.25
 74
     0
 49
-0.25
 74
     0
 49
0.25
 74
     0
 49
-0.25
 74
     0
  0
ENDTAB
  0
TABLE
  2
LAYER
  5
2
330
0
100
AcDbSymbolTable
 70
     4
  0
LAYER
  5
14
330
2
100
AcDbSymbolTableRecord
100
AcDbLayerTableRecord
  2
0
 70
    32
 62
     7
  6
CONTINUOUS
  0
LAYER
  5
1E
330
2
100
AcDbSymbolTableRecord
100
AcDbLayerTableRecord
  2
CONSTRUCTION_CLASS
 70
    32
 62
     7
  6
CONTINUOUS
  0
LAYER
  5
1F
330
2
100
AcDbSymbolTableRecord
100
AcDbLayerTableRecord
  2
PATTERN_CLASS
 70
    32
 62
     7
  6
CONTINUOUS
  0
LAYER
  5
3A
330
2
100
AcDbSymbolTableRecord
100
AcDbLayerTableRecord
  2
DEFPOINTS
 70
    32
 62
     7
  6
CONTINUOUS
  0
ENDTAB
  0
TABLE
  2
STYLE
  5
3
330
0
100
AcDbSymbolTable
 70
     2
  0
STYLE
  5
17
330
3
100
AcDbSymbolTableRecord
100
AcDbTextStyleTableRecord
  2
STANDARD
 70
     0
 40
0.0
 41
1.0
 50
0.0
 71
     0
 42
0.0
  3
txt
  4

  0
STYLE
  5
2B
330
3
100
AcDbSymbolTableRecord
100
AcDbTextStyleTableRecord
  2
ROMANC
 70
    32
 40
0.2
 41
1.0
 50
0.0
 71
     0
 42
0.2
  3
ROMANC
  4

  0
ENDTAB
  0
TABLE
  2
VIEW
  5
5
330
0
100
AcDbSymbolTable
 70
     0
  0
ENDTAB
  0
TABLE
  2
UCS
  5
6
330
0
100
AcDbSymbolTable
 70
     0
  0
ENDTAB
  0
TABLE
  2
APPID
  5
8
330
0
100
AcDbSymbolTable
 70
     2
  0
APPID
  5
16
330
8
100
AcDbSymbolTableRecord
100
AcDbRegAppTableRecord
  2
ACAD
 70
     0
  0
APPID
  5
DB
330
8
100
AcDbSymbolTableRecord
100
AcDbRegAppTableRecord
  2
DCO15
 70
     0
  0
ENDTAB
  0
TABLE
  2
DIMSTYLE
  5
9
330
0
100
AcDbSymbolTable
 70
     1
  0
DIMSTYLE
105
18
330
9
100
AcDbSymbolTableRecord
100
AcDbDimStyleTableRecord
  2
STANDARD
 70
     0
  3

  4

  5

  6

  7

 40
1.0
 41
0.18
 42
0.0625
 43
0.38
 44
0.18
 45
0.0
 46
0.0
 47
0.0
 48
0.0
140
0.18
141
0.09
142
0.0
143
25.4
144
1.0
145
0.0
146
1.0
147
0.09
 71
     0
 72
     0
 73
     1
 74
     1
 75
     0
 76
     0
 77
     0
 78
     0
170
     0
171
     2
172
     0
173
     0
174
     0
175
     0
176
     0
177
     0
178
     0
270
     2
271
     4
272
     4
273
     2
274
     2
340
17
275
     0
280
     0
281
     0
282
     0
283
     1
284
     0
285
     0
286
     0
287
     0
288
     0
  0
ENDTAB
  0
TABLE
  2
BLOCK_RECORD
  5
1
330
0
100
AcDbSymbolTable
 70
     0
  0
BLOCK_RECORD
  5
A
102
{ACAD_XDICTIONARY
360
103
102
}
330
1
100
AcDbSymbolTableRecord
100
AcDbBlockTableRecord
  2
*MODEL_SPACE
  0
BLOCK_RECORD
  5
B
102
{ACAD_XDICTIONARY
360
105
102
}
330
1
100
AcDbSymbolTableRecord
100
AcDbBlockTableRecord
  2
*PAPER_SPACE
  0
ENDTAB
  0
ENDSEC
  0
SECTION
  2
BLOCKS
  0
BLOCK
  5
D
330
A
100
AcDbEntity
  8
0
100
AcDbBlockBegin
  2
*MODEL_SPACE
 70
     0
 10
0.0
 20
0.0
 30
0.0
  3
*MODEL_SPACE
  1

  0
ENDBLK
  5
E
330
A
100
AcDbEntity
  8
0
100
AcDbBlockEnd
  0
BLOCK
  5
F
330
B
100
AcDbEntity
 67
     1
  8
0
100
AcDbBlockBegin
  2
*PAPER_SPACE
 70
     0
 10
0.0
 20
0.0
 30
0.0
  3
*PAPER_SPACE
  1

  0
ENDBLK
  5
10
330
B
100
AcDbEntity
 67
     1
  8
0
100
AcDbBlockEnd
  0
ENDSEC
  0
SECTION
  2
ENTITIES
  0
LINE
  5
2A
330
A
100
AcDbEntity
  8
0
  6
CONTINUOUS
 62
     7
100
AcDbLine
 10
291.8957950010682
 20
29.89744399853511
 30
0.0
 11
291.8957950010682
 21
44.74744399853511
 31
0.0
  0
TEXT
  5
2C
330
A
100
AcDbEntity
  8
0
  6
CONTINUOUS
 62
     7
100
AcDbText
 10
283.8878
 20
40.5614
 30
0.0
 40
0.3
  1
P = 44.2 dm
  7
ROMANC
100
AcDbText
  0
LINE
  5
2D
330
A
100
AcDbEntity
  8
0
  6
CONTINUOUS
 62
     7
100
AcDbLine
 10
281.3957950010681
 20
44.74744399853511
 30
0.0
 11
281.3957950010681
 21
29.89744399853511
 31
0.0
  0
LINE
  5
2E
330
A
100
AcDbEntity
  8
0
  6
CONTINUOUS
 62
     7
100
AcDbLine
 10
281.3957950010681
 20
29.89744399853511
 30
0.0
 11
291.8957950010682
 21
29.89744399853511
 31
0.0
  0
LINE
  5
2F
330
A
100
AcDbEntity
  8
0
  6
CONTINUOUS
 62
     7
100
AcDbLine
 10
291.8957950010682
 20
44.74744399853511
 30
0.0
 11
281.3957950010681
 21
44.74744399853511
 31
0.0
  0
TEXT
  5
30
330
A
100
AcDbEntity
  8
0
  6
CONTINUOUS
 62
     7
100
AcDbText
 10
287.1223
 20
41.5649
 30
0.0
 40
0.1
  1
2
  7
ROMANC
100
AcDbText
  0
TEXT
  5
31
330
A
100
AcDbEntity
  8
0
  6
CONTINUOUS
 62
     7
100
AcDbText
 10
283.9258
 20
41.85760000000001
 30
0.0
 40
0.3
  1
ESCALA  1:50
  7
ROMANC
100
AcDbText
  0
TEXT
  5
32
330
A
100
AcDbEntity
  8
0
  6
CONTINUOUS
 62
     7
100
AcDbText
 10
283.9258
 20
42.34329999999999
 30
0.0
 40
0.3
  1
TIPUS   NT130
  7
ROMANC
100
AcDbText
  0
TEXT
  5
33
330
A
100
AcDbEntity
  8
0
  6
CONTINUOUS
 62
     7
100
AcDbText
 10
283.9389
 20
41.259
 30
0.0
 40
0.3
  1
S = 130 dm
  7
ROMANC
100
AcDbText
  0
LINE
  5
34
330
A
100
AcDbEntity
  8
0
  6
CONTINUOUS
 62
     7
100
AcDbLine
 10
285.7627160008545
 20
35.88239200109867
 30
0.0
 11
285.7627160008545
 21
37.09635500045778
 31
0.0
  0
LINE
  5
35
330
A
100
AcDbEntity
  8
0
  6
CONTINUOUS
 62
     7
100
AcDbLine
 10
286.7427149998474
 20
35.88239200109867
 30
0.0
 11
286.7427149998474
 21
37.09635500045778
 31
0.0
  0
LINE
  5
36
330
A
100
AcDbEntity
  8
0
  6
CONTINUOUS
 62
     7
100
AcDbLine
 10
285.9127160008545
 20
37.08135500045778
 30
0.0
 11
286.5927149998474
 21
37.08135500045778
 31
0.0
  0
SOLID
  5
37
330
A
100
AcDbEntity
  8
0
  6
CONTINUOUS
 62
     7
100
AcDbTrace
 10
285.9127160008545
 20
37.10635500045778
 30
0.0
 11
285.9127160008545
 21
37.05635500045778
 31
0.0
 12
285.7627160008545
 22
37.08135500045778
 32
0.0
 13
285.7627160008545
 23
37.08135500045778
 33
0.0
  0
SOLID
  5
38
330
A
100
AcDbEntity
  8
0
  6
CONTINUOUS
 62
     7
100
AcDbTrace
 10
286.5927149998474
 20
37.10635500045778
 30
0.0
 11
286.5927149998474
 21
37.05635500045778
 31
0.0
 12
286.7427149998474
 22
37.08135500045778
 32
0.0
 13
286.7427149998474
 23
37.08135500045778
 33
0.0
  0
TEXT
  5
39
330
A
100
AcDbEntity
  8
0
  6
CONTINUOUS
 62
     7
100
AcDbText
 10
286.1330571428571
 20
37.1189
 30
0.0
 40
0.075
  1
1.00
  7
ROMANC
 72
     4
 11
286.2527
 21
37.1564
 31
0.0
100
AcDbText
  0
POINT
  5
3B
330
A
100
AcDbEntity
  8
DEFPOINTS
  6
CONTINUOUS
 62
     7
100
AcDbPoint
 10
285.7627160008545
 20
35.86739200109867
 30
0.0
  0
POINT
  5
3C
330
A
100
AcDbEntity
  8
DEFPOINTS
  6
CONTINUOUS
 62
     7
100
AcDbPoint
 10
286.7427149998474
 20
35.86739200109867
 30
0.0
  0
POINT
  5
3D
330
A
100
AcDbEntity
  8
DEFPOINTS
  6
CONTINUOUS
 62
     7
100
AcDbPoint
 10
286.7427149998474
 20
37.08135500045778
 30
0.0
  0
LINE
  5
3E
330
A
100
AcDbEntity
  8
0
  6
CONTINUOUS
 62
     7
100
AcDbLine
 10
285.8862740012817
 20
35.07661699880978
 30
0.0
 11
286.0631980010376
 21
35.07661699880978
 31
0.0
  0
ARC
  5
3F
330
A
100
AcDbEntity
  8
0
  6
CONTINUOUS
 62
     7
100
AcDbCircle
 10
286.166558
 20
35.066617
 30
0.0
 40
0.103843
100
AcDbArc
 50
174.4739080000034
 51
208.9112009999898
  0
ARC
  5
40
330
A
100
AcDbEntity
  8
0
  6
CONTINUOUS
 62
     7
100
AcDbCircle
 10
286.208015
 20
35.08951299999999
 30
0.0
 40
0.151203
100
AcDbArc
 50
208.9112009999898
 51
233.1301019999797
  0
ARC
  5
41
330
A
100
AcDbEntity
  8
0
  6
CONTINUOUS
 62
     7
100
AcDbCircle
 10
286.2350569999999
 20
35.125568
 30
0.0
 40
0.196271
100
AcDbArc
 50
233.1301019999796
 51
252.7420609999728
  0
ARC
  5
42
330
A
100
AcDbEntity
  8
0
  6
CONTINUOUS
 62
     7
100
AcDbCircle
 10
286.252715
 20
35.18240999999999
 30
0.0
 40
0.255793
100
AcDbArc
 50
252.7420609999728
 51
270.0
  0
ARC
  5
43
330
A
100
AcDbEntity
  8
0
  6
CONTINUOUS
 62
     7
100
AcDbCircle
 10
286.252715
 20
35.18240999999999
 30
0.0
 40
0.255793
100
AcDbArc
 50
270.0
 51
287.2579390000271
  0
ARC
  5
44
330
A
100
AcDbEntity
  8
0
  6
CONTINUOUS
 62
     7
100
AcDbCircle
 10
286.270374
 20
35.125568
 30
0.0
 40
0.196271
100
AcDbArc
 50
287.2579390000271
 51
306.8698980000203
  0
ARC
  5
45
330
A
100
AcDbEntity
  8
0
  6
CONTINUOUS
 62
     7
100
AcDbCircle
 10
286.2974149999999
 20
35.08951299999999
 30
0.0
 40
0.151203
100
AcDbArc
 50
306.8698980000203
 51
331.0887990000102
  0
ARC
  5
46
330
A
100
AcDbEntity
  8
0
  6
CONTINUOUS
 62
     7
100
AcDbCircle
 10
286.3388719999999
 20
35.066617
 30
0.0
 40
0.103843
100
AcDbArc
 50
331.0887990000101
 51
5.52609199999657
  0
LINE
  5
47
330
A
100
AcDbEntity
  8
0
  6
CONTINUOUS
 62
     7
100
AcDbLine
 10
286.4422329996643
 20
35.07661699880978
 30
0.0
 11
286.6191560014648
 21
35.07661699880978
 31
0.0
  0
LINE
  5
48
330
A
100
AcDbEntity
  8
0
  6
CONTINUOUS
 62
     7
100
AcDbLine
 10
286.6191560014648
 20
35.07661699880978
 30
0.0
 11
286.7427149998474
 21
35.86739200109867
 31
0.0
  0
ARC
  5
49
330
A
100
AcDbEntity
  8
0
  6
CONTINUOUS
 62
     7
100
AcDbCircle
 10
285.7760519999999
 20
35.866617
 30
0.0
 40
0.9666639999999999
100
AcDbArc
 50
0.0459089999932181
 51
16.48173799995253
  0
ARC
  5
4A
330
A
100
AcDbEntity
  8
0
  6
CONTINUOUS
 62
     7
100
AcDbCircle
 10
286.010356
 20
35.93594
 30
0.0
 40
0.7223190000000001
100
AcDbArc
 50
16.48173800003729
 51
35.53767800005426
  0
ARC
  5
4B
330
A
100
AcDbEntity
  8
0
  6
CONTINUOUS
 62
     7
100
AcDbCircle
 10
286.1587569999999
 20
36.041941
 30
0.0
 40
0.539948
100
AcDbArc
 50
35.53767799996949
 51
59.89059799993558
  0
ARC
  5
4C
330
A
100
AcDbEntity
  8
0
  6
CONTINUOUS
 62
     7
100
AcDbCircle
 10
286.252715
 20
36.20396600000001
 30
0.0
 40
0.352651
100
AcDbArc
 50
59.89059800002034
 51
90.0
  0
ARC
  5
4D
330
A
100
AcDbEntity
  8
0
  6
CONTINUOUS
 62
     7
100
AcDbCircle
 10
286.252715
 20
36.20396600000001
 30
0.0
 40
0.352651
100
AcDbArc
 50
90.0
 51
120.1094019999796
  0
ARC
  5
4E
330
A
100
AcDbEntity
  8
0
  6
CONTINUOUS
 62
     7
100
AcDbCircle
 10
286.346673
 20
36.041941
 30
0.0
 40
0.539948
100
AcDbArc
 50
120.1094019999796
 51
144.4623219999457
  0
ARC
  5
4F
330
A
100
AcDbEntity
  8
0
  6
CONTINUOUS
 62
     7
100
AcDbCircle
 10
286.4950749999999
 20
35.93594
 30
0.0
 40
0.7223190000000001
100
AcDbArc
 50
144.4623220000305
 51
163.5182620000475
  0
ARC
  5
50
330
A
100
AcDbEntity
  8
0
  6
CONTINUOUS
 62
     7
100
AcDbCircle
 10
286.729379
 20
35.866617
 30
0.0
 40
0.9666639999999999
100
AcDbArc
 50
163.5182619999627
 51
179.954090999922
  0
LINE
  5
51
330
A
100
AcDbEntity
  8
0
  6
CONTINUOUS
 62
     7
100
AcDbLine
 10
285.7627160008545
 20
35.86739200109867
 30
0.0
 11
285.8862740012817
 21
35.07661699880978
 31
0.0
  0
LINE
  5
52
330
A
100
AcDbEntity
  8
0
  6
CONTINUOUS
 62
     7
100
AcDbLine
 10
285.8777149998473
 20
35.06661699880978
 30
0.0
 11
286.0527149998474
 21
35.06661699880978
 31
0.0
  0
ARC
  5
53
330
A
100
AcDbEntity
  8
0
  6
CONTINUOUS
 62
     7
100
AcDbCircle
 10
286.166558
 20
35.066617
 30
0.0
 40
0.113843
100
AcDbArc
 50
180.0
 51
208.9112009999898
  0
ARC
  5
54
330
A
100
AcDbEntity
  8
0
  6
CONTINUOUS
 62
     7
100
AcDbCircle
 10
286.208015
 20
35.08951299999999
 30
0.0
 40
0.161203
100
AcDbArc
 50
208.9112009999898
 51
233.1301019999797
  0
ARC
  5
55
330
A
100
AcDbEntity
  8
0
  6
CONTINUOUS
 62
     7
100
AcDbCircle
 10
286.2350569999999
 20
35.125568
 30
0.0
 40
0.206271
100
AcDbArc
 50
233.1301019999796
 51
252.7420609999728
  0
ARC
  5
56
330
A
100
AcDbEntity
  8
0
  6
CONTINUOUS
 62
     7
100
AcDbCircle
 10
286.252715
 20
35.18240999999999
 30
0.0
 40
0.265793
100
AcDbArc
 50
252.7420609999728
 51
270.0
  0
ARC
  5
57
330
A
100
AcDbEntity
  8
0
  6
CONTINUOUS
 62
     7
100
AcDbCircle
 10
286.252715
 20
35.18240999999999
 30
0.0
 40
0.265793
100
AcDbArc
 50
270.0
 51
287.2579390000271
  0
ARC
  5
58
330
A
100
AcDbEntity
  8
0
  6
CONTINUOUS
 62
     7
100
AcDbCircle
 10
286.270374
 20
35.125568
 30
0.0
 40
0.206271
100
AcDbArc
 50
287.2579390000271
 51
306.8698980000203
  0
ARC
  5
59
330
A
100
AcDbEntity
  8
0
  6
CONTINUOUS
 62
     7
100
AcDbCircle
 10
286.2974149999999
 20
35.08951299999999
 30
0.0
 40
0.161203
100
AcDbArc
 50
306.8698980000203
 51
331.0887990000102
  0
ARC
  5
5A
330
A
100
AcDbEntity
  8
0
  6
CONTINUOUS
 62
     7
100
AcDbCircle
 10
286.3388719999999
 20
35.066617
 30
0.0
 40
0.113843
100
AcDbArc
 50
331.0887990000101
 51
360.0
  0
LINE
  5
5B
330
A
100
AcDbEntity
  8
0
  6
CONTINUOUS
 62
     7
100
AcDbLine
 10
286.4527149998473
 20
35.06661699880978
 30
0.0
 11
286.6277149998473
 21
35.06661699880978
 31
0.0
  0
LINE
  5
5C
330
A
100
AcDbEntity
  8
0
  6
CONTINUOUS
 62
     7
100
AcDbLine
 10
286.6277149998473
 20
35.06661699880978
 30
0.0
 11
286.7527149998474
 21
35.86661699880978
 31
0.0
  0
ARC
  5
5D
330
A
100
AcDbEntity
  8
0
  6
CONTINUOUS
 62
     7
100
AcDbCircle
 10
285.7760519999999
 20
35.866617
 30
0.0
 40
0.9766639999999998
100
AcDbArc
 50
0.0
 51
16.48173800003729
  0
ARC
  5
5E
330
A
100
AcDbEntity
  8
0
  6
CONTINUOUS
 62
     7
100
AcDbCircle
 10
286.010356
 20
35.93594
 30
0.0
 40
0.7323190000000001
100
AcDbArc
 50
16.48173800003729
 51
35.53767800005426
  0
ARC
  5
5F
330
A
100
AcDbEntity
  8
0
  6
CONTINUOUS
 62
     7
100
AcDbCircle
 10
286.1587569999999
 20
36.041941
 30
0.0
 40
0.5499480000000001
100
AcDbArc
 50
35.53767799996949
 51
59.89059799993558
  0
ARC
  5
60
330
A
100
AcDbEntity
  8
0
  6
CONTINUOUS
 62
     7
100
AcDbCircle
 10
286.252715
 20
36.20396600000001
 30
0.0
 40
0.3626510000000001
100
AcDbArc
 50
59.89059800002034
 51
90.0
  0
ARC
  5
61
330
A
100
AcDbEntity
  8
0
  6
CONTINUOUS
 62
     7
100
AcDbCircle
 10
286.252715
 20
36.20396600000001
 30
0.0
 40
0.3626510000000001
100
AcDbArc
 50
90.0
 51
120.1094019999796
  0
ARC
  5
62
330
A
100
AcDbEntity
  8
0
  6
CONTINUOUS
 62
     7
100
AcDbCircle
 10
286.346673
 20
36.041941
 30
0.0
 40
0.5499480000000001
100
AcDbArc
 50
120.1094019999796
 51
144.4623219999457
  0
ARC
  5
63
330
A
100
AcDbEntity
  8
0
  6
CONTINUOUS
 62
     7
100
AcDbCircle
 10
286.4950749999999
 20
35.93594
 30
0.0
 40
0.7323190000000001
100
AcDbArc
 50
144.4623220000305
 51
163.5182620000475
  0
ARC
  5
64
330
A
100
AcDbEntity
  8
0
  6
CONTINUOUS
 62
     7
100
AcDbCircle
 10
286.729379
 20
35.866617
 30
0.0
 40
0.9766639999999998
100
AcDbArc
 50
163.5182619999627
 51
180.0
  0
LINE
  5
65
330
A
100
AcDbEntity
  8
0
  6
CONTINUOUS
 62
     7
100
AcDbLine
 10
285.7527149998474
 20
35.86661699880978
 30
0.0
 11
285.8777149998473
 21
35.06661699880978
 31
0.0
  0
LINE
  5
66
330
A
100
AcDbEntity
  8
0
  6
CONTINUOUS
 62
     7
100
AcDbLine
 10
285.8691560014648
 20
35.05661699880977
 30
0.0
 11
286.0431199987792
 21
35.05661699880977
 31
0.0
  0
ARC
  5
67
330
A
100
AcDbEntity
  8
0
  6
CONTINUOUS
 62
     7
100
AcDbCircle
 10
286.166558
 20
35.066617
 30
0.0
 40
0.123843
100
AcDbArc
 50
184.631519999966
 51
208.9112009999898
  0
ARC
  5
68
330
A
100
AcDbEntity
  8
0
  6
CONTINUOUS
 62
     7
100
AcDbCircle
 10
286.208015
 20
35.08951299999999
 30
0.0
 40
0.171203
100
AcDbArc
 50
208.9112009999898
 51
233.1301019999797
  0
ARC
  5
69
330
A
100
AcDbEntity
  8
0
  6
CONTINUOUS
 62
     7
100
AcDbCircle
 10
286.2350569999999
 20
35.125568
 30
0.0
 40
0.216271
100
AcDbArc
 50
233.1301019999796
 51
252.7420609999728
  0
ARC
  5
6A
330
A
100
AcDbEntity
  8
0
  6
CONTINUOUS
 62
     7
100
AcDbCircle
 10
286.252715
 20
35.18240999999999
 30
0.0
 40
0.2757930000000001
100
AcDbArc
 50
252.7420609999728
 51
270.0
  0
ARC
  5
6B
330
A
100
AcDbEntity
  8
0
  6
CONTINUOUS
 62
     7
100
AcDbCircle
 10
286.252715
 20
35.18240999999999
 30
0.0
 40
0.2757930000000001
100
AcDbArc
 50
270.0
 51
287.2579390000271
  0
ARC
  5
6C
330
A
100
AcDbEntity
  8
0
  6
CONTINUOUS
 62
     7
100
AcDbCircle
 10
286.270374
 20
35.125568
 30
0.0
 40
0.216271
100
AcDbArc
 50
287.2579390000271
 51
306.8698980000203
  0
ARC
  5
6D
330
A
100
AcDbEntity
  8
0
  6
CONTINUOUS
 62
     7
100
AcDbCircle
 10
286.2974149999999
 20
35.08951299999999
 30
0.0
 40
0.171203
100
AcDbArc
 50
306.8698980000203
 51
331.0887990000102
  0
ARC
  5
6E
330
A
100
AcDbEntity
  8
0
  6
CONTINUOUS
 62
     7
100
AcDbCircle
 10
286.3388719999999
 20
35.066617
 30
0.0
 40
0.123843
100
AcDbArc
 50
331.0887990000101
 51
355.3684800000338
  0
LINE
  5
6F
330
A
100
AcDbEntity
  8
0
  6
CONTINUOUS
 62
     7
100
AcDbLine
 10
286.4623109988708
 20
35.05661699880977
 30
0.0
 11
286.6362740012817
 21
35.05661699880977
 31
0.0
  0
LINE
  5
70
330
A
100
AcDbEntity
  8
0
  6
CONTINUOUS
 62
     7
100
AcDbLine
 10
286.6362740012817
 20
35.05661699880977
 30
0.0
 11
286.7627149998473
 21
35.86583899960326
 31
0.0
  0
ARC
  5
71
330
A
100
AcDbEntity
  8
0
  6
CONTINUOUS
 62
     7
100
AcDbCircle
 10
285.7760519999999
 20
35.866617
 30
0.0
 40
0.986664
100
AcDbArc
 50
359.9547919999966
 51
16.48173800003734
  0
ARC
  5
72
330
A
100
AcDbEntity
  8
0
  6
CONTINUOUS
 62
     7
100
AcDbCircle
 10
286.010356
 20
35.93594
 30
0.0
 40
0.742319
100
AcDbArc
 50
16.48173800003729
 51
35.53767800005426
  0
ARC
  5
73
330
A
100
AcDbEntity
  8
0
  6
CONTINUOUS
 62
     7
100
AcDbCircle
 10
286.1587569999999
 20
36.041941
 30
0.0
 40
0.559948
100
AcDbArc
 50
35.53767799996949
 51
59.89059799993558
  0
ARC
  5
74
330
A
100
AcDbEntity
  8
0
  6
CONTINUOUS
 62
     7
100
AcDbCircle
 10
286.252715
 20
36.20396600000001
 30
0.0
 40
0.3726510000000001
100
AcDbArc
 50
59.89059800002034
 51
90.0
  0
ARC
  5
75
330
A
100
AcDbEntity
  8
0
  6
CONTINUOUS
 62
     7
100
AcDbCircle
 10
286.252715
 20
36.20396600000001
 30
0.0
 40
0.3726510000000001
100
AcDbArc
 50
90.0
 51
120.1094019999796
  0
ARC
  5
76
330
A
100
AcDbEntity
  8
0
  6
CONTINUOUS
 62
     7
100
AcDbCircle
 10
286.346673
 20
36.041941
 30
0.0
 40
0.559948
100
AcDbArc
 50
120.1094019999796
 51
144.4623219999457
  0
ARC
  5
77
330
A
100
AcDbEntity
  8
0
  6
CONTINUOUS
 62
     7
100
AcDbCircle
 10
286.4950749999999
 20
35.93594
 30
0.0
 40
0.742319
100
AcDbArc
 50
144.4623220000305
 51
163.5182620000475
  0
ARC
  5
78
330
A
100
AcDbEntity
  8
0
  6
CONTINUOUS
 62
     7
100
AcDbCircle
 10
286.729379
 20
35.866617
 30
0.0
 40
0.986664
100
AcDbArc
 50
163.5182619999627
 51
180.0452080000033
  0
LINE
  5
79
330
A
100
AcDbEntity
  8
0
  6
CONTINUOUS
 62
     7
100
AcDbLine
 10
285.7427160008544
 20
35.86583899960326
 30
0.0
 11
285.8691560014648
 21
35.05661699880977
 31
0.0
  0
LINE
  5
7A
330
A
100
AcDbEntity
  8
0
  6
CONTINUOUS
 62
     7
100
AcDbLine
 10
285.8777149998473
 20
35.06661699880978
 30
0.0
 11
286.0527149998474
 21
35.06661699880978
 31
0.0
  0
ARC
  5
7B
330
A
100
AcDbEntity
  8
0
  6
CONTINUOUS
 62
     7
100
AcDbCircle
 10
286.166558
 20
35.066617
 30
0.0
 40
0.113843
100
AcDbArc
 50
180.0
 51
208.9112009999898
  0
ARC
  5
7C
330
A
100
AcDbEntity
  8
0
  6
CONTINUOUS
 62
     7
100
AcDbCircle
 10
286.208015
 20
35.08951299999999
 30
0.0
 40
0.161203
100
AcDbArc
 50
208.9112009999898
 51
233.1301019999797
  0
ARC
  5
7D
330
A
100
AcDbEntity
  8
0
  6
CONTINUOUS
 62
     7
100
AcDbCircle
 10
286.2350569999999
 20
35.125568
 30
0.0
 40
0.206271
100
AcDbArc
 50
233.1301019999796
 51
252.7420609999728
  0
ARC
  5
7E
330
A
100
AcDbEntity
  8
0
  6
CONTINUOUS
 62
     7
100
AcDbCircle
 10
286.252715
 20
35.18240999999999
 30
0.0
 40
0.265793
100
AcDbArc
 50
252.7420609999728
 51
270.0
  0
ARC
  5
7F
330
A
100
AcDbEntity
  8
0
  6
CONTINUOUS
 62
     7
100
AcDbCircle
 10
286.252715
 20
35.18240999999999
 30
0.0
 40
0.265793
100
AcDbArc
 50
270.0
 51
287.2579390000271
  0
ARC
  5
80
330
A
100
AcDbEntity
  8
0
  6
CONTINUOUS
 62
     7
100
AcDbCircle
 10
286.270374
 20
35.125568
 30
0.0
 40
0.206271
100
AcDbArc
 50
287.2579390000271
 51
306.8698980000203
  0
ARC
  5
81
330
A
100
AcDbEntity
  8
0
  6
CONTINUOUS
 62
     7
100
AcDbCircle
 10
286.2974149999999
 20
35.08951299999999
 30
0.0
 40
0.161203
100
AcDbArc
 50
306.8698980000203
 51
331.0887990000102
  0
ARC
  5
82
330
A
100
AcDbEntity
  8
0
  6
CONTINUOUS
 62
     7
100
AcDbCircle
 10
286.3388719999999
 20
35.066617
 30
0.0
 40
0.113843
100
AcDbArc
 50
331.0887990000101
 51
360.0
  0
LINE
  5
83
330
A
100
AcDbEntity
  8
0
  6
CONTINUOUS
 62
     7
100
AcDbLine
 10
286.4527149998473
 20
35.06661699880978
 30
0.0
 11
286.6277149998473
 21
35.06661699880978
 31
0.0
  0
LINE
  5
84
330
A
100
AcDbEntity
  8
0
  6
CONTINUOUS
 62
     7
100
AcDbLine
 10
286.6277149998473
 20
35.06661699880978
 30
0.0
 11
286.7527149998474
 21
35.86661699880978
 31
0.0
  0
ARC
  5
85
330
A
100
AcDbEntity
  8
0
  6
CONTINUOUS
 62
     7
100
AcDbCircle
 10
285.7760519999999
 20
35.866617
 30
0.0
 40
0.9766639999999998
100
AcDbArc
 50
0.0
 51
16.48173800003729
  0
ARC
  5
86
330
A
100
AcDbEntity
  8
0
  6
CONTINUOUS
 62
     7
100
AcDbCircle
 10
286.010356
 20
35.93594
 30
0.0
 40
0.7323190000000001
100
AcDbArc
 50
16.48173800003729
 51
35.53767800005426
  0
ARC
  5
87
330
A
100
AcDbEntity
  8
0
  6
CONTINUOUS
 62
     7
100
AcDbCircle
 10
286.1587569999999
 20
36.041941
 30
0.0
 40
0.5499480000000001
100
AcDbArc
 50
35.53767799996949
 51
59.89059799993558
  0
ARC
  5
88
330
A
100
AcDbEntity
  8
0
  6
CONTINUOUS
 62
     7
100
AcDbCircle
 10
286.252715
 20
36.20396600000001
 30
0.0
 40
0.3626510000000001
100
AcDbArc
 50
59.89059800002034
 51
90.0
  0
ARC
  5
89
330
A
100
AcDbEntity
  8
0
  6
CONTINUOUS
 62
     7
100
AcDbCircle
 10
286.252715
 20
36.20396600000001
 30
0.0
 40
0.3626510000000001
100
AcDbArc
 50
90.0
 51
120.1094019999796
  0
ARC
  5
8A
330
A
100
AcDbEntity
  8
0
  6
CONTINUOUS
 62
     7
100
AcDbCircle
 10
286.346673
 20
36.041941
 30
0.0
 40
0.5499480000000001
100
AcDbArc
 50
120.1094019999796
 51
144.4623219999457
  0
ARC
  5
8B
330
A
100
AcDbEntity
  8
0
  6
CONTINUOUS
 62
     7
100
AcDbCircle
 10
286.4950749999999
 20
35.93594
 30
0.0
 40
0.7323190000000001
100
AcDbArc
 50
144.4623220000305
 51
163.5182620000475
  0
ARC
  5
8C
330
A
100
AcDbEntity
  8
0
  6
CONTINUOUS
 62
     7
100
AcDbCircle
 10
286.729379
 20
35.866617
 30
0.0
 40
0.9766639999999998
100
AcDbArc
 50
163.5182619999627
 51
180.0
  0
LINE
  5
8D
330
A
100
AcDbEntity
  8
0
  6
CONTINUOUS
 62
     7
100
AcDbLine
 10
285.7527149998474
 20
35.86661699880978
 30
0.0
 11
285.8777149998473
 21
35.06661699880978
 31
0.0
  0
POINT
  5
8E
330
A
100
AcDbEntity
  8
DEFPOINTS
  6
CONTINUOUS
 62
     7
100
AcDbPoint
 10
287.0597109988707
 20
36.56779299905393
 30
0.0
  0
POINT
  5
8F
330
A
100
AcDbEntity
  8
DEFPOINTS
  6
CONTINUOUS
 62
     7
100
AcDbPoint
 10
287.0597109988707
 20
35.06661699880978
 30
0.0
  0
POINT
  5
90
330
A
100
AcDbEntity
  8
DEFPOINTS
  6
CONTINUOUS
 62
     7
100
AcDbPoint
 10
287.4556509994811
 20
35.06661699880978
 30
0.0
  0
LINE
  5
91
330
A
100
AcDbEntity
  8
0
  6
CONTINUOUS
 62
     7
100
AcDbLine
 10
286.7677149998474
 20
35.86661699880978
 30
0.0
 11
287.0747109988708
 21
35.86661699880978
 31
0.0
  0
LINE
  5
92
330
A
100
AcDbEntity
  8
0
  6
CONTINUOUS
 62
     7
100
AcDbLine
 10
287.0597109988707
 20
35.71661699880978
 30
0.0
 11
287.0597109988707
 21
35.56661699880978
 31
0.0
  0
LINE
  5
93
330
A
100
AcDbEntity
  8
0
  6
CONTINUOUS
 62
     7
100
AcDbLine
 10
287.0597109988707
 20
36.71779299905392
 30
0.0
 11
287.0597109988707
 21
36.86779299905392
 31
0.0
  0
SOLID
  5
94
330
A
100
AcDbEntity
  8
0
  6
CONTINUOUS
 62
     7
100
AcDbTrace
 10
287.0347109988708
 20
35.71661699880978
 30
0.0
 11
287.0847109988708
 21
35.71661699880978
 31
0.0
 12
287.0597109988707
 22
35.86661699880978
 32
0.0
 13
287.0597109988707
 23
35.86661699880978
 33
0.0
  0
SOLID
  5
95
330
A
100
AcDbEntity
  8
0
  6
CONTINUOUS
 62
     7
100
AcDbTrace
 10
287.0347109988708
 20
36.71779299905392
 30
0.0
 11
287.0847109988708
 21
36.71779299905392
 31
0.0
 12
287.0597109988707
 22
36.56779299905393
 32
0.0
 13
287.0597109988707
 23
36.56779299905393
 33
0.0
  0
LINE
  5
96
330
A
100
AcDbEntity
  8
0
  6
CONTINUOUS
 62
     7
100
AcDbLine
 10
287.0597109988707
 20
35.86661699880978
 30
0.0
 11
287.0597109988707
 21
36.56779299905393
 31
0.0
  0
TEXT
  5
97
330
A
100
AcDbEntity
  8
0
  6
CONTINUOUS
 62
     7
100
AcDbText
 10
287.0222
 20
36.0922
 30
0.0
 40
0.075
  1
0.70
 50
90.0
  7
ROMANC
 72
     4
 11
286.9847
 21
36.21719999999999
 31
0.0
100
AcDbText
  0
POINT
  5
98
330
A
100
AcDbEntity
  8
DEFPOINTS
  6
CONTINUOUS
 62
     7
100
AcDbPoint
 10
286.7527149998474
 20
35.86661699880978
 30
0.0
  0
POINT
  5
99
330
A
100
AcDbEntity
  8
DEFPOINTS
  6
CONTINUOUS
 62
     7
100
AcDbPoint
 10
286.2400469985046
 20
36.56779299905393
 30
0.0
  0
POINT
  5
9A
330
A
100
AcDbEntity
  8
DEFPOINTS
  6
CONTINUOUS
 62
     7
100
AcDbPoint
 10
287.0597109988707
 20
36.56779299905393
 30
0.0
  0
LINE
  5
9B
330
A
100
AcDbEntity
  8
0
  6
CONTINUOUS
 62
     7
100
AcDbLine
 10
286.6427149998473
 20
35.06661699880978
 30
0.0
 11
287.0747109988708
 21
35.06661699880978
 31
0.0
  0
LINE
  5
9C
330
A
100
AcDbEntity
  8
0
  6
CONTINUOUS
 62
     7
100
AcDbLine
 10
286.7677149998474
 20
35.86661699880978
 30
0.0
 11
287.0747109988708
 21
35.86661699880978
 31
0.0
  0
LINE
  5
9D
330
A
100
AcDbEntity
  8
0
  6
CONTINUOUS
 62
     7
100
AcDbLine
 10
287.0597109988707
 20
35.21661699880978
 30
0.0
 11
287.0597109988707
 21
35.71661699880978
 31
0.0
  0
SOLID
  5
9E
330
A
100
AcDbEntity
  8
0
  6
CONTINUOUS
 62
     7
100
AcDbTrace
 10
287.0347109988708
 20
35.21661699880978
 30
0.0
 11
287.0847109988708
 21
35.21661699880978
 31
0.0
 12
287.0597109988707
 22
35.06661699880978
 32
0.0
 13
287.0597109988707
 23
35.06661699880978
 33
0.0
  0
SOLID
  5
9F
330
A
100
AcDbEntity
  8
0
  6
CONTINUOUS
 62
     7
100
AcDbTrace
 10
287.0347109988708
 20
35.71661699880978
 30
0.0
 11
287.0847109988708
 21
35.71661699880978
 31
0.0
 12
287.0597109988707
 22
35.86661699880978
 32
0.0
 13
287.0597109988707
 23
35.86661699880978
 33
0.0
  0
TEXT
  5
A0
330
A
100
AcDbEntity
  8
0
  6
CONTINUOUS
 62
     7
100
AcDbText
 10
287.0222
 20
35.34159999999999
 30
0.0
 40
0.075
  1
0.80
 50
90.0
  7
ROMANC
 72
     4
 11
286.9847
 21
35.4666
 31
0.0
100
AcDbText
  0
POINT
  5
A1
330
A
100
AcDbEntity
  8
DEFPOINTS
  6
CONTINUOUS
 62
     7
100
AcDbPoint
 10
286.6277149998473
 20
35.06661699880978
 30
0.0
  0
POINT
  5
A2
330
A
100
AcDbEntity
  8
DEFPOINTS
  6
CONTINUOUS
 62
     7
100
AcDbPoint
 10
286.7527149998474
 20
35.86661699880978
 30
0.0
  0
POINT
  5
A3
330
A
100
AcDbEntity
  8
DEFPOINTS
  6
CONTINUOUS
 62
     7
100
AcDbPoint
 10
287.0597109988707
 20
35.86661699880978
 30
0.0
  0
LINE
  5
A4
330
A
100
AcDbEntity
  8
0
  6
CONTINUOUS
 62
     7
100
AcDbLine
 10
285.8777149998473
 20
35.05161699880978
 30
0.0
 11
285.8777149998473
 21
34.40083599963378
 31
0.0
  0
LINE
  5
A5
330
A
100
AcDbEntity
  8
0
  6
CONTINUOUS
 62
     7
100
AcDbLine
 10
286.6277149998473
 20
35.05161699880978
 30
0.0
 11
286.6277149998473
 21
34.40083599963378
 31
0.0
  0
LINE
  5
A6
330
A
100
AcDbEntity
  8
0
  6
CONTINUOUS
 62
     7
100
AcDbLine
 10
285.7277149998474
 20
34.41583599963378
 30
0.0
 11
285.5777149998473
 21
34.41583599963378
 31
0.0
  0
LINE
  5
A7
330
A
100
AcDbEntity
  8
0
  6
CONTINUOUS
 62
     7
100
AcDbLine
 10
286.7777149998474
 20
34.41583599963378
 30
0.0
 11
286.9277149998474
 21
34.41583599963378
 31
0.0
  0
SOLID
  5
A8
330
A
100
AcDbEntity
  8
0
  6
CONTINUOUS
 62
     7
100
AcDbTrace
 10
285.7277149998474
 20
34.44083599963378
 30
0.0
 11
285.7277149998474
 21
34.39083599963378
 31
0.0
 12
285.8777149998473
 22
34.41583599963378
 32
0.0
 13
285.8777149998473
 23
34.41583599963378
 33
0.0
  0
SOLID
  5
A9
330
A
100
AcDbEntity
  8
0
  6
CONTINUOUS
 62
     7
100
AcDbTrace
 10
286.7777149998474
 20
34.44083599963378
 30
0.0
 11
286.7777149998474
 21
34.39083599963378
 31
0.0
 12
286.6277149998473
 22
34.41583599963378
 32
0.0
 13
286.6277149998473
 23
34.41583599963378
 33
0.0
  0
LINE
  5
AA
330
A
100
AcDbEntity
  8
0
  6
CONTINUOUS
 62
     7
100
AcDbLine
 10
285.8777149998473
 20
34.41583599963378
 30
0.0
 11
286.6277149998473
 21
34.41583599963378
 31
0.0
  0
TEXT
  5
AB
330
A
100
AcDbEntity
  8
0
  6
CONTINUOUS
 62
     7
100
AcDbText
 10
286.1277
 20
34.4533
 30
0.0
 40
0.075
  1
0.75
  7
ROMANC
 72
     4
 11
286.2527
 21
34.4908
 31
0.0
100
AcDbText
  0
POINT
  5
AC
330
A
100
AcDbEntity
  8
DEFPOINTS
  6
CONTINUOUS
 62
     7
100
AcDbPoint
 10
285.8777149998473
 20
35.06661699880978
 30
0.0
  0
POINT
  5
AD
330
A
100
AcDbEntity
  8
DEFPOINTS
  6
CONTINUOUS
 62
     7
100
AcDbPoint
 10
286.6277149998473
 20
35.06661699880978
 30
0.0
  0
POINT
  5
AE
330
A
100
AcDbEntity
  8
DEFPOINTS
  6
CONTINUOUS
 62
     7
100
AcDbPoint
 10
286.6277149998473
 20
34.41583599963378
 30
0.0
  0
LINE
  5
AF
330
A
100
AcDbEntity
  8
0
  6
CONTINUOUS
 62
     7
100
AcDbLine
 10
286.0527149998474
 20
35.05161699880978
 30
0.0
 11
286.0527149998474
 21
34.73404199957274
 31
0.0
  0
LINE
  5
B0
330
A
100
AcDbEntity
  8
0
  6
CONTINUOUS
 62
     7
100
AcDbLine
 10
286.4527149998473
 20
35.05161699880978
 30
0.0
 11
286.4527149998473
 21
34.73404199957274
 31
0.0
  0
LINE
  5
B1
330
A
100
AcDbEntity
  8
0
  6
CONTINUOUS
 62
     7
100
AcDbLine
 10
285.9027149998474
 20
34.74904199957274
 30
0.0
 11
285.7527149998474
 21
34.74904199957274
 31
0.0
  0
LINE
  5
B2
330
A
100
AcDbEntity
  8
0
  6
CONTINUOUS
 62
     7
100
AcDbLine
 10
286.6027149998474
 20
34.74904199957274
 30
0.0
 11
286.7527149998474
 21
34.74904199957274
 31
0.0
  0
SOLID
  5
B3
330
A
100
AcDbEntity
  8
0
  6
CONTINUOUS
 62
     7
100
AcDbTrace
 10
285.9027149998474
 20
34.77404199957274
 30
0.0
 11
285.9027149998474
 21
34.72404199957274
 31
0.0
 12
286.0527149998474
 22
34.74904199957274
 32
0.0
 13
286.0527149998474
 23
34.74904199957274
 33
0.0
  0
SOLID
  5
B4
330
A
100
AcDbEntity
  8
0
  6
CONTINUOUS
 62
     7
100
AcDbTrace
 10
286.6027149998474
 20
34.77404199957274
 30
0.0
 11
286.6027149998474
 21
34.72404199957274
 31
0.0
 12
286.4527149998473
 22
34.74904199957274
 32
0.0
 13
286.4527149998473
 23
34.74904199957274
 33
0.0
  0
LINE
  5
B5
330
A
100
AcDbEntity
  8
0
  6
CONTINUOUS
 62
     7
100
AcDbLine
 10
286.0527149998474
 20
34.74904199957274
 30
0.0
 11
286.4527149998473
 21
34.74904199957274
 31
0.0
  0
TEXT
  5
B6
330
A
100
AcDbEntity
  8
0
  6
CONTINUOUS
 62
     7
100
AcDbText
 10
286.1277
 20
34.7865
 30
0.0
 40
0.075
  1
0.40
  7
ROMANC
 72
     4
 11
286.2527
 21
34.824
 31
0.0
100
AcDbText
  0
POINT
  5
B7
330
A
100
AcDbEntity
  8
DEFPOINTS
  6
CONTINUOUS
 62
     7
100
AcDbPoint
 10
286.0527149998474
 20
35.06661699880978
 30
0.0
  0
POINT
  5
B8
330
A
100
AcDbEntity
  8
DEFPOINTS
  6
CONTINUOUS
 62
     7
100
AcDbPoint
 10
286.4527149998473
 20
35.06661699880978
 30
0.0
  0
POINT
  5
B9
330
A
100
AcDbEntity
  8
DEFPOINTS
  6
CONTINUOUS
 62
     7
100
AcDbPoint
 10
286.4527149998473
 20
34.74904199957274
 30
0.0
  0
LINE
  5
BA
330
A
100
AcDbEntity
  8
0
  6
CONTINUOUS
 62
     7
100
AcDbLine
 10
286.2677149998473
 20
36.55661699880978
 30
0.0
 11
287.4609319986571
 21
36.55661699880978
 31
0.0
  0
LINE
  5
BB
330
A
100
AcDbEntity
  8
0
  6
CONTINUOUS
 62
     7
100
AcDbLine
 10
287.0755659993286
 20
34.9171959990234
 30
0.0
 11
287.4609319986571
 21
34.9171959990234
 31
0.0
  0
LINE
  5
BC
330
A
100
AcDbEntity
  8
0
  6
CONTINUOUS
 62
     7
100
AcDbLine
 10
287.4459319986572
 20
36.40661699880978
 30
0.0
 11
287.4459319986572
 21
35.0671959990234
 31
0.0
  0
SOLID
  5
BD
330
A
100
AcDbEntity
  8
0
  6
CONTINUOUS
 62
     7
100
AcDbTrace
 10
287.4209319986572
 20
36.40661699880978
 30
0.0
 11
287.4709319986571
 21
36.40661699880978
 31
0.0
 12
287.4459319986572
 22
36.55661699880978
 32
0.0
 13
287.4459319986572
 23
36.55661699880978
 33
0.0
  0
SOLID
  5
BE
330
A
100
AcDbEntity
  8
0
  6
CONTINUOUS
 62
     7
100
AcDbTrace
 10
287.4209319986572
 20
35.0671959990234
 30
0.0
 11
287.4709319986571
 21
35.0671959990234
 31
0.0
 12
287.4459319986572
 22
34.9171959990234
 32
0.0
 13
287.4459319986572
 23
34.9171959990234
 33
0.0
  0
TEXT
  5
BF
330
A
100
AcDbEntity
  8
0
  6
CONTINUOUS
 62
     7
100
AcDbText
 10
287.4084
 20
35.61725714285714
 30
0.0
 40
0.075
  1
1.65
 50
90.0
  7
ROMANC
 72
     4
 11
287.3709
 21
35.7369
 31
0.0
100
AcDbText
  0
POINT
  5
C0
330
A
100
AcDbEntity
  8
DEFPOINTS
  6
CONTINUOUS
 62
     7
100
AcDbPoint
 10
286.2527149998474
 20
36.55661699880978
 30
0.0
  0
POINT
  5
C1
330
A
100
AcDbEntity
  8
DEFPOINTS
  6
CONTINUOUS
 62
     7
100
AcDbPoint
 10
287.0605659993286
 20
34.9171959990234
 30
0.0
  0
POINT
  5
C2
330
A
100
AcDbEntity
  8
DEFPOINTS
  6
CONTINUOUS
 62
     7
100
AcDbPoint
 10
287.4459319986572
 20
34.9171959990234
 30
0.0
  0
LINE
  5
C3
330
A
100
AcDbEntity
  8
0
  6
CONTINUOUS
 62
     7
100
AcDbLine
 10
286.6427149998473
 20
35.06661699880978
 30
0.0
 11
287.0755659993286
 21
35.06661699880978
 31
0.0
  0
LINE
  5
C4
330
A
100
AcDbEntity
  8
0
  6
CONTINUOUS
 62
     7
100
AcDbLine
 10
286.2643280007324
 20
34.9171959990234
 30
0.0
 11
287.0755659993286
 21
34.9171959990234
 31
0.0
  0
LINE
  5
C5
330
A
100
AcDbEntity
  8
0
  6
CONTINUOUS
 62
     7
100
AcDbLine
 10
287.0605659993286
 20
35.21661699880978
 30
0.0
 11
287.0605659993286
 21
35.36661699880978
 31
0.0
  0
LINE
  5
C6
330
A
100
AcDbEntity
  8
0
  6
CONTINUOUS
 62
     7
100
AcDbLine
 10
287.0605659993286
 20
34.7671959990234
 30
0.0
 11
287.0605659993286
 21
34.61719599902341
 31
0.0
  0
SOLID
  5
C7
330
A
100
AcDbEntity
  8
0
  6
CONTINUOUS
 62
     7
100
AcDbTrace
 10
287.0355659993285
 20
35.21661699880978
 30
0.0
 11
287.0855659993285
 21
35.21661699880978
 31
0.0
 12
287.0605659993286
 22
35.06661699880978
 32
0.0
 13
287.0605659993286
 23
35.06661699880978
 33
0.0
  0
SOLID
  5
C8
330
A
100
AcDbEntity
  8
0
  6
CONTINUOUS
 62
     7
100
AcDbTrace
 10
287.0355659993285
 20
34.7671959990234
 30
0.0
 11
287.0855659993285
 21
34.7671959990234
 31
0.0
 12
287.0605659993286
 22
34.9171959990234
 32
0.0
 13
287.0605659993286
 23
34.9171959990234
 33
0.0
  0
LINE
  5
C9
330
A
100
AcDbEntity
  8
0
  6
CONTINUOUS
 62
     7
100
AcDbLine
 10
287.0605659993286
 20
35.06661699880978
 30
0.0
 11
287.0605659993286
 21
34.9171959990234
 31
0.0
  0
TEXT
  5
CA
330
A
100
AcDbEntity
  8
0
  6
CONTINUOUS
 62
     7
100
AcDbText
 10
287.0231
 20
34.87225714285714
 30
0.0
 40
0.075
  1
0.15
 50
90.0
  7
ROMANC
 72
     4
 11
286.9856
 21
34.9919
 31
0.0
100
AcDbText
  0
POINT
  5
CB
330
A
100
AcDbEntity
  8
DEFPOINTS
  6
CONTINUOUS
 62
     7
100
AcDbPoint
 10
286.6277149998473
 20
35.06661699880978
 30
0.0
  0
POINT
  5
CC
330
A
100
AcDbEntity
  8
DEFPOINTS
  6
CONTINUOUS
 62
     7
100
AcDbPoint
 10
286.2493280007324
 20
34.9171959990234
 30
0.0
  0
POINT
  5
CD
330
A
100
AcDbEntity
  8
DEFPOINTS
  6
CONTINUOUS
 62
     7
100
AcDbPoint
 10
287.0605659993286
 20
34.9171959990234
 30
0.0
  0
ENDSEC
  0
SECTION
  2
OBJECTS
  0
DICTIONARY
  5
19
330
0
100
AcDbDictionary
  3
ACAD_GROUP
350
1A
  3
ACAD_LAYOUT
350
D2
  3
ACAD_MLINESTYLE
350
1B
  3
ACAD_PLOTSETTINGS
350
D3
  3
ACAD_PLOTSTYLENAME
350
D0
  3
ASE_INDEX_DICTIONARY
350
DA
  3
ACDBHEADERROUNDTRIPXREC
350
E3
  0
DICTIONARY
  5
103
330
A
100
AcDbDictionary
280
     1
  3
ACAD_LAYOUTSELFREF
360
104
  0
DICTIONARY
  5
105
330
B
100
AcDbDictionary
280
     1
  3
ACAD_LAYOUTSELFREF
360
106
  0
DICTIONARY
  5
1A
102
{ACAD_REACTORS
330
19
102
}
330
19
100
AcDbDictionary
  0
DICTIONARY
  5
D2
102
{ACAD_REACTORS
330
19
102
}
330
19
100
AcDbDictionary
  0
DICTIONARY
  5
1B
102
{ACAD_REACTORS
330
19
102
}
330
19
100
AcDbDictionary
  3
STANDARD
350
1C
  0
DICTIONARY
  5
D3
102
{ACAD_REACTORS
330
19
102
}
330
19
100
AcDbDictionary
  0
ACDBDICTIONARYWDFLT
  5
D0
102
{ACAD_REACTORS
330
19
102
}
330
19
100
AcDbDictionary
281
     1
  3
Normal
350
D1
100
AcDbDictionaryWithDefault
340
D1
  0
DICTIONARY
  5
DA
102
{ACAD_REACTORS
330
19
102
}
330
19
100
AcDbDictionary
  3
ASEBLOCKHIERARCHYINDEXRECORD
350
DC
1001
DCO15
1040
1440929458.155
  0
DICTIONARY
  5
E3
102
{ACAD_REACTORS
330
19
102
}
330
19
100
AcDbDictionary
  3
TSTACKALIGN
350
E4
  3
TSTACKSIZE
350
E5
  3
HYPERLINKBASE
350
E6
  3
STYLESHEET
350
E7
  3
LAYOUTDICT
350
E8
  3
PLOTSETDICT
350
E9
  3
PLOTSTYLNAMDICT
350
EA
  3
LWETCUNION
350
EB
  3
INSUNITS
350
EC
  3
CEPSNTYPE
350
ED
  3
FINGERPRINTGUID
350
EE
  3
VERSIONGUID
350
EF
  3
PSVPSCALE
350
F0
  3
PUCSORTHOREF
350
F1
  3
PUCSORTHOVIEW
350
F2
  3
PUCSBASE
350
F3
  3
PUCSORGTOP
350
F4
  3
PUCSORGBOTTOM
350
F5
  3
PUCSORGLEFT
350
F6
  3
PUCSORGRIGHT
350
F7
  3
PUCSORGFRONT
350
F8
  3
PUCSORGBACK
350
F9
  3
UCSORTHOREF
350
FA
  3
UCSORTHOVIEW
350
FB
  3
UCSBASE
350
FC
  3
UCSORGTOP
350
FD
  3
UCSORGBOTTOM
350
FE
  3
UCSORGLEFT
350
FF
  3
UCSORGRIGHT
350
100
  3
UCSORGFRONT
350
101
  3
UCSORGBACK
350
102
  0
XRECORD
  5
104
102
{ACAD_REACTORS
330
103
102
}
330
103
100
AcDbXrecord
340
A
  0
XRECORD
  5
106
102
{ACAD_REACTORS
330
105
102
}
330
105
100
AcDbXrecord
340
B
  0
MLINESTYLE
  5
1C
102
{ACAD_REACTORS
330
1B
102
}
330
1B
100
AcDbMlineStyle
  2
STANDARD
 70
     0
  3

 62
     0
 51
90.00000000000019
 52
90.00000000000019
 71
     2
 49
0.5
 62
   256
  6
BYLAYER
 49
-0.5
 62
   256
  6
BYLAYER
  0
ACDBPLACEHOLDER
  5
D1
102
{ACAD_REACTORS
330
D0
102
}
330
D0
100
AcDbPlaceHolder
280
     0
  0
XRECORD
  5
DC
102
{ACAD_REACTORS
330
DA
102
}
330
DA
100
AcDbXrecord
  0
XRECORD
  5
E4
102
{ACAD_REACTORS
330
E3
102
}
330
E3
100
AcDbXrecord
 90
        1
  0
XRECORD
  5
E5
102
{ACAD_REACTORS
330
E3
102
}
330
E3
100
AcDbXrecord
 90
       70
  0
XRECORD
  5
E6
102
{ACAD_REACTORS
330
E3
102
}
330
E3
100
AcDbXrecord
  1

  0
XRECORD
  5
E7
102
{ACAD_REACTORS
330
E3
102
}
330
E3
100
AcDbXrecord
  1

  0
XRECORD
  5
E8
102
{ACAD_REACTORS
330
E3
102
}
330
E3
100
AcDbXrecord
340
D2
  0
XRECORD
  5
E9
102
{ACAD_REACTORS
330
E3
102
}
330
E3
100
AcDbXrecord
340
D3
  0
XRECORD
  5
EA
102
{ACAD_REACTORS
330
E3
102
}
330
E3
100
AcDbXrecord
340
D0
  0
XRECORD
  5
EB
102
{ACAD_REACTORS
330
E3
102
}
330
E3
100
AcDbXrecord
 90
    14877
  0
XRECORD
  5
EC
102
{ACAD_REACTORS
330
E3
102
}
330
E3
100
AcDbXrecord
 90
        0
  0
XRECORD
  5
ED
102
{ACAD_REACTORS
330
E3
102
}
330
E3
100
AcDbXrecord
 90
        0
  0
XRECORD
  5
EE
102
{ACAD_REACTORS
330
E3
102
}
330
E3
100
AcDbXrecord
  1
{6AD85235-5122-4C7C-A5AA-1CF95BC702C6}
  0
XRECORD
  5
EF
102
{ACAD_REACTORS
330
E3
102
}
330
E3
100
AcDbXrecord
  1
{B1B19872-ED25-4E9E-AE43-70E461EAB538}
  0
XRECORD
  5
F0
102
{ACAD_REACTORS
330
E3
102
}
330
E3
100
AcDbXrecord
 40
0.0
  0
XRECORD
  5
F1
102
{ACAD_REACTORS
330
E3
102
}
330
E3
100
AcDbXrecord
340
0
  0
XRECORD
  5
F2
102
{ACAD_REACTORS
330
E3
102
}
330
E3
100
AcDbXrecord
 70
     0
  0
XRECORD
  5
F3
102
{ACAD_REACTORS
330
E3
102
}
330
E3
100
AcDbXrecord
340
0
  0
XRECORD
  5
F4
102
{ACAD_REACTORS
330
E3
102
}
330
E3
100
AcDbXrecord
 10
0.0
 20
0.0
 30
0.0
  0
XRECORD
  5
F5
102
{ACAD_REACTORS
330
E3
102
}
330
E3
100
AcDbXrecord
 10
0.0
 20
0.0
 30
0.0
  0
XRECORD
  5
F6
102
{ACAD_REACTORS
330
E3
102
}
330
E3
100
AcDbXrecord
 10
0.0
 20
0.0
 30
0.0
  0
XRECORD
  5
F7
102
{ACAD_REACTORS
330
E3
102
}
330
E3
100
AcDbXrecord
 10
0.0
 20
0.0
 30
0.0
  0
XRECORD
  5
F8
102
{ACAD_REACTORS
330
E3
102
}
330
E3
100
AcDbXrecord
 10
0.0
 20
0.0
 30
0.0
  0
XRECORD
  5
F9
102
{ACAD_REACTORS
330
E3
102
}
330
E3
100
AcDbXrecord
 10
0.0
 20
0.0
 30
0.0
  0
XRECORD
  5
FA
102
{ACAD_REACTORS
330
E3
102
}
330
E3
100
AcDbXrecord
340
0
  0
XRECORD
  5
FB
102
{ACAD_REACTORS
330
E3
102
}
330
E3
100
AcDbXrecord
 70
     0
  0
XRECORD
  5
FC
102
{ACAD_REACTORS
330
E3
102
}
330
E3
100
AcDbXrecord
340
0
  0
XRECORD
  5
FD
102
{ACAD_REACTORS
330
E3
102
}
330
E3
100
AcDbXrecord
 10
0.0
 20
0.0
 30
0.0
  0
XRECORD
  5
FE
102
{ACAD_REACTORS
330
E3
102
}
330
E3
100
AcDbXrecord
 10
0.0
 20
0.0
 30
0.0
  0
XRECORD
  5
FF
102
{ACAD_REACTORS
330
E3
102
}
330
E3
100
AcDbXrecord
 10
0.0
 20
0.0
 30
0.0
  0
XRECORD
  5
100
102
{ACAD_REACTORS
330
E3
102
}
330
E3
100
AcDbXrecord
 10
0.0
 20
0.0
 30
0.0
  0
XRECORD
  5
101
102
{ACAD_REACTORS
330
E3
102
}
330
E3
100
AcDbXrecord
 10
0.0
 20
0.0
 30
0.0
  0
XRECORD
  5
102
102
{ACAD_REACTORS
330
E3
102
}
330
E3
100
AcDbXrecord
 10
0.0
 20
0.0
 30
0.0
  0
ENDSEC
  0
EOF
