  0
SECTION
  2
HEADER
  9
$ACADVER
  1
AC1009
  9
$INSBASE
 10
0.0
 20
0.0
 30
0.0
  9
$EXTMIN
 10
281.396000
 20
29.897000
 30
-2147483.648000
  9
$EXTMAX
 10
291.896000
 20
44.747000
 30
0.000000
  9
$LIMMIN
 10
280.396000
 20
28.897000
  9
$LIMMAX
 10
292.896000
 20
43.747000
  9
$ORTHOMODE
 70
     0
  9
$REGENMODE
 70
     1
  9
$FILLMODE
 70
     1
  9
$QTEXTMODE
 70
     0
  9
$MIRRTEXT
 70
     1
  9
$DRAGMODE
 70
     2
  9
$LTSCALE
 40
1.0
  9
$OSMODE
 70
     0
  9
$ATTMODE
 70
     1
  9
$TEXTSIZE
 40
0.2
  9
$TRACEWID
 40
0.05
  9
$TEXTSTYLE
  7
STANDARD
  9
$CLAYER
  8
0
  9
$CELTYPE
  6
BYLAYER
  9
$CECOLOR
 62
   256
  9
$DIMSCALE
 40
1.0
  9
$DIMASZ
 40
0.18
  9
$DIMEXO
 40
0.0625
  9
$DIMDLI
 40
0.38
  9
$DIMRND
 40
0.0
  9
$DIMDLE
 40
0.0
  9
$DIMEXE
 40
0.18
  9
$DIMTP
 40
0.0
  9
$DIMTM
 40
0.0
  9
$DIMTXT
 40
0.18
  9
$DIMCEN
 40
0.09
  9
$DIMTSZ
 40
0.0
  9
$DIMTOL
 70
     0
  9
$DIMLIM
 70
     0
  9
$DIMTIH
 70
     1
  9
$DIMTOH
 70
     1
  9
$DIMSE1
 70
     0
  9
$DIMSE2
 70
     0
  9
$DIMTAD
 70
     0
  9
$DIMZIN
 70
     0
  9
$DIMBLK
  1

  9
$DIMASO
 70
     1
  9
$DIMSHO
 70
     1
  9
$DIMPOST
  1

  9
$DIMAPOST
  1

  9
$DIMALT
 70
     0
  9
$DIMALTD
 70
     2
  9
$DIMALTF
 40
25.4
  9
$DIMLFAC
 40
1.0
  9
$DIMTOFL
 70
     0
  9
$DIMTVP
 40
0.0
  9
$DIMTIX
 70
     0
  9
$DIMSOXD
 70
     0
  9
$DIMSAH
 70
     0
  9
$DIMBLK1
  1

  9
$DIMBLK2
  1

  9
$DIMSTYLE
  2
*UNNAMED
  9
$DIMCLRD
 70
     0
  9
$DIMCLRE
 70
     0
  9
$DIMCLRT
 70
     0
  9
$DIMTFAC
 40
1.0
  9
$DIMGAP
 40
0.09
  9
$LUNITS
 70
     2
  9
$LUPREC
 70
     4
  9
$AXISMODE
 70
     0
  9
$AXISUNIT
 10
0.0
 20
0.0
  9
$SKETCHINC
 40
0.1
  9
$FILLETRAD
 40
0.0
  9
$AUNITS
 70
     0
  9
$AUPREC
 70
     0
  9
$MENU
  1
acad
  9
$ELEVATION
 40
0.0
  9
$PELEVATION
 40
0.0
  9
$THICKNESS
 40
0.0
  9
$LIMCHECK
 70
     0
  9
$BLIPMODE
 70
     1
  9
$CHAMFERA
 40
0.0
  9
$CHAMFERB
 40
0.0
  9
$SKPOLY
 70
     0
  9
$TDCREATE
 40
2448315.373408102
  9
$TDUPDATE
 40
2448315.373408102
  9
$TDINDWG
 40
0.0000000000
  9
$TDUSRTIMER
 40
0.0000000000
  9
$USRTIMER
 70
     1
  9
$ANGBASE
 50
0.0
  9
$ANGDIR
 70
     0
  9
$PDMODE
 70
     0
  9
$PDSIZE
 40
0.0
  9
$PLINEWID
 40
0.0
  9
$COORDS
 70
     0
  9
$SPLFRAME
 70
     0
  9
$SPLINETYPE
 70
     6
  9
$SPLINESEGS
 70
     8
  9
$ATTDIA
 70
     0
  9
$ATTREQ
 70
     1
  9
$HANDLING
 70
     0
  9
$HANDSEED
  5
0
  9
$SURFTAB1
 70
     6
  9
$SURFTAB2
 70
     6
  9
$SURFTYPE
 70
     6
  9
$SURFU
 70
     6
  9
$SURFV
 70
     6
  9
$UCSNAME
  2

  9
$UCSORG
 10
0.0
 20
0.0
 30
0.0
  9
$UCSXDIR
 10
1.0
 20
0.0
 30
0.0
  9
$UCSYDIR
 10
0.0
 20
1.0
 30
0.0
  9
$PUCSNAME
  2

  9
$PUCSORG
 10
0.0
 20
0.0
 30
0.0
  9
$PUCSXDIR
 10
1.0
 20
0.0
 30
0.0
  9
$PUCSYDIR
 10
0.0
 20
1.0
 30
0.0
  9
$USERI1
 70
     0
  9
$USERI2
 70
     0
  9
$USERI3
 70
     0
  9
$USERI4
 70
     0
  9
$USERI5
 70
     0
  9
$USERR1
 40
0.0
  9
$USERR2
 40
0.0
  9
$USERR3
 40
0.0
  9
$USERR4
 40
0.0
  9
$USERR5
 40
0.0
  9
$WORLDVIEW
 70
     1
  9
$SHADEDGE
 70
     3
  9
$SHADEDIF
 70
    70
  9
$TILEMODE
 70
     1
  9
$MAXACTVP
 70
    16
  9
$PINSBASE
 10
0.0
 20
0.0
 30
0.0
  9
$PLIMCHECK
 70
     0
  9
$PEXTMIN
 10
1.000000E+20
 20
1.000000E+20
 30
1.000000E+20
  9
$PEXTMAX
 10
-1.000000E+20
 20
-1.000000E+20
 30
-1.000000E+20
  9
$PLIMMIN
 10
0.0
 20
0.0
  9
$PLIMMAX
 10
12.0
 20
9.0
  9
$UNITMODE
 70
     0
  9
$VISRETAIN
 70
     0
  0
ENDSEC
  0
SECTION
  2
TABLES
  0
TABLE
  2
LTYPE
 70
    1
  0
LTYPE
  2
CONTINUOUS
 70
    64
3
Solid line
 72
    65
 73
0
 40
0.000000
  0
ENDTAB
  0
TABLE
  2
LAYER
 70
    8
  0
LAYER
  2
0
 70
    64
 62
7
  6
CONTINUOUS
  0
LAYER
  2
1
 70
    64
 62
7
  6
CONTINUOUS
  0
LAYER
  2
7
 70
    64
 62
7
  6
CONTINUOUS
  0
LAYER
  2
8
 70
    64
 62
7
  6
CONTINUOUS
  0
LAYER
  2
9
 70
    64
 62
7
  6
CONTINUOUS
  0
LAYER
  2
22
 70
    64
 62
7
  6
CONTINUOUS
  0
LAYER
  2
25
 70
    64
 62
7
  6
CONTINUOUS
  0
LAYER
  2
0
 70
    64
 62
7
  6
CONTINUOUS
  0
ENDTAB
  0
TABLE
  2
STYLE
 70
    1
  0
STYLE
  2
ROMANC
70
     0
 40
0.0
 41
1.0
 50
0.0
 71
     0
 42
0.2
  3
ROMANC
  4

  0
ENDTAB
  0
ENDSEC
  0
SECTION
  2
BLOCKS
  0
ENDSEC
  0
SECTION
  2
ENTITIES
  0
TEXT
  8
0
  6
CONTINUOUS
 40
0.100000
 10
287.008000
 20
41.338000
  1
2
  7
ROMANC
  0
TEXT
  8
0
  6
CONTINUOUS
 40
0.300000
 10
283.926000
 20
41.768000
  1
ESCALA  1:50
  7
ROMANC
  0
POLYLINE
  8
0
  6
CONTINUOUS
 66
     1
 70
     1
  0
VERTEX
  8
0
  6
CONTINUOUS
 10
281.396000
 20
44.747000
  0
VERTEX
  8
0
  6
CONTINUOUS
 10
291.896000
 20
44.747000
  0
VERTEX
  8
0
  6
CONTINUOUS
 10
291.896000
 20
29.897000
  0
VERTEX
  8
0
  6
CONTINUOUS
 10
281.396000
 20
29.897000
  0
SEQEND
  8
0
  0
TEXT
  8
0
  6
CONTINUOUS
 40
0.300000
 10
283.945000
 20
41.099000
  1
S = 129 dm
  7
ROMANC
  0
TEXT
  8
0
  6
CONTINUOUS
 40
0.300000
 10
283.922000
 20
40.529000
  1
P = 48 dm
  7
ROMANC
  0
TEXT
  8
0
  6
CONTINUOUS
 40
0.300000
 10
283.926000
 20
42.381000
  1
TIPUS   NT129C
  7
ROMANC
  0
LINE
  8
1
  6
CONTINUOUS
 10
286.007000
 20
35.633000
 11
286.007000
 21
36.593000
  0
LINE
  8
1
  6
CONTINUOUS
 10
285.997000
 20
35.623000
 11
285.997000
 21
36.593000
  0
LINE
  8
1
  6
CONTINUOUS
 10
286.508000
 20
35.633000
 11
286.007000
 21
35.633000
  0
LINE
  8
1
  6
CONTINUOUS
 10
286.498000
 20
35.623000
 11
285.997000
 21
35.623000
  0
POLYLINE
  8
1
  6
CONTINUOUS
 66
     1
 70
     0
  0
VERTEX
  8
1
  6
CONTINUOUS
 10
286.507961
 20
35.633000
 42
0.018112
  0
VERTEX
  8
1
  6
CONTINUOUS
 10
286.510774
 20
35.575760
 42
0.019091
  0
VERTEX
  8
1
  6
CONTINUOUS
 10
286.517829
 20
35.518893
 42
0.019695
  0
VERTEX
  8
1
  6
CONTINUOUS
 10
286.528526
 20
35.466247
 42
0.022729
  0
VERTEX
  8
1
  6
CONTINUOUS
 10
286.543635
 20
35.414714
 42
0.024143
  0
VERTEX
  8
1
  6
CONTINUOUS
 10
286.561144
 20
35.370636
 42
0.030492
  0
VERTEX
  8
1
  6
CONTINUOUS
 10
286.583323
 20
35.328763
 42
0.033343
  0
VERTEX
  8
1
  6
CONTINUOUS
 10
286.606181
 20
35.296320
 42
0.044986
  0
VERTEX
  8
1
  6
CONTINUOUS
 10
286.633731
 20
35.267887
 42
0.050092
  0
VERTEX
  8
1
  6
CONTINUOUS
 10
286.660591
 20
35.249134
 42
0.064306
  0
VERTEX
  8
1
  6
CONTINUOUS
 10
286.690844
 20
35.236936
 42
0.068109
  0
VERTEX
  8
1
  6
CONTINUOUS
 10
286.720569
 20
35.233684
 42
0.067150
  0
VERTEX
  8
1
  6
CONTINUOUS
 10
286.750112
 20
35.238375
 42
0.062826
  0
VERTEX
  8
1
  6
CONTINUOUS
 10
286.780263
 20
35.252067
 42
0.048314
  0
VERTEX
  8
1
  6
CONTINUOUS
 10
286.806813
 20
35.272090
 42
0.043397
  0
VERTEX
  8
1
  6
CONTINUOUS
 10
286.833981
 20
35.301836
 42
0.032267
  0
VERTEX
  8
1
  6
CONTINUOUS
 10
286.856430
 20
35.335396
 42
0.029581
  0
VERTEX
  8
1
  6
CONTINUOUS
 10
286.878045
 20
35.378279
 42
0.023600
  0
VERTEX
  8
1
  6
CONTINUOUS
 10
286.895011
 20
35.423247
 42
0.022275
  0
VERTEX
  8
1
  6
CONTINUOUS
 10
286.909441
 20
35.475429
 42
0.019458
  0
VERTEX
  8
1
  6
CONTINUOUS
 10
286.919481
 20
35.528647
 42
0.018909
  0
VERTEX
  8
1
  6
CONTINUOUS
 10
286.925803
 20
35.585765
 42
0.018081
  0
VERTEX
  8
1
  6
CONTINUOUS
 10
286.927892
 20
35.643199
  0
SEQEND
  8
0
  0
POLYLINE
  8
1
  6
CONTINUOUS
 66
     1
 70
     0
  0
VERTEX
  8
1
  6
CONTINUOUS
 10
286.498155
 20
35.623000
 42
0.018429
  0
VERTEX
  8
1
  6
CONTINUOUS
 10
286.501766
 20
35.564995
 42
0.019534
  0
VERTEX
  8
1
  6
CONTINUOUS
 10
286.509760
 20
35.507437
 42
0.020180
  0
VERTEX
  8
1
  6
CONTINUOUS
 10
286.521453
 20
35.454380
 42
0.023346
  0
VERTEX
  8
1
  6
CONTINUOUS
 10
286.537701
 20
35.402556
 42
0.024808
  0
VERTEX
  8
1
  6
CONTINUOUS
 10
286.556348
 20
35.358373
 42
0.031259
  0
VERTEX
  8
1
  6
CONTINUOUS
 10
286.579786
 20
35.316588
 42
0.034134
  0
VERTEX
  8
1
  6
CONTINUOUS
 10
286.603886
 20
35.284297
 42
0.045537
  0
VERTEX
  8
1
  6
CONTINUOUS
 10
286.632710
 20
35.256280
 42
0.050426
  0
VERTEX
  8
1
  6
CONTINUOUS
 10
286.660884
 20
35.237927
 42
0.063345
  0
VERTEX
  8
1
  6
CONTINUOUS
 10
286.692321
 20
35.226367
 42
0.066511
  0
VERTEX
  8
1
  6
CONTINUOUS
 10
286.723305
 20
35.223770
 42
0.064828
  0
VERTEX
  8
1
  6
CONTINUOUS
 10
286.753938
 20
35.229197
 42
0.060727
  0
VERTEX
  8
1
  6
CONTINUOUS
 10
286.785170
 20
35.243685
 42
0.047178
  0
VERTEX
  8
1
  6
CONTINUOUS
 10
286.812726
 20
35.264546
 42
0.042595
  0
VERTEX
  8
1
  6
CONTINUOUS
 10
286.840795
 20
35.295148
 42
0.032088
  0
VERTEX
  8
1
  6
CONTINUOUS
 10
286.864071
 20
35.329641
 42
0.029514
  0
VERTEX
  8
1
  6
CONTINUOUS
 10
286.886384
 20
35.373428
 42
0.023750
  0
VERTEX
  8
1
  6
CONTINUOUS
 10
286.903942
 20
35.419372
 42
0.022459
  0
VERTEX
  8
1
  6
CONTINUOUS
 10
286.918835
 20
35.472494
 42
0.019708
  0
VERTEX
  8
1
  6
CONTINUOUS
 10
286.929210
 20
35.526697
 42
0.019168
  0
VERTEX
  8
1
  6
CONTINUOUS
 10
286.935735
 20
35.584779
 42
0.018354
  0
VERTEX
  8
1
  6
CONTINUOUS
 10
286.937892
 20
35.643191
  0
SEQEND
  8
0
  0
LINE
  8
1
  6
CONTINUOUS
 10
286.927000
 20
36.593000
 11
286.927000
 21
35.643000
  0
LINE
  8
1
  6
CONTINUOUS
 10
286.937000
 20
36.593000
 11
286.937000
 21
35.643000
  0
TEXT
  8
1
  6
CONTINUOUS
 40
0.075000
 10
286.131000
 20
34.954000
  1
0.50
  7
ROMANC
  0
LINE
  8
1
  6
CONTINUOUS
 10
285.867000
 20
34.991000
 11
286.017000
 21
34.991000
  0
LINE
  8
1
  6
CONTINUOUS
 10
286.668000
 20
34.991000
 11
286.518000
 21
34.991000
  0
LINE
  8
1
  6
CONTINUOUS
 10
286.054000
 20
35.010000
 11
285.980000
 21
34.972000
  0
LINE
  8
1
  6
CONTINUOUS
 10
286.480000
 20
34.972000
 11
286.556000
 21
35.010000
  0
LINE
  8
1
  6
CONTINUOUS
 10
286.017000
 20
36.555000
 11
286.017000
 21
34.953000
  0
LINE
  8
1
  6
CONTINUOUS
 10
286.518000
 20
35.605000
 11
286.518000
 21
34.953000
  0
TEXT
  8
1
  6
CONTINUOUS
 40
0.075000
 10
285.544000
 20
36.007000
  1
1.80
 50
90.000000
  7
ROMANC
  0
LINE
  8
1
  6
CONTINUOUS
 10
285.507000
 20
35.969000
 11
285.507000
 21
35.244000
  0
LINE
  8
1
  6
CONTINUOUS
 10
285.507000
 20
36.318000
 11
285.507000
 21
37.044000
  0
LINE
  8
1
  6
CONTINUOUS
 10
285.526000
 20
35.206000
 11
285.488000
 21
35.282000
  0
LINE
  8
1
  6
CONTINUOUS
 10
285.488000
 20
37.082000
 11
285.526000
 21
37.006000
  0
LINE
  8
1
  6
CONTINUOUS
 10
286.718000
 20
35.244000
 11
285.469000
 21
35.244000
  0
LINE
  8
1
  6
CONTINUOUS
 10
286.431000
 20
37.044000
 11
285.469000
 21
37.044000
  0
LINE
  8
1
  6
CONTINUOUS
 10
286.017000
 20
36.593000
 11
286.017000
 21
35.643000
  0
LINE
  8
1
  6
CONTINUOUS
 10
286.017000
 20
35.643000
 11
286.517000
 21
35.643000
  0
POLYLINE
  8
1
  6
CONTINUOUS
 66
     1
 70
     0
  0
VERTEX
  8
1
  6
CONTINUOUS
 10
286.517892
 20
35.643468
 42
0.017793
  0
VERTEX
  8
1
  6
CONTINUOUS
 10
286.519894
 20
35.586988
 42
0.018632
  0
VERTEX
  8
1
  6
CONTINUOUS
 10
286.525996
 20
35.530809
 42
0.019189
  0
VERTEX
  8
1
  6
CONTINUOUS
 10
286.535685
 20
35.478547
 42
0.022072
  0
VERTEX
  8
1
  6
CONTINUOUS
 10
286.549638
 20
35.427276
 42
0.023430
  0
VERTEX
  8
1
  6
CONTINUOUS
 10
286.565999
 20
35.383258
 42
0.029640
  0
VERTEX
  8
1
  6
CONTINUOUS
 10
286.586902
 20
35.341252
 42
0.032447
  0
VERTEX
  8
1
  6
CONTINUOUS
 10
286.608513
 20
35.308609
 42
0.044270
  0
VERTEX
  8
1
  6
CONTINUOUS
 10
286.634772
 20
35.279701
 42
0.049569
  0
VERTEX
  8
1
  6
CONTINUOUS
 10
286.660309
 20
35.260506
 42
0.065180
  0
VERTEX
  8
1
  6
CONTINUOUS
 10
286.689373
 20
35.247608
 42
0.069742
  0
VERTEX
  8
1
  6
CONTINUOUS
 10
286.717825
 20
35.243659
 42
0.069770
  0
VERTEX
  8
1
  6
CONTINUOUS
 10
286.746282
 20
35.247571
 42
0.065223
  0
VERTEX
  8
1
  6
CONTINUOUS
 10
286.775348
 20
35.260430
 42
0.049618
  0
VERTEX
  8
1
  6
CONTINUOUS
 10
286.800893
 20
35.279593
 42
0.044314
  0
VERTEX
  8
1
  6
CONTINUOUS
 10
286.827162
 20
35.308467
 42
0.032476
  0
VERTEX
  8
1
  6
CONTINUOUS
 10
286.848783
 20
35.341081
 42
0.029664
  0
VERTEX
  8
1
  6
CONTINUOUS
 10
286.869701
 20
35.383061
 42
0.023444
  0
VERTEX
  8
1
  6
CONTINUOUS
 10
286.886076
 20
35.427056
 42
0.022083
  0
VERTEX
  8
1
  6
CONTINUOUS
 10
286.900046
 20
35.478311
 42
0.019195
  0
VERTEX
  8
1
  6
CONTINUOUS
 10
286.909751
 20
35.530558
 42
0.018637
  0
VERTEX
  8
1
  6
CONTINUOUS
 10
286.915872
 20
35.586732
 42
0.017793
  0
VERTEX
  8
1
  6
CONTINUOUS
 10
286.917892
 20
35.643206
  0
SEQEND
  8
0
  0
LINE
  8
1
  6
CONTINUOUS
 10
286.917000
 20
35.643000
 11
286.917000
 21
36.593000
  0
POLYLINE
  8
1
  6
CONTINUOUS
 66
     1
 70
     0
  0
VERTEX
  8
1
  6
CONTINUOUS
 10
286.928999
 20
36.592987
 42
0.032818
  0
VERTEX
  8
1
  6
CONTINUOUS
 10
286.925159
 20
36.653121
 42
0.032811
  0
VERTEX
  8
1
  6
CONTINUOUS
 10
286.913511
 20
36.712240
 42
0.032806
  0
VERTEX
  8
1
  6
CONTINUOUS
 10
286.894182
 20
36.769329
 42
0.032787
  0
VERTEX
  8
1
  6
CONTINUOUS
 10
286.867578
 20
36.823412
 42
0.032778
  0
VERTEX
  8
1
  6
CONTINUOUS
 10
286.834081
 20
36.873554
 42
0.032752
  0
VERTEX
  8
1
  6
CONTINUOUS
 10
286.794340
 20
36.918907
 42
0.032742
  0
VERTEX
  8
1
  6
CONTINUOUS
 10
286.748964
 20
36.958673
 42
0.032715
  0
VERTEX
  8
1
  6
CONTINUOUS
 10
286.698801
 20
36.992199
 42
0.032707
  0
VERTEX
  8
1
  6
CONTINUOUS
 10
286.644649
 20
37.018871
 42
0.032687
  0
VERTEX
  8
1
  6
CONTINUOUS
 10
286.587490
 20
37.038280
 42
0.032683
  0
VERTEX
  8
1
  6
CONTINUOUS
 10
286.528265
 20
37.050037
 42
0.032676
  0
VERTEX
  8
1
  6
CONTINUOUS
 10
286.468014
 20
37.054001
 42
0.032676
  0
VERTEX
  8
1
  6
CONTINUOUS
 10
286.407763
 20
37.050040
 42
0.032683
  0
VERTEX
  8
1
  6
CONTINUOUS
 10
286.348537
 20
37.038287
 42
0.032687
  0
VERTEX
  8
1
  6
CONTINUOUS
 10
286.291376
 20
37.018882
 42
0.032707
  0
VERTEX
  8
1
  6
CONTINUOUS
 10
286.237223
 20
36.992213
 42
0.032715
  0
VERTEX
  8
1
  6
CONTINUOUS
 10
286.187058
 20
36.958690
 42
0.032742
  0
VERTEX
  8
1
  6
CONTINUOUS
 10
286.141680
 20
36.918926
 42
0.032752
  0
VERTEX
  8
1
  6
CONTINUOUS
 10
286.101936
 20
36.873576
 42
0.032778
  0
VERTEX
  8
1
  6
CONTINUOUS
 10
286.068436
 20
36.823436
 42
0.032787
  0
VERTEX
  8
1
  6
CONTINUOUS
 10
286.041828
 20
36.769354
 42
0.032806
  0
VERTEX
  8
1
  6
CONTINUOUS
 10
286.022497
 20
36.712266
 42
0.032811
  0
VERTEX
  8
1
  6
CONTINUOUS
 10
286.010844
 20
36.653148
 42
0.032818
  0
VERTEX
  8
1
  6
CONTINUOUS
 10
286.007001
 20
36.593015
  0
SEQEND
  8
0
  0
POLYLINE
  8
1
  6
CONTINUOUS
 66
     1
 70
     0
  0
VERTEX
  8
1
  6
CONTINUOUS
 10
286.938999
 20
36.592965
 42
0.032817
  0
VERTEX
  8
1
  6
CONTINUOUS
 10
286.935076
 20
36.654406
 42
0.032810
  0
VERTEX
  8
1
  6
CONTINUOUS
 10
286.923175
 20
36.714810
 42
0.032805
  0
VERTEX
  8
1
  6
CONTINUOUS
 10
286.903427
 20
36.773140
 42
0.032786
  0
VERTEX
  8
1
  6
CONTINUOUS
 10
286.876245
 20
36.828399
 42
0.032778
  0
VERTEX
  8
1
  6
CONTINUOUS
 10
286.842022
 20
36.879631
 42
0.032752
  0
VERTEX
  8
1
  6
CONTINUOUS
 10
286.801419
 20
36.925970
 42
0.032742
  0
VERTEX
  8
1
  6
CONTINUOUS
 10
286.755059
 20
36.966601
 42
0.032716
  0
VERTEX
  8
1
  6
CONTINUOUS
 10
286.703807
 20
37.000856
 42
0.032708
  0
VERTEX
  8
1
  6
CONTINUOUS
 10
286.648481
 20
37.028108
 42
0.032689
  0
VERTEX
  8
1
  6
CONTINUOUS
 10
286.590082
 20
37.047939
 42
0.032684
  0
VERTEX
  8
1
  6
CONTINUOUS
 10
286.529572
 20
37.059951
 42
0.032677
  0
VERTEX
  8
1
  6
CONTINUOUS
 10
286.468014
 20
37.064001
 42
0.032677
  0
VERTEX
  8
1
  6
CONTINUOUS
 10
286.406456
 20
37.059954
 42
0.032684
  0
VERTEX
  8
1
  6
CONTINUOUS
 10
286.345945
 20
37.047946
 42
0.032689
  0
VERTEX
  8
1
  6
CONTINUOUS
 10
286.287545
 20
37.028119
 42
0.032708
  0
VERTEX
  8
1
  6
CONTINUOUS
 10
286.232217
 20
37.000870
 42
0.032716
  0
VERTEX
  8
1
  6
CONTINUOUS
 10
286.180964
 20
36.966618
 42
0.032742
  0
VERTEX
  8
1
  6
CONTINUOUS
 10
286.134601
 20
36.925990
 42
0.032752
  0
VERTEX
  8
1
  6
CONTINUOUS
 10
286.093995
 20
36.879653
 42
0.032778
  0
VERTEX
  8
1
  6
CONTINUOUS
 10
286.059769
 20
36.828423
 42
0.032786
  0
VERTEX
  8
1
  6
CONTINUOUS
 10
286.032584
 20
36.773166
 42
0.032805
  0
VERTEX
  8
1
  6
CONTINUOUS
 10
286.012833
 20
36.714837
 42
0.032810
  0
VERTEX
  8
1
  6
CONTINUOUS
 10
286.000927
 20
36.654434
 42
0.032817
  0
VERTEX
  8
1
  6
CONTINUOUS
 10
285.997001
 20
36.592994
  0
SEQEND
  8
0
  0
POLYLINE
  8
1
  6
CONTINUOUS
 66
     1
 70
     0
  0
VERTEX
  8
1
  6
CONTINUOUS
 10
286.918999
 20
36.593009
 42
0.032820
  0
VERTEX
  8
1
  6
CONTINUOUS
 10
286.915243
 20
36.651835
 42
0.032813
  0
VERTEX
  8
1
  6
CONTINUOUS
 10
286.903847
 20
36.709669
 42
0.032808
  0
VERTEX
  8
1
  6
CONTINUOUS
 10
286.884938
 20
36.765517
 42
0.032788
  0
VERTEX
  8
1
  6
CONTINUOUS
 10
286.858910
 20
36.818424
 42
0.032779
  0
VERTEX
  8
1
  6
CONTINUOUS
 10
286.826140
 20
36.867477
 42
0.032752
  0
VERTEX
  8
1
  6
CONTINUOUS
 10
286.787261
 20
36.911844
 42
0.032742
  0
VERTEX
  8
1
  6
CONTINUOUS
 10
286.742869
 20
36.950745
 42
0.032715
  0
VERTEX
  8
1
  6
CONTINUOUS
 10
286.693794
 20
36.983543
 42
0.032706
  0
VERTEX
  8
1
  6
CONTINUOUS
 10
286.640817
 20
37.009635
 42
0.032686
  0
VERTEX
  8
1
  6
CONTINUOUS
 10
286.584898
 20
37.028622
 42
0.032681
  0
VERTEX
  8
1
  6
CONTINUOUS
 10
286.526957
 20
37.040123
 42
0.032674
  0
VERTEX
  8
1
  6
CONTINUOUS
 10
286.468014
 20
37.044001
 42
0.032674
  0
VERTEX
  8
1
  6
CONTINUOUS
 10
286.409070
 20
37.040126
 42
0.032681
  0
VERTEX
  8
1
  6
CONTINUOUS
 10
286.351128
 20
37.028629
 42
0.032686
  0
VERTEX
  8
1
  6
CONTINUOUS
 10
286.295208
 20
37.009646
 42
0.032706
  0
VERTEX
  8
1
  6
CONTINUOUS
 10
286.242229
 20
36.983556
 42
0.032715
  0
VERTEX
  8
1
  6
CONTINUOUS
 10
286.193152
 20
36.950762
 42
0.032742
  0
VERTEX
  8
1
  6
CONTINUOUS
 10
286.148758
 20
36.911863
 42
0.032752
  0
VERTEX
  8
1
  6
CONTINUOUS
 10
286.109877
 20
36.867498
 42
0.032779
  0
VERTEX
  8
1
  6
CONTINUOUS
 10
286.077103
 20
36.818448
 42
0.032788
  0
VERTEX
  8
1
  6
CONTINUOUS
 10
286.051073
 20
36.765542
 42
0.032808
  0
VERTEX
  8
1
  6
CONTINUOUS
 10
286.032160
 20
36.709695
 42
0.032813
  0
VERTEX
  8
1
  6
CONTINUOUS
 10
286.020761
 20
36.651862
 42
0.032820
  0
VERTEX
  8
1
  6
CONTINUOUS
 10
286.017001
 20
36.593036
  0
SEQEND
  8
0
  0
TEXT
  8
1
  6
CONTINUOUS
 40
0.075000
 10
287.438000
 20
35.830000
  1
0.40
 50
90.000000
  7
ROMANC
  0
LINE
  8
1
  6
CONTINUOUS
 10
287.401000
 20
35.716000
 11
287.401000
 21
35.643000
  0
LINE
  8
1
  6
CONTINUOUS
 10
287.401000
 20
35.094000
 11
287.401000
 21
35.244000
  0
LINE
  8
1
  6
CONTINUOUS
 10
287.420000
 20
35.606000
 11
287.382000
 21
35.680000
  0
LINE
  8
1
  6
CONTINUOUS
 10
287.382000
 20
35.282000
 11
287.420000
 21
35.206000
  0
LINE
  8
1
  6
CONTINUOUS
 10
286.955000
 20
35.643000
 11
287.439000
 21
35.643000
  0
LINE
  8
1
  6
CONTINUOUS
 10
286.756000
 20
35.244000
 11
287.439000
 21
35.244000
  0
TEXT
  8
1
  6
CONTINUOUS
 40
0.075000
 10
287.684000
 20
35.981000
  1
0.95
 50
90.000000
  7
ROMANC
  0
LINE
  8
1
  6
CONTINUOUS
 10
287.646000
 20
35.943000
 11
287.646000
 21
35.643000
  0
LINE
  8
1
  6
CONTINUOUS
 10
287.646000
 20
36.292000
 11
287.646000
 21
36.593000
  0
LINE
  8
1
  6
CONTINUOUS
 10
287.665000
 20
35.606000
 11
287.627000
 21
35.680000
  0
LINE
  8
1
  6
CONTINUOUS
 10
287.627000
 20
36.630000
 11
287.665000
 21
36.556000
  0
LINE
  8
1
  6
CONTINUOUS
 10
287.477000
 20
35.643000
 11
287.684000
 21
35.643000
  0
LINE
  8
1
  6
CONTINUOUS
 10
286.955000
 20
36.593000
 11
287.684000
 21
36.593000
  0
TEXT
  8
1
  6
CONTINUOUS
 40
0.075000
 10
286.057000
 20
34.606000
  1
0.40
  7
ROMANC
  0
LINE
  8
1
  6
CONTINUOUS
 10
286.444000
 20
34.644000
 11
286.517000
 21
34.644000
  0
LINE
  8
1
  6
CONTINUOUS
 10
287.067000
 20
34.644000
 11
286.917000
 21
34.644000
  0
LINE
  8
1
  6
CONTINUOUS
 10
286.554000
 20
34.663000
 11
286.480000
 21
34.625000
  0
LINE
  8
1
  6
CONTINUOUS
 10
286.880000
 20
34.625000
 11
286.954000
 21
34.663000
  0
LINE
  8
1
  6
CONTINUOUS
 10
286.517000
 20
35.605000
 11
286.517000
 21
34.606000
  0
LINE
  8
1
  6
CONTINUOUS
 10
286.917000
 20
35.605000
 11
286.917000
 21
34.606000
  0
TEXT
  8
1
  6
CONTINUOUS
 40
0.075000
 10
286.331000
 20
37.336000
  1
0.90
  7
ROMANC
  0
LINE
  8
1
  6
CONTINUOUS
 10
286.293000
 20
37.374000
 11
286.017000
 21
37.374000
  0
LINE
  8
1
  6
CONTINUOUS
 10
286.642000
 20
37.374000
 11
286.919000
 21
37.374000
  0
LINE
  8
1
  6
CONTINUOUS
 10
285.980000
 20
37.355000
 11
286.054000
 21
37.393000
  0
LINE
  8
1
  6
CONTINUOUS
 10
286.956000
 20
37.393000
 11
286.882000
 21
37.355000
  0
LINE
  8
1
  6
CONTINUOUS
 10
286.017000
 20
36.633000
 11
286.017000
 21
37.412000
  0
LINE
  8
1
  6
CONTINUOUS
 10
286.919000
 20
36.631000
 11
286.919000
 21
37.412000
  0
ENDSEC
  0
EOF
