  0
SECTION
  2
HEADER
  9
$ACADVER
  1
AC1009
  9
$INSBASE
 10
105.4640269999999
 20
-4.5287610000000003
 30
0.0
  9
$EXTMIN
 10
72.339325989991593
 20
-16.562407798322852
 30
-0.0015258207003583
  9
$EXTMAX
 10
291.89727864914721
 20
44.769302754394282
 30
0.0000000349246037
  9
$LIMMIN
 10
0.0
 20
0.0
  9
$LIMMAX
 10
410.0
 20
287.0
  9
$ORTHOMODE
 70
     1
  9
$REGENMODE
 70
     1
  9
$FILLMODE
 70
     1
  9
$QTEXTMODE
 70
     0
  9
$MIRRTEXT
 70
     1
  9
$DRAGMODE
 70
     2
  9
$LTSCALE
 40
25.0
  9
$OSMODE
 70
    33
  9
$ATTMODE
 70
     1
  9
$TEXTSIZE
 40
0.1
  9
$TRACEWID
 40
1.0
  9
$TEXTSTYLE
  7
ROMANC
  9
$CLAYER
  8
0
  9
$CELTYPE
  6
BYLAYER
  9
$CECOLOR
 62
   256
  9
$DIMSCALE
 40
1.5
  9
$DIMASZ
 40
0.1
  9
$DIMEXO
 40
0.01
  9
$DIMDLI
 40
7.0
  9
$DIMRND
 40
0.0
  9
$DIMDLE
 40
0.0
  9
$DIMEXE
 40
0.01
  9
$DIMTP
 40
0.0
  9
$DIMTM
 40
0.0
  9
$DIMTXT
 40
0.05
  9
$DIMCEN
 40
0.1
  9
$DIMTSZ
 40
0.0
  9
$DIMTOL
 70
     0
  9
$DIMLIM
 70
     0
  9
$DIMTIH
 70
     0
  9
$DIMTOH
 70
     0
  9
$DIMSE1
 70
     0
  9
$DIMSE2
 70
     0
  9
$DIMTAD
 70
     1
  9
$DIMZIN
 70
     0
  9
$DIMBLK
  1

  9
$DIMASO
 70
     1
  9
$DIMSHO
 70
     0
  9
$DIMPOST
  1

  9
$DIMAPOST
  1

  9
$DIMALT
 70
     0
  9
$DIMALTD
 70
     2
  9
$DIMALTF
 40
25.399999999999999
  9
$DIMLFAC
 40
1.0
  9
$DIMTOFL
 70
     1
  9
$DIMTVP
 40
0.0
  9
$DIMTIX
 70
     1
  9
$DIMSOXD
 70
     0
  9
$DIMSAH
 70
     0
  9
$DIMBLK1
  1

  9
$DIMBLK2
  1

  9
$DIMSTYLE
  2
SILVIA
  9
$DIMCLRD
 70
     0
  9
$DIMCLRE
 70
     0
  9
$DIMCLRT
 70
     0
  9
$DIMTFAC
 40
70.0
  9
$DIMGAP
 40
0.09
  9
$LUNITS
 70
     2
  9
$LUPREC
 70
     2
  9
$SKETCHINC
 40
1.0
  9
$FILLETRAD
 40
0.0
  9
$AUNITS
 70
     0
  9
$AUPREC
 70
     0
  9
$MENU
  1
acad
  9
$ELEVATION
 40
0.0
  9
$PELEVATION
 40
0.0
  9
$THICKNESS
 40
0.0
  9
$LIMCHECK
 70
     0
  9
$BLIPMODE
 70
     0
  9
$CHAMFERA
 40
0.0
  9
$CHAMFERB
 40
0.0
  9
$SKPOLY
 70
     0
  9
$TDCREATE
 40
2450128.455238889
  9
$TDUPDATE
 40
2452611.3934768401
  9
$TDINDWG
 40
0.0273994676
  9
$TDUSRTIMER
 40
0.0273989236
  9
$USRTIMER
 70
     1
  9
$ANGBASE
 50
0.0
  9
$ANGDIR
 70
     0
  9
$PDMODE
 70
     0
  9
$PDSIZE
 40
0.0
  9
$PLINEWID
 40
0.0
  9
$COORDS
 70
     1
  9
$SPLFRAME
 70
     0
  9
$SPLINETYPE
 70
     6
  9
$SPLINESEGS
 70
     8
  9
$ATTDIA
 70
     0
  9
$ATTREQ
 70
     1
  9
$HANDLING
 70
 10241
  9
$HANDSEED
  5
16E
  9
$SURFTAB1
 70
     6
  9
$SURFTAB2
 70
     6
  9
$SURFTYPE
 70
     6
  9
$SURFU
 70
     6
  9
$SURFV
 70
     6
  9
$UCSNAME
  2

  9
$UCSORG
 10
0.0
 20
0.0
 30
0.0
  9
$UCSXDIR
 10
1.0
 20
0.0
 30
0.0
  9
$UCSYDIR
 10
0.0
 20
1.0
 30
0.0
  9
$PUCSNAME
  2

  9
$PUCSORG
 10
0.0
 20
0.0
 30
0.0
  9
$PUCSXDIR
 10
1.0
 20
0.0
 30
0.0
  9
$PUCSYDIR
 10
0.0
 20
1.0
 30
0.0
  9
$USERI1
 70
     0
  9
$USERI2
 70
     0
  9
$USERI3
 70
     0
  9
$USERI4
 70
     0
  9
$USERI5
 70
     0
  9
$USERR1
 40
0.0
  9
$USERR2
 40
0.0
  9
$USERR3
 40
0.0
  9
$USERR4
 40
0.0
  9
$USERR5
 40
0.0
  9
$WORLDVIEW
 70
     1
  9
$SHADEDGE
 70
     3
  9
$SHADEDIF
 70
    70
  9
$TILEMODE
 70
     1
  9
$MAXACTVP
 70
    16
  9
$PLIMCHECK
 70
     0
  9
$PEXTMIN
 10
1.0000000000000000E+020
 20
1.0000000000000000E+020
 30
1.0000000000000000E+020
  9
$PEXTMAX
 10
-1.0000000000000000E+020
 20
-1.0000000000000000E+020
 30
-1.0000000000000000E+020
  9
$PLIMMIN
 10
0.0
 20
0.0
  9
$PLIMMAX
 10
12.0
 20
9.0
  9
$UNITMODE
 70
     0
  9
$VISRETAIN
 70
     0
  9
$PLINEGEN
 70
     0
  9
$PSLTSCALE
 70
     0
  0
ENDSEC
  0
SECTION
  2
TABLES
  0
TABLE
  2
VPORT
 70
     3
  0
VPORT
  2
*ACTIVE
 70
     0
 10
0.0
 20
0.0
 11
1.0
 21
1.0
 12
290.87804555856599
 22
37.302830883114751
 13
0.0
 23
0.0
 14
1.0
 24
1.0
 15
10.0
 25
10.0
 16
0.0
 26
0.0
 36
1.0
 17
0.0
 27
0.0
 37
0.0
 40
15.985566008655089
 41
1.5406824146981619
 42
50.0
 43
0.0
 44
0.0
 50
0.0
 51
0.0
 71
     0
 72
   100
 73
     1
 74
     0
 75
     0
 76
     0
 77
     0
 78
     1
  0
ENDTAB
  0
TABLE
  2
LTYPE
 70
     1
  0
LTYPE
  2
CONTINUOUS
 70
     0
  3
Solid line
 72
    65
 73
     0
 40
0.0
  0
ENDTAB
  0
TABLE
  2
LAYER
 70
     4
  0
LAYER
  2
0
 70
     0
 62
     7
  6
CONTINUOUS
  0
LAYER
  2
MESURA
 70
     0
 62
     7
  6
CONTINUOUS
  0
LAYER
  2
DEFPOINTS
 70
     0
 62
     7
  6
CONTINUOUS
  0
LAYER
  2
NO_PRINT
 70
     0
 62
     7
  6
CONTINUOUS
  0
ENDTAB
  0
TABLE
  2
STYLE
 70
     2
  0
STYLE
  2
STANDARD
 70
     0
 40
0.0
 41
1.0
 50
0.0
 71
     0
 42
0.1
  3
txt
  4

  0
STYLE
  2
ROMANC
 70
     0
 40
0.0
 41
1.0
 50
0.0
 71
     0
 42
0.1
  3
romanc
  4

  0
ENDTAB
  0
TABLE
  2
VIEW
 70
     0
  0
ENDTAB
  0
TABLE
  2
UCS
 70
     0
  0
ENDTAB
  0
TABLE
  2
APPID
 70
     1
  0
APPID
  2
ACAD
 70
     0
  0
ENDTAB
  0
TABLE
  2
DIMSTYLE
 70
     1
  0
DIMSTYLE
  2
SILVIA
 70
     0
  3

  4

  5

  6

  7

 40
1.5
 41
0.1
 42
0.01
 43
7.0
 44
0.01
 45
0.0
 46
0.0
 47
0.0
 48
0.0
140
0.05
141
0.1
142
0.0
143
25.399999999999999
144
1.0
145
0.0
146
70.0
147
0.09
 71
     0
 72
     0
 73
     0
 74
     0
 75
     0
 76
     0
 77
     1
 78
     0
170
     0
171
     2
172
     1
173
     0
174
     1
175
     0
176
     0
177
     0
178
     0
  0
ENDTAB
  0
ENDSEC
  0
SECTION
  2
BLOCKS
  0
BLOCK
  8
0
  2
$MODEL_SPACE
 70
     0
 10
0.0
 20
0.0
 30
0.0
  3
$MODEL_SPACE
  1

  0
ENDBLK
  5
20
  8
0
  0
BLOCK
 67
     1
  8
0
  2
$PAPER_SPACE
 70
     0
 10
0.0
 20
0.0
 30
0.0
  3
$PAPER_SPACE
  1

  0
ENDBLK
  5
1C
 67
     1
  8
0
  0
ENDSEC
  0
SECTION
  2
ENTITIES
  0
POLYLINE
  5
29
  8
0
 66
     1
 10
0.0
 20
0.0
 30
0.0
  0
VERTEX
  5
139
  8
0
 10
108.040631
 20
-16.548466999999999
 30
0.0
 42
0.063415
  0
VERTEX
  5
13A
  8
0
 10
108.040631
 20
-16.548466999999999
 30
0.0
  0
SEQEND
  5
13B
  8
0
  0
POLYLINE
  5
2D
  8
0
 66
     1
 10
0.0
 20
0.0
 30
0.0
  0
VERTEX
  5
13C
  8
0
 10
86.286488000000006
 20
-15.036856999999999
 30
0.0
 42
0.22708
  0
VERTEX
  5
13D
  8
0
 10
86.286488000000006
 20
-15.036856999999999
 30
0.0
  0
SEQEND
  5
13E
  8
0
  0
POLYLINE
  5
31
  8
0
 66
     1
 10
0.0
 20
0.0
 30
0.0
  0
VERTEX
  5
13F
  8
0
 10
72.351426000000004
 20
-14.976331
 30
0.0
 42
0.089446
  0
VERTEX
  5
140
  8
0
 10
72.351426000000004
 20
-14.976331
 30
0.0
  0
SEQEND
  5
141
  8
0
  0
POLYLINE
  5
35
  8
0
 66
     1
 10
0.0
 20
0.0
 30
0.0
  0
VERTEX
  5
142
  8
0
 10
97.210523999999992
 20
16.938509
 30
0.0
 42
0.05817
  0
VERTEX
  5
143
  8
0
 10
97.210523999999992
 20
16.938509
 30
0.0
  0
SEQEND
  5
144
  8
0
  0
POLYLINE
  5
39
  8
0
 66
     1
 10
0.0
 20
0.0
 30
0.0
  0
VERTEX
  5
145
  8
0
 10
121.19618800000001
 20
17.602270999999991
 30
0.0
 42
0.156162
  0
VERTEX
  5
146
  8
0
 10
121.19618800000001
 20
17.602270999999991
 30
0.0
  0
SEQEND
  5
147
  8
0
  0
POLYLINE
  5
3D
  8
0
 66
     1
 10
0.0
 20
0.0
 30
0.0
  0
VERTEX
  5
148
  8
0
 10
119.34069599999989
 20
34.532685999999991
 30
0.0
 42
0.283046
  0
VERTEX
  5
149
  8
0
 10
119.34069599999989
 20
34.532685999999991
 30
0.0
  0
SEQEND
  5
14A
  8
0
  0
POLYLINE
  5
41
  8
0
 66
     1
 10
0.0
 20
0.0
 30
0.0
  0
VERTEX
  5
14B
  8
0
 10
157.35963699999999
 20
32.548870000000001
 30
0.0
 42
0.269827
  0
VERTEX
  5
14C
  8
0
 10
157.35963699999999
 20
32.548870000000001
 30
0.0
  0
SEQEND
  5
14D
  8
0
  0
POLYLINE
  5
45
  8
0
 66
     1
 10
0.0
 20
0.0
 30
0.0
  0
VERTEX
  5
14E
  8
0
 10
156.16970199999989
 20
18.299762999999999
 30
0.0
 42
0.066056
  0
VERTEX
  5
14F
  8
0
 10
156.16970199999989
 20
18.299762999999999
 30
0.0
  0
SEQEND
  5
150
  8
0
  0
POLYLINE
  5
49
  8
0
 66
     1
 10
0.0
 20
0.0
 30
0.0
  0
VERTEX
  5
151
  8
0
 10
168.51255399999999
 20
1.4305659999999989
 30
0.0
 42
0.148501
  0
VERTEX
  5
152
  8
0
 10
168.51255399999999
 20
1.4305659999999989
 30
0.0
  0
SEQEND
  5
153
  8
0
  0
POLYLINE
  5
4D
  8
0
 66
     1
 10
0.0
 20
0.0
 30
0.0
  0
VERTEX
  5
154
  8
0
 10
168.68954899999989
 20
33.579487
 30
0.0
 42
0.08626
  0
VERTEX
  5
155
  8
0
 10
168.68954899999989
 20
33.579487
 30
0.0
  0
SEQEND
  5
156
  8
0
  0
POLYLINE
  5
51
  8
0
 66
     1
 10
0.0
 20
0.0
 30
0.0
  0
VERTEX
  5
157
  8
0
 10
180.20961699999989
 20
34.197499000000001
 30
0.0
 42
0.059446
  0
VERTEX
  5
158
  8
0
 10
180.20961699999989
 20
34.197499000000001
 30
0.0
  0
SEQEND
  5
159
  8
0
  0
POLYLINE
  5
55
  8
0
 66
     1
 10
0.0
 20
0.0
 30
0.0
  0
VERTEX
  5
15A
  8
0
 10
168.21349499999999
 20
14.734069
 30
0.0
 42
0.06661
  0
VERTEX
  5
15B
  8
0
 10
168.21349499999999
 20
14.734069
 30
0.0
  0
SEQEND
  5
15C
  8
0
  0
POLYLINE
  5
59
  8
0
 66
     1
 10
0.0
 20
0.0
 30
0.0
  0
VERTEX
  5
15D
  8
0
 10
180.09759
 20
16.643930999999991
 30
0.0
 42
0.165716
  0
VERTEX
  5
15E
  8
0
 10
180.09759
 20
16.643930999999991
 30
0.0
  0
SEQEND
  5
15F
  8
0
  0
POLYLINE
  5
5D
  8
0
 66
     1
 10
0.0
 20
0.0
 30
0.0
  0
VERTEX
  5
160
  8
0
 10
180.349774
 20
-12.199420999999999
 30
0.0
 42
0.098491
  0
VERTEX
  5
161
  8
0
 10
180.349774
 20
-12.199420999999999
 30
0.0
  0
SEQEND
  5
162
  8
0
  0
POLYLINE
  5
61
  8
0
 66
     1
 10
0.0
 20
0.0
 30
0.0
  0
VERTEX
  5
163
  8
0
 10
194.593929
 20
-14.402210999999999
 30
0.0
 42
0.098491
  0
VERTEX
  5
164
  8
0
 10
194.593929
 20
-14.402210999999999
 30
0.0
  0
SEQEND
  5
165
  8
0
  0
POLYLINE
  5
65
  8
0
 66
     1
 10
0.0
 20
0.0
 30
0.0
  0
VERTEX
  5
166
  8
0
 10
192.0913909999999
 20
16.821985999999988
 30
0.0
 42
0.129253
  0
VERTEX
  5
167
  8
0
 10
192.0913909999999
 20
16.821985999999988
 30
0.0
  0
SEQEND
  5
168
  8
0
  0
TEXT
  5
6A
  8
0
 10
284.55858451996488
 20
41.357555635183218
 30
0.0
 40
0.3
  1
P = 44.2 dm
  7
ROMANC
  0
TEXT
  5
6E
  8
0
 10
287.79300951996493
 20
42.361050635183219
 30
0.0
 40
0.1
  1
2
  7
ROMANC
  0
TEXT
  5
6F
  8
0
 10
284.59650651996492
 20
42.653724635183231
 30
0.0
 40
0.3
  1
ESCALA  1:50
  7
ROMANC
  0
TEXT
  5
70
  8
0
 10
284.59650651996492
 20
43.139438635183232
 30
0.0
 40
0.3
  1
TIPUS   NT129A
  7
ROMANC
  0
TEXT
  5
71
  8
0
 10
284.60960051996489
 20
42.055134635183222
 30
0.0
 40
0.3
  1
S = 129 dm
  7
ROMANC
  0
LINE
  5
72
  8
0
 10
286.62782265526562
 20
37.10683169542996
 30
0.0
 11
286.55901465526563
 21
36.32701169542996
 31
0.0
  0
LINE
  5
73
  8
0
 10
286.55901465526563
 20
36.32701169542996
 30
0.0
 11
286.33479065526569
 21
36.32701169542996
 31
0.0
  0
ARC
  5
74
  8
0
 10
286.11570165526558
 20
36.347011695429948
 30
0.0
 40
0.22
 50
337.5
 51
354.78409099999999
  0
ARC
  5
75
  8
0
 10
286.11570165526558
 20
36.347011695429948
 30
0.0
 40
0.22
 50
315.0
 51
337.5
  0
ARC
  5
76
  8
0
 10
286.11570165526558
 20
36.347011695429948
 30
0.0
 40
0.22
 50
292.5
 51
315.0
  0
ARC
  5
77
  8
0
 10
286.11570165526558
 20
36.347011695429948
 30
0.0
 40
0.22
 50
270.0
 51
292.5
  0
ARC
  5
78
  8
0
 10
286.11570165526558
 20
36.347011695429948
 30
0.0
 40
0.22
 50
247.5
 51
270.0
  0
ARC
  5
79
  8
0
 10
286.11570165526558
 20
36.347011695429948
 30
0.0
 40
0.22
 50
225.0
 51
247.5
  0
ARC
  5
7A
  8
0
 10
286.11570165526558
 20
36.347011695429948
 30
0.0
 40
0.22
 50
202.49999999999989
 51
225.0
  0
ARC
  5
7B
  8
0
 10
286.11570165526558
 20
36.347011695429948
 30
0.0
 40
0.22
 50
185.21590900000001
 51
202.49999999999989
  0
LINE
  5
7C
  8
0
 10
285.89661265526559
 20
36.32701169542996
 30
0.0
 11
285.67238865526559
 21
36.32701169542996
 31
0.0
  0
LINE
  5
7D
  8
0
 10
285.67238865526559
 20
36.32701169542996
 30
0.0
 11
285.5957026552656
 21
37.196122695429963
 31
0.0
  0
ARC
  5
7E
  8
0
 10
286.11570165526558
 20
37.19701169542995
 30
0.0
 40
0.5200000000000001
 50
157.5
 51
180.097982
  0
ARC
  5
7F
  8
0
 10
286.11570165526558
 20
37.19701169542995
 30
0.0
 40
0.5200000000000001
 50
135.0
 51
157.5
  0
ARC
  5
80
  8
0
 10
286.11570165526558
 20
37.19701169542995
 30
0.0
 40
0.5200000000000001
 50
112.5
 51
135.0
  0
ARC
  5
81
  8
0
 10
286.11570165526558
 20
37.19701169542995
 30
0.0
 40
0.5200000000000001
 50
90.0
 51
112.5
  0
ARC
  5
82
  8
0
 10
286.11570165526558
 20
37.19701169542995
 30
0.0
 40
0.5200000000000001
 50
67.5
 51
90.0
  0
ARC
  5
83
  8
0
 10
286.11570165526558
 20
37.19701169542995
 30
0.0
 40
0.5200000000000001
 50
45.0
 51
67.5
  0
ARC
  5
84
  8
0
 10
286.11570165526558
 20
37.19701169542995
 30
0.0
 40
0.5200000000000001
 50
22.5
 51
45.0
  0
ARC
  5
85
  8
0
 10
286.11570165526558
 20
37.19701169542995
 30
0.0
 40
0.5200000000000001
 50
0.0
 51
22.5
  0
ARC
  5
86
  8
0
 10
286.11570165526558
 20
37.19701169542995
 30
0.0
 40
0.5200000000000001
 50
350.01307999999989
 51
0.0
  0
LINE
  5
87
  8
0
 10
286.61789965526572
 20
37.108142695429947
 30
0.0
 11
286.54985865526561
 21
36.33701169542995
 31
0.0
  0
LINE
  5
88
  8
0
 10
286.54985865526561
 20
36.33701169542995
 30
0.0
 11
286.32546365526559
 21
36.33701169542995
 31
0.0
  0
ARC
  5
89
  8
0
 10
286.11570165526558
 20
36.347011695429948
 30
0.0
 40
0.21
 50
337.5
 51
357.27059700000001
  0
ARC
  5
8A
  8
0
 10
286.11570165526558
 20
36.347011695429948
 30
0.0
 40
0.21
 50
315.0
 51
337.5
  0
ARC
  5
8B
  8
0
 10
286.11570165526558
 20
36.347011695429948
 30
0.0
 40
0.21
 50
292.5
 51
315.0
  0
ARC
  5
8C
  8
0
 10
286.11570165526558
 20
36.347011695429948
 30
0.0
 40
0.21
 50
270.0
 51
292.5
  0
ARC
  5
8D
  8
0
 10
286.11570165526558
 20
36.347011695429948
 30
0.0
 40
0.21
 50
247.5
 51
270.0
  0
ARC
  5
8E
  8
0
 10
286.11570165526558
 20
36.347011695429948
 30
0.0
 40
0.21
 50
225.0
 51
247.5
  0
ARC
  5
8F
  8
0
 10
286.11570165526558
 20
36.347011695429948
 30
0.0
 40
0.21
 50
202.49999999999989
 51
225.0
  0
ARC
  5
90
  8
0
 10
286.11570165526558
 20
36.347011695429948
 30
0.0
 40
0.21
 50
182.72940299999999
 51
202.49999999999989
  0
LINE
  5
91
  8
0
 10
285.90594065526562
 20
36.33701169542995
 30
0.0
 11
285.68154565526572
 21
36.33701169542995
 31
0.0
  0
LINE
  5
92
  8
0
 10
285.68154565526572
 20
36.33701169542995
 30
0.0
 11
285.6057026552657
 21
37.19656969542995
 31
0.0
  0
ARC
  5
93
  8
0
 10
286.11570165526558
 20
37.19701169542995
 30
0.0
 40
0.51
 50
157.5
 51
180.04971199999989
  0
ARC
  5
94
  8
0
 10
286.11570165526558
 20
37.19701169542995
 30
0.0
 40
0.51
 50
135.0
 51
157.5
  0
ARC
  5
95
  8
0
 10
286.11570165526558
 20
37.19701169542995
 30
0.0
 40
0.51
 50
112.5
 51
135.0
  0
ARC
  5
96
  8
0
 10
286.11570165526558
 20
37.19701169542995
 30
0.0
 40
0.51
 50
90.0
 51
112.5
  0
ARC
  5
97
  8
0
 10
286.11570165526558
 20
37.19701169542995
 30
0.0
 40
0.51
 50
67.5
 51
90.0
  0
ARC
  5
98
  8
0
 10
286.11570165526558
 20
37.19701169542995
 30
0.0
 40
0.51
 50
45.0
 51
67.5
  0
ARC
  5
99
  8
0
 10
286.11570165526558
 20
37.19701169542995
 30
0.0
 40
0.51
 50
22.5
 51
45.0
  0
ARC
  5
9A
  8
0
 10
286.11570165526558
 20
37.19701169542995
 30
0.0
 40
0.51
 50
0.0
 51
22.5
  0
ARC
  5
9B
  8
0
 10
286.11570165526558
 20
37.19701169542995
 30
0.0
 40
0.51
 50
349.96480999999989
 51
0.0
  0
LINE
  5
9C
  8
0
 10
286.61570165526558
 20
37.19701169542995
 30
0.0
 11
286.54070165526571
 21
36.347011695429948
 31
0.0
  0
LINE
  5
9D
  8
0
 10
286.54070165526571
 20
36.347011695429948
 30
0.0
 11
286.31570165526563
 21
36.347011695429948
 31
0.0
  0
ARC
  5
9E
  8
0
 10
286.11570165526558
 20
36.347011695429948
 30
0.0
 40
0.2
 50
337.5
 51
0.0
  0
ARC
  5
9F
  8
0
 10
286.11570165526558
 20
36.347011695429948
 30
0.0
 40
0.2
 50
315.0
 51
337.5
  0
ARC
  5
A0
  8
0
 10
286.11570165526558
 20
36.347011695429948
 30
0.0
 40
0.2
 50
292.5
 51
315.0
  0
ARC
  5
A1
  8
0
 10
286.11570165526558
 20
36.347011695429948
 30
0.0
 40
0.2
 50
270.0
 51
292.5
  0
ARC
  5
A2
  8
0
 10
286.11570165526558
 20
36.347011695429948
 30
0.0
 40
0.2
 50
247.5
 51
270.0
  0
ARC
  5
A3
  8
0
 10
286.11570165526558
 20
36.347011695429948
 30
0.0
 40
0.2
 50
225.0
 51
247.5
  0
ARC
  5
A4
  8
0
 10
286.11570165526558
 20
36.347011695429948
 30
0.0
 40
0.2
 50
202.49999999999989
 51
225.0
  0
ARC
  5
A5
  8
0
 10
286.11570165526558
 20
36.347011695429948
 30
0.0
 40
0.2
 50
180.0
 51
202.49999999999989
  0
LINE
  5
A6
  8
0
 10
285.91570165526571
 20
36.347011695429948
 30
0.0
 11
285.69070165526568
 21
36.347011695429948
 31
0.0
  0
LINE
  5
A7
  8
0
 10
285.69070165526568
 20
36.347011695429948
 30
0.0
 11
285.6157016552657
 21
37.19701169542995
 31
0.0
  0
ARC
  5
A8
  8
0
 10
286.11570165526558
 20
37.19701169542995
 30
0.0
 40
0.5
 50
157.5
 51
180.0
  0
ARC
  5
A9
  8
0
 10
286.11570165526558
 20
37.19701169542995
 30
0.0
 40
0.5
 50
135.0
 51
157.5
  0
ARC
  5
AA
  8
0
 10
286.11570165526558
 20
37.19701169542995
 30
0.0
 40
0.5
 50
112.5
 51
135.0
  0
ARC
  5
AB
  8
0
 10
286.11570165526558
 20
37.19701169542995
 30
0.0
 40
0.5
 50
90.0
 51
112.5
  0
ARC
  5
AC
  8
0
 10
286.11570165526558
 20
37.19701169542995
 30
0.0
 40
0.5
 50
67.5
 51
90.0
  0
ARC
  5
AD
  8
0
 10
286.11570165526558
 20
37.19701169542995
 30
0.0
 40
0.5
 50
45.0
 51
67.5
  0
ARC
  5
AE
  8
0
 10
286.11570165526558
 20
37.19701169542995
 30
0.0
 40
0.5
 50
22.5
 51
45.0
  0
ARC
  5
AF
  8
0
 10
286.11570165526558
 20
37.19701169542995
 30
0.0
 40
0.5
 50
0.0
 51
22.5
  0
ARC
  5
B0
  8
0
 10
286.11570165526558
 20
37.19701169542995
 30
0.0
 40
0.5
 50
349.915098
 51
0.0
  0
LINE
  5
B1
  8
0
  6
BYBLOCK
 62
     0
 10
285.6157016552657
 20
37.21201169542995
 30
0.0
 11
285.6157016552657
 21
38.076741695429959
 31
0.0
  0
LINE
  5
B2
  8
0
  6
BYBLOCK
 62
     0
 10
286.61570165526558
 20
37.21201169542995
 30
0.0
 11
286.61570165526558
 21
38.076741695429959
 31
0.0
  0
LINE
  5
B3
  8
0
  6
BYBLOCK
 62
     0
 10
285.76570165526567
 20
38.061741695429959
 30
0.0
 11
286.46570165526572
 21
38.061741695429959
 31
0.0
  0
SOLID
  5
B4
  8
0
  6
BYBLOCK
 62
     0
 10
285.76570165526567
 20
38.086741695429957
 30
0.0
 11
285.76570165526567
 21
38.036741695429953
 31
0.0
 12
285.6157016552657
 22
38.061741695429959
 32
0.0
 13
285.6157016552657
 23
38.061741695429959
 33
0.0
  0
SOLID
  5
B5
  8
0
  6
BYBLOCK
 62
     0
 10
286.46570165526572
 20
38.086741695429957
 30
0.0
 11
286.46570165526572
 21
38.036741695429953
 31
0.0
 12
286.61570165526558
 22
38.061741695429959
 32
0.0
 13
286.61570165526558
 23
38.061741695429959
 33
0.0
  0
TEXT
  5
B6
  8
0
  6
BYBLOCK
 62
     0
 10
285.99605879812282
 20
38.09924169542996
 30
0.0
 40
0.075
  1
1.00
  7
ROMANC
 72
     1
 11
286.11570165526558
 21
38.136741695429961
 31
0.0
 73
     2
  0
POINT
  5
B7
  8
DEFPOINTS
  6
BYBLOCK
 62
     0
 10
285.6157016552657
 20
37.19701169542995
 30
0.0
  0
POINT
  5
B8
  8
DEFPOINTS
  6
BYBLOCK
 62
     0
 10
286.61570165526558
 20
37.19701169542995
 30
0.0
  0
POINT
  5
B9
  8
DEFPOINTS
  6
BYBLOCK
 62
     0
 10
286.61570165526558
 20
38.061741695429959
 30
0.0
  0
LINE
  5
BA
  8
0
  6
BYBLOCK
 62
     0
 10
286.23598565526561
 20
37.685801695429959
 30
0.0
 11
287.19117265526569
 21
37.685801695429959
 31
0.0
  0
LINE
  5
BB
  8
0
  6
BYBLOCK
 62
     0
 10
286.85839365526562
 20
36.153122695429957
 30
0.0
 11
287.19117265526569
 21
36.153122695429957
 31
0.0
  0
LINE
  5
BC
  8
0
  6
BYBLOCK
 62
     0
 10
287.1761726552657
 20
37.53580169542996
 30
0.0
 11
287.1761726552657
 21
36.303122695429963
 31
0.0
  0
SOLID
  5
BD
  8
0
  6
BYBLOCK
 62
     0
 10
287.15117265526573
 20
37.53580169542996
 30
0.0
 11
287.20117265526562
 21
37.53580169542996
 31
0.0
 12
287.1761726552657
 22
37.685801695429959
 32
0.0
 13
287.1761726552657
 23
37.685801695429959
 33
0.0
  0
SOLID
  5
BE
  8
0
  6
BYBLOCK
 62
     0
 10
287.15117265526573
 20
36.303122695429963
 30
0.0
 11
287.20117265526562
 21
36.303122695429963
 31
0.0
 12
287.1761726552657
 22
36.153122695429957
 32
0.0
 13
287.1761726552657
 23
36.153122695429957
 33
0.0
  0
TEXT
  5
BF
  8
0
  6
BYBLOCK
 62
     0
 10
287.13867265526568
 20
36.799818838287102
 30
0.0
 40
0.075
  1
1.55
 50
90.0
  7
ROMANC
 72
     1
 11
287.10117265526571
 21
36.919461695429959
 31
0.0
 73
     2
  0
POINT
  5
C0
  8
DEFPOINTS
  6
BYBLOCK
 62
     0
 10
286.22098565526562
 20
37.685801695429959
 30
0.0
  0
POINT
  5
C1
  8
DEFPOINTS
  6
BYBLOCK
 62
     0
 10
286.84339365526557
 20
36.153122695429957
 30
0.0
  0
POINT
  5
C2
  8
DEFPOINTS
  6
BYBLOCK
 62
     0
 10
287.1761726552657
 20
36.153122695429957
 30
0.0
  0
LINE
  5
C3
  8
0
  6
BYBLOCK
 62
     0
 10
286.55570165526558
 20
36.347011695429948
 30
0.0
 11
286.85839365526562
 21
36.347011695429948
 31
0.0
  0
LINE
  5
C4
  8
0
  6
BYBLOCK
 62
     0
 10
286.12531665526569
 20
36.153122695429957
 30
0.0
 11
286.85839365526562
 21
36.153122695429957
 31
0.0
  0
LINE
  5
C5
  8
0
  6
BYBLOCK
 62
     0
 10
286.84339365526557
 20
36.497011695429947
 30
0.0
 11
286.84339365526557
 21
36.64701169542996
 31
0.0
  0
LINE
  5
C6
  8
0
  6
BYBLOCK
 62
     0
 10
286.84339365526557
 20
36.003122695429958
 30
0.0
 11
286.84339365526557
 21
35.853122695429953
 31
0.0
  0
SOLID
  5
C7
  8
0
  6
BYBLOCK
 62
     0
 10
286.81839365526571
 20
36.497011695429947
 30
0.0
 11
286.86839365526561
 21
36.497011695429947
 31
0.0
 12
286.84339365526557
 22
36.347011695429948
 32
0.0
 13
286.84339365526557
 23
36.347011695429948
 33
0.0
  0
SOLID
  5
C8
  8
0
  6
BYBLOCK
 62
     0
 10
286.81839365526571
 20
36.003122695429958
 30
0.0
 11
286.86839365526561
 21
36.003122695429958
 31
0.0
 12
286.84339365526557
 22
36.153122695429957
 32
0.0
 13
286.84339365526557
 23
36.153122695429957
 33
0.0
  0
LINE
  5
C9
  8
0
  6
BYBLOCK
 62
     0
 10
286.84339365526557
 20
36.347011695429948
 30
0.0
 11
286.84339365526557
 21
36.153122695429957
 31
0.0
  0
TEXT
  5
CA
  8
0
  6
BYBLOCK
 62
     0
 10
286.80589365526572
 20
36.160780981144242
 30
0.0
 40
0.075
  1
0.2
 50
90.0
  7
ROMANC
 72
     1
 11
286.7683936552657
 21
36.250066695429958
 31
0.0
 73
     2
  0
POINT
  5
CB
  8
DEFPOINTS
  6
BYBLOCK
 62
     0
 10
286.54070165526571
 20
36.347011695429948
 30
0.0
  0
POINT
  5
CC
  8
DEFPOINTS
  6
BYBLOCK
 62
     0
 10
286.11031665526559
 20
36.153122695429957
 30
0.0
  0
POINT
  5
CD
  8
DEFPOINTS
  6
BYBLOCK
 62
     0
 10
286.84339365526557
 20
36.153122695429957
 30
0.0
  0
LINE
  5
CE
  8
0
  6
BYBLOCK
 62
     0
 10
286.63070165526563
 20
37.19701169542995
 30
0.0
 11
286.85839365526562
 21
37.19701169542995
 31
0.0
  0
LINE
  5
CF
  8
0
  6
BYBLOCK
 62
     0
 10
286.55570165526558
 20
36.347011695429948
 30
0.0
 11
286.85839365526562
 21
36.347011695429948
 31
0.0
  0
LINE
  5
D0
  8
0
  6
BYBLOCK
 62
     0
 10
286.84339365526557
 20
37.047011695429958
 30
0.0
 11
286.84339365526557
 21
36.497011695429947
 31
0.0
  0
SOLID
  5
D1
  8
0
  6
BYBLOCK
 62
     0
 10
286.81839365526571
 20
37.047011695429958
 30
0.0
 11
286.86839365526561
 21
37.047011695429958
 31
0.0
 12
286.84339365526557
 22
37.19701169542995
 32
0.0
 13
286.84339365526557
 23
37.19701169542995
 33
0.0
  0
SOLID
  5
D2
  8
0
  6
BYBLOCK
 62
     0
 10
286.81839365526571
 20
36.497011695429947
 30
0.0
 11
286.86839365526561
 21
36.497011695429947
 31
0.0
 12
286.84339365526557
 22
36.347011695429948
 32
0.0
 13
286.84339365526557
 23
36.347011695429948
 33
0.0
  0
TEXT
  5
D3
  8
0
  6
BYBLOCK
 62
     0
 10
286.80589365526572
 20
36.64701169542996
 30
0.0
 40
0.075
  1
0.85
 50
90.0
  7
ROMANC
 72
     1
 11
286.7683936552657
 21
36.77201169542996
 31
0.0
 73
     2
  0
POINT
  5
D4
  8
DEFPOINTS
  6
BYBLOCK
 62
     0
 10
286.61570165526558
 20
37.19701169542995
 30
0.0
  0
POINT
  5
D5
  8
DEFPOINTS
  6
BYBLOCK
 62
     0
 10
286.54070165526571
 20
36.347011695429948
 30
0.0
  0
POINT
  5
D6
  8
DEFPOINTS
  6
BYBLOCK
 62
     0
 10
286.84339365526557
 20
36.347011695429948
 30
0.0
  0
LINE
  5
D7
  8
0
  6
BYBLOCK
 62
     0
 10
286.12049265526559
 20
37.685801695429959
 30
0.0
 11
286.85839365526562
 21
37.685801695429959
 31
0.0
  0
LINE
  5
D8
  8
0
  6
BYBLOCK
 62
     0
 10
286.63070165526563
 20
37.19701169542995
 30
0.0
 11
286.85839365526562
 21
37.19701169542995
 31
0.0
  0
LINE
  5
D9
  8
0
  6
BYBLOCK
 62
     0
 10
286.84339365526557
 20
37.83580169542995
 30
0.0
 11
286.84339365526557
 21
37.985801695429963
 31
0.0
  0
LINE
  5
DA
  8
0
  6
BYBLOCK
 62
     0
 10
286.84339365526557
 20
37.047011695429958
 30
0.0
 11
286.84339365526557
 21
36.897011695429953
 31
0.0
  0
SOLID
  5
DB
  8
0
  6
BYBLOCK
 62
     0
 10
286.81839365526571
 20
37.83580169542995
 30
0.0
 11
286.86839365526561
 21
37.83580169542995
 31
0.0
 12
286.84339365526557
 22
37.685801695429959
 32
0.0
 13
286.84339365526557
 23
37.685801695429959
 33
0.0
  0
SOLID
  5
DC
  8
0
  6
BYBLOCK
 62
     0
 10
286.81839365526571
 20
37.047011695429958
 30
0.0
 11
286.86839365526561
 21
37.047011695429958
 31
0.0
 12
286.84339365526557
 22
37.19701169542995
 32
0.0
 13
286.84339365526557
 23
37.19701169542995
 33
0.0
  0
LINE
  5
DD
  8
0
  6
BYBLOCK
 62
     0
 10
286.84339365526557
 20
37.685801695429959
 30
0.0
 11
286.84339365526557
 21
37.19701169542995
 31
0.0
  0
TEXT
  5
DE
  8
0
  6
BYBLOCK
 62
     0
 10
286.80589365526572
 20
37.352120981144239
 30
0.0
 40
0.075
  1
0.5
 50
90.0
  7
ROMANC
 72
     1
 11
286.7683936552657
 21
37.441406695429961
 31
0.0
 73
     2
  0
POINT
  5
DF
  8
DEFPOINTS
  6
BYBLOCK
 62
     0
 10
286.10549265526561
 20
37.685801695429959
 30
0.0
  0
POINT
  5
E0
  8
DEFPOINTS
  6
BYBLOCK
 62
     0
 10
286.61570165526558
 20
37.19701169542995
 30
0.0
  0
POINT
  5
E1
  8
DEFPOINTS
  6
BYBLOCK
 62
     0
 10
286.84339365526557
 20
37.19701169542995
 30
0.0
  0
LINE
  5
E2
  8
0
  6
BYBLOCK
 62
     0
 10
285.69070165526568
 20
36.332011695429948
 30
0.0
 11
285.69070165526568
 21
35.675426695429962
 31
0.0
  0
LINE
  5
E3
  8
0
  6
BYBLOCK
 62
     0
 10
286.54070165526571
 20
36.332011695429948
 30
0.0
 11
286.54070165526571
 21
35.675426695429962
 31
0.0
  0
LINE
  5
E4
  8
0
  6
BYBLOCK
 62
     0
 10
285.84070165526572
 20
35.690426695429949
 30
0.0
 11
286.39070165526567
 21
35.690426695429949
 31
0.0
  0
SOLID
  5
E5
  8
0
  6
BYBLOCK
 62
     0
 10
285.84070165526572
 20
35.715426695429962
 30
0.0
 11
285.84070165526572
 21
35.66542669542995
 31
0.0
 12
285.69070165526568
 22
35.690426695429949
 32
0.0
 13
285.69070165526568
 23
35.690426695429949
 33
0.0
  0
SOLID
  5
E6
  8
0
  6
BYBLOCK
 62
     0
 10
286.39070165526567
 20
35.715426695429962
 30
0.0
 11
286.39070165526567
 21
35.66542669542995
 31
0.0
 12
286.54070165526571
 22
35.690426695429949
 32
0.0
 13
286.54070165526571
 23
35.690426695429949
 33
0.0
  0
TEXT
  5
E7
  8
0
  6
BYBLOCK
 62
     0
 10
285.9907016552657
 20
35.72792669542995
 30
0.0
 40
0.075
  1
0.85
  7
ROMANC
 72
     1
 11
286.11570165526558
 21
35.765426695429959
 31
0.0
 73
     2
  0
POINT
  5
E8
  8
DEFPOINTS
  6
BYBLOCK
 62
     0
 10
285.69070165526568
 20
36.347011695429948
 30
0.0
  0
POINT
  5
E9
  8
DEFPOINTS
  6
BYBLOCK
 62
     0
 10
286.54070165526571
 20
36.347011695429948
 30
0.0
  0
POINT
  5
EA
  8
DEFPOINTS
  6
BYBLOCK
 62
     0
 10
286.54070165526571
 20
35.690426695429949
 30
0.0
  0
LINE
  5
EB
  8
0
  6
BYBLOCK
 62
     0
 10
285.91570165526571
 20
36.332011695429948
 30
0.0
 11
285.91570165526571
 21
35.979070695429961
 31
0.0
  0
LINE
  5
EC
  8
0
  6
BYBLOCK
 62
     0
 10
286.31570165526563
 20
36.332011695429948
 30
0.0
 11
286.31570165526563
 21
35.979070695429961
 31
0.0
  0
LINE
  5
ED
  8
0
  6
BYBLOCK
 62
     0
 10
285.76570165526567
 20
35.994070695429961
 30
0.0
 11
285.6157016552657
 21
35.994070695429961
 31
0.0
  0
LINE
  5
EE
  8
0
  6
BYBLOCK
 62
     0
 10
286.46570165526572
 20
35.994070695429961
 30
0.0
 11
286.61570165526558
 21
35.994070695429961
 31
0.0
  0
SOLID
  5
EF
  8
0
  6
BYBLOCK
 62
     0
 10
285.76570165526567
 20
36.019070695429953
 30
0.0
 11
285.76570165526567
 21
35.969070695429963
 31
0.0
 12
285.91570165526571
 22
35.994070695429961
 32
0.0
 13
285.91570165526571
 23
35.994070695429961
 33
0.0
  0
SOLID
  5
F0
  8
0
  6
BYBLOCK
 62
     0
 10
286.46570165526572
 20
36.019070695429953
 30
0.0
 11
286.46570165526572
 21
35.969070695429963
 31
0.0
 12
286.31570165526563
 22
35.994070695429961
 32
0.0
 13
286.31570165526563
 23
35.994070695429961
 33
0.0
  0
LINE
  5
F1
  8
0
  6
BYBLOCK
 62
     0
 10
285.91570165526571
 20
35.994070695429961
 30
0.0
 11
286.31570165526563
 21
35.994070695429961
 31
0.0
  0
TEXT
  5
F2
  8
0
  6
BYBLOCK
 62
     0
 10
285.9907016552657
 20
36.031570695429949
 30
0.0
 40
0.075
  1
0.40
  7
ROMANC
 72
     1
 11
286.11570165526558
 21
36.06907069542995
 31
0.0
 73
     2
  0
POINT
  5
F3
  8
DEFPOINTS
  6
BYBLOCK
 62
     0
 10
285.91570165526571
 20
36.347011695429948
 30
0.0
  0
POINT
  5
F4
  8
DEFPOINTS
  6
BYBLOCK
 62
     0
 10
286.31570165526563
 20
36.347011695429948
 30
0.0
  0
POINT
  5
F5
  8
DEFPOINTS
  6
BYBLOCK
 62
     0
 10
286.31570165526563
 20
35.994070695429961
 30
0.0
  0
ARC
  5
F6
  8
0
 10
286.11570165526558
 20
37.19701169542995
 30
0.0
 40
0.5
 50
180.0
 51
190.084902
  0
POLYLINE
  5
F9
  8
NO_PRINT
 66
     1
 10
0.0
 20
0.0
 30
0.0
 70
     1
  0
VERTEX
  5
169
  8
NO_PRINT
 10
281.39579500000002
 20
29.897444
 30
0.0
  0
VERTEX
  5
16A
  8
NO_PRINT
 10
291.89579500000002
 20
29.897444
 30
0.0
  0
VERTEX
  5
16B
  8
NO_PRINT
 10
291.89579500000002
 20
44.747444000000002
 30
0.0
  0
VERTEX
  5
16C
  8
NO_PRINT
 10
281.39579500000002
 20
44.747444000000002
 30
0.0
  0
SEQEND
  5
16D
  8
NO_PRINT
  0
ENDSEC
  0
EOF
