  0
SECTION
  2
HEADER
  9
$ACADVER
  1
AC1009
  9
$INSBASE
 10
92.624909
 20
11.989228
 30
0.0
  9
$EXTMIN
 10
92.624909
 20
11.989228
 30
0.0
  9
$EXTMAX
 10
103.124909
 20
26.839228
 30
0.0
  9
$LIMMIN
 10
0.0
 20
0.0
  9
$LIMMAX
 10
410.0
 20
287.0
  9
$ORTHOMODE
 70
     0
  9
$REGENMODE
 70
     1
  9
$FILLMODE
 70
     1
  9
$QTEXTMODE
 70
     0
  9
$MIRRTEXT
 70
     1
  9
$DRAGMODE
 70
     2
  9
$LTSCALE
 40
25.0
  9
$OSMODE
 70
    32
  9
$ATTMODE
 70
     1
  9
$TEXTSIZE
 40
0.1
  9
$TRACEWID
 40
1.0
  9
$TEXTSTYLE
  7
ROMANC
  9
$CLAYER
  8
0
  9
$CELTYPE
  6
BYLAYER
  9
$CECOLOR
 62
   256
  9
$DIMSCALE
 40
0.0
  9
$DIMASZ
 40
0.0
  9
$DIMEXO
 40
0.1
  9
$DIMDLI
 40
7.0
  9
$DIMRND
 40
0.0
  9
$DIMDLE
 40
0.0
  9
$DIMEXE
 40
1.8
  9
$DIMTP
 40
0.0
  9
$DIMTM
 40
0.0
  9
$DIMTXT
 40
0.03
  9
$DIMCEN
 40
1.5
  9
$DIMTSZ
 40
1.0
  9
$DIMTOL
 70
     0
  9
$DIMLIM
 70
     0
  9
$DIMTIH
 70
     0
  9
$DIMTOH
 70
     0
  9
$DIMSE1
 70
     0
  9
$DIMSE2
 70
     0
  9
$DIMTAD
 70
     0
  9
$DIMZIN
 70
     0
  9
$DIMBLK
  1

  9
$DIMASO
 70
     1
  9
$DIMSHO
 70
     0
  9
$DIMPOST
  1

  9
$DIMAPOST
  1

  9
$DIMALT
 70
     0
  9
$DIMALTD
 70
     2
  9
$DIMALTF
 40
25.4
  9
$DIMLFAC
 40
1.0
  9
$DIMTOFL
 70
     1
  9
$DIMTVP
 40
0.0
  9
$DIMTIX
 70
     1
  9
$DIMSOXD
 70
     0
  9
$DIMSAH
 70
     0
  9
$DIMBLK1
  1

  9
$DIMBLK2
  1

  9
$DIMSTYLE
  2
*UNNAMED
  9
$DIMCLRD
 70
     0
  9
$DIMCLRE
 70
     0
  9
$DIMCLRT
 70
     0
  9
$DIMTFAC
 40
116.666667
  9
$DIMGAP
 40
0.09
  9
$LUNITS
 70
     2
  9
$LUPREC
 70
     2
  9
$SKETCHINC
 40
1.0
  9
$FILLETRAD
 40
0.0
  9
$AUNITS
 70
     0
  9
$AUPREC
 70
     0
  9
$MENU
  1
acad
  9
$ELEVATION
 40
0.0
  9
$PELEVATION
 40
0.0
  9
$THICKNESS
 40
0.0
  9
$LIMCHECK
 70
     0
  9
$BLIPMODE
 70
     0
  9
$CHAMFERA
 40
0.0
  9
$CHAMFERB
 40
0.0
  9
$SKPOLY
 70
     0
  9
$TDCREATE
 40
2449967.566216319
  9
$TDUPDATE
 40
2450623.585391898
  9
$TDINDWG
 40
0.0126590278
  9
$TDUSRTIMER
 40
0.0126590278
  9
$USRTIMER
 70
     1
  9
$ANGBASE
 50
0.0
  9
$ANGDIR
 70
     0
  9
$PDMODE
 70
     0
  9
$PDSIZE
 40
0.0
  9
$PLINEWID
 40
0.0
  9
$COORDS
 70
     2
  9
$SPLFRAME
 70
     0
  9
$SPLINETYPE
 70
     6
  9
$SPLINESEGS
 70
     8
  9
$ATTDIA
 70
     0
  9
$ATTREQ
 70
     1
  9
$HANDLING
 70
     0
  9
$HANDSEED
  5
0
  9
$SURFTAB1
 70
     6
  9
$SURFTAB2
 70
     6
  9
$SURFTYPE
 70
     6
  9
$SURFU
 70
     6
  9
$SURFV
 70
     6
  9
$UCSNAME
  2

  9
$UCSORG
 10
0.0
 20
0.0
 30
0.0
  9
$UCSXDIR
 10
1.0
 20
0.0
 30
0.0
  9
$UCSYDIR
 10
0.0
 20
1.0
 30
0.0
  9
$PUCSNAME
  2

  9
$PUCSORG
 10
0.0
 20
0.0
 30
0.0
  9
$PUCSXDIR
 10
1.0
 20
0.0
 30
0.0
  9
$PUCSYDIR
 10
0.0
 20
1.0
 30
0.0
  9
$USERI1
 70
     0
  9
$USERI2
 70
     0
  9
$USERI3
 70
     0
  9
$USERI4
 70
     0
  9
$USERI5
 70
     0
  9
$USERR1
 40
0.0
  9
$USERR2
 40
0.0
  9
$USERR3
 40
0.0
  9
$USERR4
 40
0.0
  9
$USERR5
 40
0.0
  9
$WORLDVIEW
 70
     1
  9
$SHADEDGE
 70
     3
  9
$SHADEDIF
 70
    70
  9
$TILEMODE
 70
     1
  9
$MAXACTVP
 70
    16
  9
$PINSBASE
 10
0.0
 20
0.0
 30
0.0
  9
$PLIMCHECK
 70
     0
  9
$PEXTMIN
 10
1.000000E+20
 20
1.000000E+20
 30
1.000000E+20
  9
$PEXTMAX
 10
-1.000000E+20
 20
-1.000000E+20
 30
-1.000000E+20
  9
$PLIMMIN
 10
0.0
 20
0.0
  9
$PLIMMAX
 10
12.0
 20
9.0
  9
$UNITMODE
 70
     0
  9
$VISRETAIN
 70
     0
  9
$PLINEGEN
 70
     0
  9
$PSLTSCALE
 70
     0
  9
$TREEDEPTH
 70
  3020
  9
$DWGCODEPAGE
  3
iso8859-1
  0
ENDSEC
  0
SECTION
  2
TABLES
  0
TABLE
  2
VPORT
 70
     2
  0
VPORT
  2
*ACTIVE
 70
     0
 10
0.0
 20
0.0
 11
1.0
 21
1.0
 12
104.58676
 22
19.414228
 13
0.0
 23
0.0
 14
1.0
 24
1.0
 15
10.0
 25
10.0
 16
0.0
 26
0.0
 36
1.0
 17
0.0
 27
0.0
 37
0.0
 40
14.85
 41
1.611024
 42
50.0
 43
0.0
 44
0.0
 50
0.0
 51
0.0
 71
     0
 72
   100
 73
     1
 74
     0
 75
     0
 76
     0
 77
     0
 78
     1
  0
ENDTAB
  0
TABLE
  2
LTYPE
 70
     1
  0
LTYPE
  2
CONTINUOUS
 70
    64
  3
Solid line
 72
    65
 73
     0
 40
0.0
  0
ENDTAB
  0
TABLE
  2
LAYER
 70
     1
  0
LAYER
  2
0
 70
    64
 62
     7
  6
CONTINUOUS
  0
ENDTAB
  0
TABLE
  2
STYLE
 70
     2
  0
STYLE
  2
STANDARD
 70
     0
 40
0.0
 41
1.0
 50
0.0
 71
     0
 42
0.1
  3
txt
  4

  0
STYLE
  2
ROMANC
 70
    64
 40
0.0
 41
1.0
 50
0.0
 71
     0
 42
0.1
  3
romanc
  4

  0
ENDTAB
  0
TABLE
  2
VIEW
 70
     0
  0
ENDTAB
  0
TABLE
  2
UCS
 70
     0
  0
ENDTAB
  0
TABLE
  2
APPID
 70
     1
  0
APPID
  2
ACAD
 70
    64
  0
ENDTAB
  0
TABLE
  2
DIMSTYLE
 70
     0
  0
ENDTAB
  0
ENDSEC
  0
SECTION
  2
BLOCKS
  0
ENDSEC
  0
SECTION
  2
ENTITIES
  0
LINE
  8
0
 10
103.124909
 20
11.989228
 30
0.0
 11
103.124909
 21
26.839228
 31
0.0
  0
LINE
  8
0
 10
92.624909
 20
26.839228
 30
0.0
 11
92.624909
 21
11.989228
 31
0.0
  0
LINE
  8
0
 10
92.624909
 20
11.989228
 30
0.0
 11
103.124909
 21
11.989228
 31
0.0
  0
TEXT
  8
0
 10
95.154882
 20
23.949373
 30
0.0
 40
0.3
  1
ESCALA  1:50
  7
ROMANC
  0
TEXT
  8
0
 10
95.154882
 20
24.435087
 30
0.0
 40
0.3
  1
TIPUS   NT129
  7
ROMANC
  0
TEXT
  8
0
 10
95.167976
 20
23.350783
 30
0.0
 40
0.3
  1
S =  129 dm
  7
ROMANC
  0
TEXT
  8
0
 10
95.165148
 20
22.677285
 30
0.0
 40
0.3
  1
P = 47.1 dm
  7
ROMANC
  0
POLYLINE
  8
0
 66
     1
 10
0.0
 20
0.0
 30
0.0
 70
     1
  0
VERTEX
  8
0
 10
97.400928
 20
15.928509
 30
0.0
 42
0.106338
  0
VERTEX
  8
0
 10
97.415958
 20
15.878637
 30
0.0
 42
0.10607
  0
VERTEX
  8
0
 10
97.463103
 20
15.824443
 30
0.0
 42
0.085783
 70
     2
 50
323.130102
  0
VERTEX
  8
0
 10
97.528703
 20
15.790926
 30
0.0
 42
0.075445
 50
323.130102
  0
VERTEX
  8
0
 10
97.610524
 20
15.778509
 30
0.0
 42
0.075445
  0
VERTEX
  8
0
 10
97.692345
 20
15.790926
 30
0.0
 42
0.085783
  0
VERTEX
  8
0
 10
97.757945
 20
15.824443
 30
0.0
 42
0.10607
 70
     2
 50
36.869898
  0
VERTEX
  8
0
 10
97.805089
 20
15.878637
 30
0.0
 42
0.106338
 50
36.869898
  0
VERTEX
  8
0
 10
97.820119
 20
15.928509
 30
0.0
  0
VERTEX
  8
0
 10
98.020524
 20
15.928509
 30
0.0
  0
VERTEX
  8
0
 10
98.020524
 20
16.938509
 30
0.0
 42
0.05817
  0
VERTEX
  8
0
 10
97.987426
 20
17.222044
 30
0.0
 42
0.071806
  0
VERTEX
  8
0
 10
97.902049
 20
17.438445
 30
0.0
 42
0.106506
 70
     2
 50
119.744881
  0
VERTEX
  8
0
 10
97.755834
 20
17.601383
 30
0.0
 42
0.158104
 50
119.744881
  0
VERTEX
  8
0
 10
97.610524
 20
17.648509
 30
0.0
 42
0.158104
  0
VERTEX
  8
0
 10
97.465213
 20
17.601383
 30
0.0
 42
0.106506
  0
VERTEX
  8
0
 10
97.318999
 20
17.438445
 30
0.0
 42
0.071806
 70
     2
 50
240.255119
  0
VERTEX
  8
0
 10
97.233622
 20
17.222044
 30
0.0
 42
0.05817
 50
240.255119
  0
VERTEX
  8
0
 10
97.200524
 20
16.938509
 30
0.0
  0
VERTEX
  8
0
 10
97.200524
 20
15.928509
 30
0.0
  0
SEQEND
  8
0
  0
POLYLINE
  8
0
 66
     1
 10
0.0
 20
0.0
 30
0.0
 70
     1
  0
VERTEX
  8
0
 10
97.421007
 20
15.948509
 30
0.0
 42
0.151402
  0
VERTEX
  8
0
 10
97.433466
 20
15.888306
 30
0.0
 42
0.10607
  0
VERTEX
  8
0
 10
97.475103
 20
15.840443
 30
0.0
 42
0.085783
 70
     2
 50
323.130102
  0
VERTEX
  8
0
 10
97.534637
 20
15.810025
 30
0.0
 42
0.075445
 50
323.130102
  0
VERTEX
  8
0
 10
97.610524
 20
15.798509
 30
0.0
 42
0.075445
  0
VERTEX
  8
0
 10
97.686411
 20
15.810025
 30
0.0
 42
0.085783
  0
VERTEX
  8
0
 10
97.745945
 20
15.840443
 30
0.0
 42
0.10607
 70
     2
 50
36.869898
  0
VERTEX
  8
0
 10
97.787582
 20
15.888306
 30
0.0
 42
0.151402
 50
36.869898
  0
VERTEX
  8
0
 10
97.800041
 20
15.948509
 30
0.0
  0
VERTEX
  8
0
 10
98.000524
 20
15.948509
 30
0.0
  0
VERTEX
  8
0
 10
98.000524
 20
16.938509
 30
0.0
 42
0.05817
  0
VERTEX
  8
0
 10
97.967964
 20
17.217437
 30
0.0
 42
0.071806
  0
VERTEX
  8
0
 10
97.884684
 20
17.428523
 30
0.0
 42
0.106506
 70
     2
 50
119.744881
  0
VERTEX
  8
0
 10
97.744096
 20
17.58519
 30
0.0
 42
0.158104
 50
119.744881
  0
VERTEX
  8
0
 10
97.610524
 20
17.628509
 30
0.0
 42
0.158104
  0
VERTEX
  8
0
 10
97.476951
 20
17.58519
 30
0.0
 42
0.106506
  0
VERTEX
  8
0
 10
97.336364
 20
17.428523
 30
0.0
 42
0.071806
 70
     2
 50
240.255119
  0
VERTEX
  8
0
 10
97.253084
 20
17.217437
 30
0.0
 42
0.05817
 50
240.255119
  0
VERTEX
  8
0
 10
97.220524
 20
16.938509
 30
0.0
  0
VERTEX
  8
0
 10
97.220524
 20
15.948509
 30
0.0
  0
SEQEND
  8
0
  0
POLYLINE
  8
0
 66
     1
 10
0.0
 20
0.0
 30
0.0
 70
     1
  0
VERTEX
  8
0
 10
97.410524
 20
15.938509
 30
0.0
 42
0.126822
  0
VERTEX
  8
0
 10
97.424712
 20
15.883471
 30
0.0
 42
0.10607
  0
VERTEX
  8
0
 10
97.469103
 20
15.832443
 30
0.0
 42
0.085783
 70
     2
 50
323.130102
  0
VERTEX
  8
0
 10
97.53167
 20
15.800475
 30
0.0
 42
0.075445
 50
323.130102
  0
VERTEX
  8
0
 10
97.610524
 20
15.788509
 30
0.0
 42
0.075445
  0
VERTEX
  8
0
 10
97.689378
 20
15.800475
 30
0.0
 42
0.085783
  0
VERTEX
  8
0
 10
97.751945
 20
15.832443
 30
0.0
 42
0.10607
 70
     2
 50
36.869898
  0
VERTEX
  8
0
 10
97.796336
 20
15.883471
 30
0.0
 42
0.126822
 50
36.869898
  0
VERTEX
  8
0
 10
97.810524
 20
15.938509
 30
0.0
  0
VERTEX
  8
0
 10
98.010524
 20
15.938509
 30
0.0
  0
VERTEX
  8
0
 10
98.010524
 20
16.938509
 30
0.0
 42
0.05817
  0
VERTEX
  8
0
 10
97.977695
 20
17.21974
 30
0.0
 42
0.071806
  0
VERTEX
  8
0
 10
97.893367
 20
17.433484
 30
0.0
 42
0.106506
 70
     2
 50
119.744881
  0
VERTEX
  8
0
 10
97.749965
 20
17.593286
 30
0.0
 42
0.158104
 50
119.744881
  0
VERTEX
  8
0
 10
97.610524
 20
17.638509
 30
0.0
 42
0.158104
  0
VERTEX
  8
0
 10
97.471082
 20
17.593286
 30
0.0
 42
0.106506
  0
VERTEX
  8
0
 10
97.327681
 20
17.433484
 30
0.0
 42
0.071806
 70
     2
 50
240.255119
  0
VERTEX
  8
0
 10
97.243353
 20
17.21974
 30
0.0
 42
0.05817
 50
240.255119
  0
VERTEX
  8
0
 10
97.210524
 20
16.938509
 30
0.0
  0
VERTEX
  8
0
 10
97.210524
 20
15.938509
 30
0.0
  0
SEQEND
  8
0
  0
TEXT
  8
0
 10
97.52152
 20
14.704466
 30
0.0
 40
0.1
  1
0.8
  7
ROMANC
  0
TEXT
  8
0
 10
97.512795
 20
15.2799
 30
0.0
 40
0.1
  1
0.4
  7
ROMANC
  0
TEXT
  8
0
 10
98.526809
 20
15.811073
 30
0.0
 40
0.1
  1
0.15
  7
ROMANC
  0
TEXT
  8
0
 10
99.163041
 20
16.705032
 30
0.0
 40
0.1
  1
1.85
  7
ROMANC
  0
TEXT
  8
0
 10
98.620791
 20
16.361019
 30
0.0
 40
0.1
  1
1.0
  7
ROMANC
  0
TEXT
  8
0
 10
98.612067
 20
17.241609
 30
0.0
 40
0.1
  1
0.7
  7
ROMANC
  0
LINE
  8
0
 10
98.480618
 20
15.758917
 30
0.0
 11
98.541979
 21
15.814696
 31
0.0
  0
LINE
  8
0
 10
97.610524
 20
15.788509
 30
0.0
 11
99.015819
 21
15.788509
 31
0.0
  0
LINE
  8
0
 10
97.377971
 20
15.40627
 30
0.0
 11
97.439331
 21
15.462049
 31
0.0
  0
LINE
  8
0
 10
97.777971
 20
15.40627
 30
0.0
 11
97.839331
 21
15.462049
 31
0.0
  0
LINE
  8
0
 10
97.177971
 20
14.903622
 30
0.0
 11
97.239331
 21
14.959401
 31
0.0
  0
LINE
  8
0
 10
97.977971
 20
14.903622
 30
0.0
 11
98.039331
 21
14.959401
 31
0.0
  0
LINE
  8
0
 10
98.983266
 20
15.908917
 30
0.0
 11
99.044627
 21
15.964696
 31
0.0
  0
LINE
  8
0
 10
98.480618
 20
15.908917
 30
0.0
 11
98.541979
 21
15.964696
 31
0.0
  0
LINE
  8
0
 10
98.480618
 20
16.908917
 30
0.0
 11
98.541979
 21
16.964696
 31
0.0
  0
LINE
  8
0
 10
98.480618
 20
17.608917
 30
0.0
 11
98.541979
 21
17.664696
 31
0.0
  0
LINE
  8
0
 10
98.983266
 20
17.608917
 30
0.0
 11
99.044627
 21
17.664696
 31
0.0
  0
LINE
  8
0
 10
97.210524
 20
15.938509
 30
0.0
 11
97.210524
 21
14.933214
 31
0.0
  0
LINE
  8
0
 10
98.010524
 20
15.938509
 30
0.0
 11
98.010524
 21
14.933214
 31
0.0
  0
LINE
  8
0
 10
98.010524
 20
16.938509
 30
0.0
 11
98.513171
 21
16.938509
 31
0.0
  0
LINE
  8
0
 10
97.610524
 20
17.638509
 30
0.0
 11
99.015819
 21
17.638509
 31
0.0
  0
LINE
  8
0
 10
98.010524
 20
15.938509
 30
0.0
 11
99.015819
 21
15.938509
 31
0.0
  0
LINE
  8
0
 10
97.410524
 20
15.938509
 30
0.0
 11
97.410524
 21
15.435862
 31
0.0
  0
LINE
  8
0
 10
97.810524
 20
15.938509
 30
0.0
 11
97.810524
 21
15.435862
 31
0.0
  0
LINE
  8
0
 10
97.210524
 20
14.933214
 30
0.0
 11
98.010524
 21
14.933214
 31
0.0
  0
LINE
  8
0
 10
97.410524
 20
15.435862
 30
0.0
 11
97.810524
 21
15.435862
 31
0.0
  0
LINE
  8
0
 10
99.015819
 20
15.788509
 30
0.0
 11
99.015819
 21
17.638509
 31
0.0
  0
LINE
  8
0
 10
98.513171
 20
15.788509
 30
0.0
 11
98.513171
 21
17.638509
 31
0.0
  0
TEXT
  8
0
 10
98.675807
 20
23.656699
 30
0.0
 40
0.1
  1
2
  7
ROMANC
  0
LINE
  8
0
 10
103.124909
 20
26.839228
 30
0.0
 11
92.624909
 21
26.839228
 31
0.0
  0
LINE
  8
0
 10
98.000524
 20
17.943804
 30
0.0
 11
98.000524
 21
16.938509
 31
0.0
  0
LINE
  8
0
 10
97.200524
 20
17.943804
 30
0.0
 11
97.200524
 21
16.938509
 31
0.0
  0
LINE
  8
0
 10
97.200524
 20
17.943804
 30
0.0
 11
98.000524
 21
17.943804
 31
0.0
  0
LINE
  8
0
 10
97.967971
 20
17.914212
 30
0.0
 11
98.029331
 21
17.969991
 31
0.0
  0
LINE
  8
0
 10
97.167971
 20
17.914212
 30
0.0
 11
97.229331
 21
17.969991
 31
0.0
  0
TEXT
  8
0
 10
97.513465
 20
18.045282
 30
0.0
 40
0.1
  1
0.8
  7
ROMANC
  0
LINE
  8
0
 10
98.983266
 20
15.758917
 30
0.0
 11
99.044627
 21
15.814696
 31
0.0
  0
ENDSEC
  0
EOF
