  0
SECTION
  2
HEADER
  9
$ACADVER
  1
AC1009
  9
$INSBASE
 10
0.0
 20
0.0
 30
0.0
  9
$EXTMIN
 10
-5.25
 20
-7.425
 30
1073741.824
  9
$EXTMAX
 10
5.25
 20
7.425
 30
1073741.824
  9
$LIMMIN
 10
0.0
 20
0.0
  9
$LIMMAX
 10
12.0
 20
9.0
  9
$ORTHOMODE
 70
     0
  9
$REGENMODE
 70
     1
  9
$FILLMODE
 70
     1
  9
$QTEXTMODE
 70
     0
  9
$MIRRTEXT
 70
     1
  9
$DRAGMODE
 70
     2
  9
$LTSCALE
 40
1.0
  9
$OSMODE
 70
     0
  9
$ATTMODE
 70
     1
  9
$TEXTSIZE
 40
0.2
  9
$TRACEWID
 40
0.05
  9
$TEXTSTYLE
  7
STANDARD
  9
$CLAYER
  8
0
  9
$CELTYPE
  6
CONTINUOUS
  9
$CECOLOR
 62
   256
  9
$DIMSCALE
 40
1.0
  9
$DIMASZ
 40
0.18
  9
$DIMEXO
 40
0.0625
  9
$DIMDLI
 40
0.38
  9
$DIMRND
 40
0.0
  9
$DIMDLE
 40
0.0
  9
$DIMEXE
 40
0.18
  9
$DIMTP
 40
0.0
  9
$DIMTM
 40
0.0
  9
$DIMTXT
 40
0.18
  9
$DIMCEN
 40
0.09
  9
$DIMTSZ
 40
0.0
  9
$DIMTOL
 70
     0
  9
$DIMLIM
 70
     0
  9
$DIMTIH
 70
     1
  9
$DIMTOH
 70
     1
  9
$DIMSE1
 70
     0
  9
$DIMSE2
 70
     0
  9
$DIMTAD
 70
     0
  9
$DIMZIN
 70
     0
  9
$DIMBLK
  1

  9
$DIMASO
 70
     1
  9
$DIMSHO
 70
     1
  9
$DIMPOST
  1

  9
$DIMAPOST
  1

  9
$DIMALT
 70
     0
  9
$DIMALTD
 70
     2
  9
$DIMALTF
 40
25.4
  9
$DIMLFAC
 40
1.0
  9
$DIMTOFL
 70
     0
  9
$DIMTVP
 40
0.0
  9
$DIMTIX
 70
     0
  9
$DIMSOXD
 70
     0
  9
$DIMSAH
 70
     0
  9
$DIMBLK1
  1

  9
$DIMBLK2
  1

  9
$DIMSTYLE
  2
STANDARD
  9
$DIMCLRD
 70
     0
  9
$DIMCLRE
 70
     0
  9
$DIMCLRT
 70
     0
  9
$DIMTFAC
 40
1.0
  9
$DIMGAP
 40
0.09
  9
$LUNITS
 70
     2
  9
$LUPREC
 70
     4
  9
$AXISMODE
 70
     0
  9
$AXISUNIT
 10
0.0
 20
0.0
  9
$SKETCHINC
 40
0.1
  9
$FILLETRAD
 40
0.0
  9
$AUNITS
 70
     0
  9
$AUPREC
 70
     0
  9
$MENU
  1
acad
  9
$ELEVATION
 40
0.0
  9
$PELEVATION
 40
0.0
  9
$THICKNESS
 40
0.0
  9
$LIMCHECK
 70
     0
  9
$BLIPMODE
 70
     1
  9
$CHAMFERA
 40
0.0
  9
$CHAMFERB
 40
0.0
  9
$SKPOLY
 70
     0
  9
$TDCREATE
 40
2451122.479594907
  9
$TDUPDATE
 40
2451122.479594907
  9
$TDINDWG
 40
0.0000000000
  9
$TDUSRTIMER
 40
0.0000000000
  9
$USRTIMER
 70
     1
  9
$ANGBASE
 50
0.0
  9
$ANGDIR
 70
     0
  9
$PDMODE
 70
     0
  9
$PDSIZE
 40
0.0
  9
$PLINEWID
 40
0.0
  9
$COORDS
 70
     0
  9
$SPLFRAME
 70
     0
  9
$SPLINETYPE
 70
     6
  9
$SPLINESEGS
 70
    10
  9
$ATTDIA
 70
     0
  9
$ATTREQ
 70
     1
  9
$HANDLING
 70
     1
  9
$HANDSEED
  5
60
  9
$SURFTAB1
 70
     6
  9
$SURFTAB2
 70
     6
  9
$SURFTYPE
 70
     6
  9
$SURFU
 70
     6
  9
$SURFV
 70
     6
  9
$UCSNAME
  2

  9
$UCSORG
 10
0.0
 20
0.0
 30
0.0
  9
$UCSXDIR
 10
1.0
 20
0.0
 30
0.0
  9
$UCSYDIR
 10
0.0
 20
1.0
 30
0.0
  9
$PUCSNAME
  2

  9
$PUCSORG
 10
0.0
 20
0.0
 30
0.0
  9
$PUCSXDIR
 10
1.0
 20
0.0
 30
0.0
  9
$PUCSYDIR
 10
0.0
 20
1.0
 30
0.0
  9
$USERI1
 70
     0
  9
$USERI2
 70
     0
  9
$USERI3
 70
     0
  9
$USERI4
 70
     0
  9
$USERI5
 70
     0
  9
$USERR1
 40
0.0
  9
$USERR2
 40
0.0
  9
$USERR3
 40
0.0
  9
$USERR4
 40
0.0
  9
$USERR5
 40
0.0
  9
$WORLDVIEW
 70
     1
  9
$SHADEDGE
 70
     3
  9
$SHADEDIF
 70
    70
  9
$TILEMODE
 70
     1
  9
$MAXACTVP
 70
    16
  9
$PINSBASE
 10
0.0
 20
0.0
 30
0.0
  9
$PLIMCHECK
 70
     0
  9
$PEXTMIN
 10
-1.000000E+20
 20
-1.000000E+20
 30
-1.000000E+20
  9
$PEXTMAX
 10
-1.000000E+20
 20
-1.000000E+20
 30
-1.000000E+20
  9
$PLIMMIN
 10
0.0
 20
0.0
  9
$PLIMMAX
 10
12.0
 20
9.0
  9
$UNITMODE
 70
     0
  9
$VISRETAIN
 70
     0
  9
$PLINEGEN
 70
     1
  9
$PSLTSCALE
 70
     0
  9
$TREEDEPTH
 70
  3020
  9
$DWGCODEPAGE
  3
ansi_1252
  0
ENDSEC
  0
SECTION
  2
TABLES
  0
TABLE
  2
VPORT
 70
     1
  0
VPORT
  2
*ACTIVE
 70
     0
 10
0.0
 20
0.0
 11
1.0
 21
1.0
 12
0.0
 22
0.0
 13
0.0
 23
0.0
 14
0.0
 24
0.0
 15
0.0
 25
0.0
 16
0.0
 26
0.0
 36
1.0
 17
-0.380768
 27
0.0
 37
1073741.824
 40
15.444
 41
1.467655
 42
50.0
 43
0.5
 44
-0.5
 50
0.0
 51
0.0
 71
    22
 72
   100
 73
     1
 74
     0
 75
     0
 76
     0
 77
     0
 78
     0
  0
ENDTAB
  0
TABLE
  2
LTYPE
 70
     7
  0
LTYPE
  2
CONTINUOUS
 70
     0
  3
Solid line
 72
    65
 73
     0
 40
0.0
  0
LTYPE
  2
DOT
 70
    64
  3
. . . . . . . . . . . . . . . . . . . . . . . . . . . . . . . . .
 72
    65
 73
     2
 40
0.25
 49
0.0
 49
-0.25
  0
LTYPE
  2
HIDDEN
 70
    64
  3
__ __ __ __ __ __ __ __ __ __ __ __ __ __ __ __ __ __ __ __ __ 
 72
    65
 73
     2
 40
0.375
 49
0.25
 49
-0.125
  0
LTYPE
  2
DASHED
 70
    64
  3
__ __ __ __ __ __ __ __ __ __ __ __ __ __ __ __ __ __ __ __ __
 72
    65
 73
     2
 40
0.75
 49
0.5
 49
-0.25
  0
LTYPE
  2
DASHDOT
 70
    64
  3
__ . __ . __ . __ . __ . __ . __ . __ . __ . __ . __ . __ . _
 72
    65
 73
     4
 40
1.0
 49
0.5
 49
-0.25
 49
0.0
 49
-0.25
  0
LTYPE
  2
DIVIDE
 70
    64
  3
____ . . ____ . . ____ . . ____ . . ____ . . ____ . . ____ . .
 72
    65
 73
     6
 40
1.25
 49
0.5
 49
-0.25
 49
0.0
 49
-0.25
 49
0.0
 49
-0.25
  0
LTYPE
  2
CENTER
 70
    64
  3
____ _ ____ _ ____ _ ____ _ ____ _ ____ _ ____ _ ____ _ ____ _
 72
    65
 73
     4
 40
2.0
 49
1.25
 49
-0.25
 49
0.25
 49
-0.25
  0
ENDTAB
  0
TABLE
  2
LAYER
 70
     4
  0
LAYER
  2
0
 70
    64
 62
     7
  6
CONTINUOUS
  0
LAYER
  2
CONSTRUCTION_CLASS
 70
     0
 62
     7
  6
CONTINUOUS
  0
LAYER
  2
PATTERN_CLASS
 70
     0
 62
     7
  6
CONTINUOUS
  0
LAYER
  2
1
 70
    64
 62
     7
  6
CONTINUOUS
  0
ENDTAB
  0
TABLE
  2
STYLE
 70
     2
  0
STYLE
  2
STANDARD
 70
     0
 40
0.0
 41
1.0
 50
0.0
 71
     0
 42
0.0
  3
txt
  4

  0
STYLE
  2
ROMANC
 70
     0
 40
0.2
 41
1.0
 50
0.0
 71
     0
 42
0.2
  3
ROMANC
  4

  0
ENDTAB
  0
TABLE
  2
VIEW
 70
     0
  0
ENDTAB
  0
TABLE
  2
UCS
 70
     0
  0
ENDTAB
  0
TABLE
  2
APPID
 70
     1
  0
APPID
  2
ACAD
 70
     0
  0
ENDTAB
  0
TABLE
  2
DIMSTYLE
 70
     1
  0
DIMSTYLE
  2
STANDARD
 70
     0
  3

  4

  5

  6

  7

 40
1.0
 41
0.18
 42
0.0625
 43
0.38
 44
0.18
 45
0.0
 46
0.0
 47
0.0
 48
0.0
140
0.18
141
0.09
142
0.0
143
25.4
144
1.0
145
0.0
146
1.0
147
0.09
 71
     0
 72
     0
 73
     1
 74
     1
 75
     0
 76
     0
 77
     0
 78
     0
170
     0
171
     2
172
     0
173
     0
174
     0
175
     0
176
     0
177
     0
178
     0
  0
ENDTAB
  0
ENDSEC
  0
SECTION
  2
BLOCKS
  0
ENDSEC
  0
SECTION
  2
ENTITIES
  0
TEXT
  8
0
  6
CONTINUOUS
 62
     7
  5
29
 10
0.211
 20
3.991
 30
1073741.824
 40
0.1
  1
2
  7
ROMANC
210
0.0
220
0.0
230
1.0
  0
TEXT
  8
0
  6
CONTINUOUS
 62
     7
  5
2A
 10
-2.72
 20
4.446
 30
1073741.824
 40
0.3
  1
ESCALA  1:50
  7
ROMANC
210
0.0
220
0.0
230
1.0
  0
POLYLINE
  8
0
  6
CONTINUOUS
 62
     7
  5
2B
 66
     1
 10
0.0
 20
0.0
 30
1073741.824
 70
     1
210
0.0
220
0.0
230
1.0
  0
VERTEX
  8
0
  6
CONTINUOUS
 62
     7
  5
2C
 10
-5.25
 20
7.425
 30
1073741.824
  0
VERTEX
  8
0
  6
CONTINUOUS
 62
     7
  5
2D
 10
5.25
 20
7.425
 30
1073741.824
  0
VERTEX
  8
0
  6
CONTINUOUS
 62
     7
  5
2E
 10
5.25
 20
-7.425
 30
1073741.824
  0
VERTEX
  8
0
  6
CONTINUOUS
 62
     7
  5
2F
 10
-5.25
 20
-7.425
 30
1073741.824
  0
SEQEND
  8
0
  6
CONTINUOUS
 62
     7
  5
30
  0
TEXT
  8
0
  6
CONTINUOUS
 62
     7
  5
31
 10
-2.701
 20
3.777
 30
1073741.824
 40
0.3
  1
S = 128 dm
  7
ROMANC
210
0.0
220
0.0
230
1.0
  0
TEXT
  8
0
  6
CONTINUOUS
 62
     7
  5
32
 10
-2.724
 20
3.207
 30
1073741.824
 40
0.3
  1
P = 43 dm
  7
ROMANC
210
0.0
220
0.0
230
1.0
  0
TEXT
  8
0
  6
CONTINUOUS
 62
     7
  5
33
 10
-2.72
 20
5.059
 30
1073741.824
 40
0.3
  1
TIPUS   NT128C
  7
ROMANC
210
0.0
220
0.0
230
1.0
  0
LINE
  8
1
  6
CONTINUOUS
 62
     7
  5
35
 10
-0.633
 20
-1.863
 30
1073741.824
 11
0.05
 21
-1.863
 31
1073741.824
  0
LINE
  8
1
  6
CONTINUOUS
 62
     7
  5
36
 10
-0.801
 20
-0.895
 30
1073741.824
 11
-0.625
 21
-1.853
 31
1073741.824
  0
LINE
  8
1
  6
CONTINUOUS
 62
     7
  5
37
 10
-0.811
 20
-0.897
 30
1073741.824
 11
-0.633
 21
-1.863
 31
1073741.824
  0
ARC
  8
1
  6
CONTINUOUS
 62
     7
  5
38
 10
-0.291
 20
-0.801333
 30
1073741.824
 40
0.518333
 50
349.611142
 51
190.388858
210
0.0
220
0.0
230
1.0
  0
ARC
  8
1
  6
CONTINUOUS
 62
     7
  5
39
 10
-0.291
 20
-0.801333
 30
1073741.824
 40
0.528333
 50
349.611142
 51
190.388858
210
0.0
220
0.0
230
1.0
  0
LINE
  8
1
  6
CONTINUOUS
 62
     7
  5
3A
 10
0.042
 20
-1.853
 30
1073741.824
 11
0.218
 21
-0.895
 31
1073741.824
  0
LINE
  8
1
  6
CONTINUOUS
 62
     7
  5
3B
 10
0.05
 20
-1.863
 30
1073741.824
 11
0.228
 21
-0.897
 31
1073741.824
  0
LINE
  8
1
  6
CONTINUOUS
 62
     7
  5
3C
 10
-0.616
 20
-1.843
 30
1073741.824
 11
0.034
 21
-1.843
 31
1073741.824
  0
LINE
  8
1
  6
CONTINUOUS
 62
     7
  5
3D
 10
-0.625
 20
-1.853
 30
1073741.824
 11
0.042
 21
-1.853
 31
1073741.824
  0
TEXT
  8
1
  6
CONTINUOUS
 62
     7
  5
3E
 10
-0.41
 20
-2.378
 30
1073741.824
 40
0.075
  1
0.65
  7
ROMANC
210
0.0
220
0.0
230
1.0
  0
LINE
  8
1
  6
CONTINUOUS
 62
     7
  5
3F
 10
-0.448
 20
-2.34
 30
1073741.824
 11
-0.616
 21
-2.34
 31
1073741.824
  0
LINE
  8
1
  6
CONTINUOUS
 62
     7
  5
40
 10
-0.136
 20
-2.34
 30
1073741.824
 11
0.034
 21
-2.34
 31
1073741.824
  0
LINE
  8
1
  6
CONTINUOUS
 62
     7
  5
41
 10
-0.654
 20
-2.359
 30
1073741.824
 11
-0.578
 21
-2.321
 31
1073741.824
  0
LINE
  8
1
  6
CONTINUOUS
 62
     7
  5
42
 10
0.072
 20
-2.321
 30
1073741.824
 11
-0.004
 21
-2.359
 31
1073741.824
  0
LINE
  8
1
  6
CONTINUOUS
 62
     7
  5
43
 10
-0.616
 20
-1.881
 30
1073741.824
 11
-0.616
 21
-2.378
 31
1073741.824
  0
LINE
  8
1
  6
CONTINUOUS
 62
     7
  5
44
 10
0.034
 20
-1.881
 30
1073741.824
 11
0.034
 21
-2.378
 31
1073741.824
  0
LINE
  8
1
  6
CONTINUOUS
 62
     7
  5
45
 10
0.034
 20
-1.843
 30
1073741.824
 11
0.209
 21
-0.893
 31
1073741.824
  0
TEXT
  8
1
  6
CONTINUOUS
 62
     7
  5
46
 10
0.784
 20
-1.487
 30
1073741.824
 40
0.075
  1
0.95
 50
90.0
  7
ROMANC
210
0.0
220
0.0
230
1.0
  0
LINE
  8
1
  6
CONTINUOUS
 62
     7
  5
47
 10
0.747
 20
-1.525
 30
1073741.824
 11
0.747
 21
-1.843
 31
1073741.824
  0
LINE
  8
1
  6
CONTINUOUS
 62
     7
  5
48
 10
0.747
 20
-1.213
 30
1073741.824
 11
0.747
 21
-0.893
 31
1073741.824
  0
LINE
  8
1
  6
CONTINUOUS
 62
     7
  5
49
 10
0.766
 20
-1.88
 30
1073741.824
 11
0.728
 21
-1.806
 31
1073741.824
  0
LINE
  8
1
  6
CONTINUOUS
 62
     7
  5
4A
 10
0.728
 20
-0.856
 30
1073741.824
 11
0.766
 21
-0.93
 31
1073741.824
  0
LINE
  8
1
  6
CONTINUOUS
 62
     7
  5
4B
 10
0.072
 20
-1.843
 30
1073741.824
 11
0.785
 21
-1.843
 31
1073741.824
  0
LINE
  8
1
  6
CONTINUOUS
 62
     7
  5
4C
 10
0.247
 20
-0.893
 30
1073741.824
 11
0.785
 21
-0.893
 31
1073741.824
  0
ARC
  8
1
  6
CONTINUOUS
 62
     7
  5
4D
 10
-0.291
 20
-0.801333
 30
1073741.824
 40
0.508333
 50
349.611142
 51
190.388858
210
0.0
220
0.0
230
1.0
  0
TEXT
  8
1
  6
CONTINUOUS
 62
     7
  5
4E
 10
1.144
 20
-1.178
 30
1073741.824
 40
0.075
  1
1.55
 50
90.0
  7
ROMANC
210
0.0
220
0.0
230
1.0
  0
LINE
  8
1
  6
CONTINUOUS
 62
     7
  5
4F
 10
1.106
 20
-1.216
 30
1073741.824
 11
1.106
 21
-1.843
 31
1073741.824
  0
LINE
  8
1
  6
CONTINUOUS
 62
     7
  5
50
 10
1.106
 20
-0.921
 30
1073741.824
 11
1.106
 21
-0.293
 31
1073741.824
  0
LINE
  8
1
  6
CONTINUOUS
 62
     7
  5
51
 10
1.125
 20
-1.88
 30
1073741.824
 11
1.087
 21
-1.806
 31
1073741.824
  0
LINE
  8
1
  6
CONTINUOUS
 62
     7
  5
52
 10
1.087
 20
-0.256
 30
1073741.824
 11
1.125
 21
-0.33
 31
1073741.824
  0
LINE
  8
1
  6
CONTINUOUS
 62
     7
  5
53
 10
0.072
 20
-1.843
 30
1073741.824
 11
1.144
 21
-1.843
 31
1073741.824
  0
LINE
  8
1
  6
CONTINUOUS
 62
     7
  5
54
 10
-0.264
 20
-0.293
 30
1073741.824
 11
1.144
 21
-0.293
 31
1073741.824
  0
LINE
  8
1
  6
CONTINUOUS
 62
     7
  5
55
 10
-0.791
 20
-0.893
 30
1073741.824
 11
-0.616
 21
-1.843
 31
1073741.824
  0
TEXT
  8
1
  6
CONTINUOUS
 62
     7
  5
56
 10
-0.401
 20
0.044
 30
1073741.824
 40
0.075
  1
1.00
  7
ROMANC
210
0.0
220
0.0
230
1.0
  0
LINE
  8
1
  6
CONTINUOUS
 62
     7
  5
57
 10
-0.439
 20
0.081
 30
1073741.824
 11
-0.791
 21
0.081
 31
1073741.824
  0
LINE
  8
1
  6
CONTINUOUS
 62
     7
  5
58
 10
-0.144
 20
0.081
 30
1073741.824
 11
0.209
 21
0.081
 31
1073741.824
  0
LINE
  8
1
  6
CONTINUOUS
 62
     7
  5
59
 10
-0.828
 20
0.062
 30
1073741.824
 11
-0.754
 21
0.1
 31
1073741.824
  0
LINE
  8
1
  6
CONTINUOUS
 62
     7
  5
5A
 10
0.246
 20
0.1
 30
1073741.824
 11
0.172
 21
0.062
 31
1073741.824
  0
LINE
  8
1
  6
CONTINUOUS
 62
     7
  5
5B
 10
-0.791
 20
-0.855
 30
1073741.824
 11
-0.791
 21
0.119
 31
1073741.824
  0
LINE
  8
1
  6
CONTINUOUS
 62
     7
  5
5C
 10
0.209
 20
-0.855
 30
1073741.824
 11
0.209
 21
0.119
 31
1073741.824
  0
ENDSEC
  0
EOF
