  0
SECTION
  2
HEADER
  9
$ACADVER
  1
AC1009
  9
$INSBASE
 10
0.0
 20
0.0
 30
0.0
  9
$EXTMIN
 10
281.393517
 20
29.894377
 30
-0.001526
  9
$EXTMAX
 10
291.904909
 20
44.748366
 30
0.0
  9
$LIMMIN
 10
0.0
 20
0.0
  9
$LIMMAX
 10
12.0
 20
9.0
  9
$ORTHOMODE
 70
     0
  9
$REGENMODE
 70
     1
  9
$FILLMODE
 70
     1
  9
$QTEXTMODE
 70
     0
  9
$MIRRTEXT
 70
     1
  9
$DRAGMODE
 70
     2
  9
$LTSCALE
 40
1.0
  9
$OSMODE
 70
    33
  9
$ATTMODE
 70
     1
  9
$TEXTSIZE
 40
0.2
  9
$TRACEWID
 40
0.05
  9
$TEXTSTYLE
  7
STANDARD
  9
$CLAYER
  8
0
  9
$CELTYPE
  6
BYLAYER
  9
$CECOLOR
 62
   256
  9
$DIMSCALE
 40
1.0
  9
$DIMASZ
 40
0.18
  9
$DIMEXO
 40
0.0625
  9
$DIMDLI
 40
0.38
  9
$DIMRND
 40
0.0
  9
$DIMDLE
 40
0.0
  9
$DIMEXE
 40
0.18
  9
$DIMTP
 40
0.0
  9
$DIMTM
 40
0.0
  9
$DIMTXT
 40
0.18
  9
$DIMCEN
 40
0.09
  9
$DIMTSZ
 40
0.0
  9
$DIMTOL
 70
     0
  9
$DIMLIM
 70
     0
  9
$DIMTIH
 70
     1
  9
$DIMTOH
 70
     1
  9
$DIMSE1
 70
     0
  9
$DIMSE2
 70
     0
  9
$DIMTAD
 70
     0
  9
$DIMZIN
 70
     0
  9
$DIMBLK
  1

  9
$DIMASO
 70
     1
  9
$DIMSHO
 70
     1
  9
$DIMPOST
  1

  9
$DIMAPOST
  1

  9
$DIMALT
 70
     0
  9
$DIMALTD
 70
     2
  9
$DIMALTF
 40
25.4
  9
$DIMLFAC
 40
1.0
  9
$DIMTOFL
 70
     0
  9
$DIMTVP
 40
0.0
  9
$DIMTIX
 70
     0
  9
$DIMSOXD
 70
     0
  9
$DIMSAH
 70
     0
  9
$DIMBLK1
  1

  9
$DIMBLK2
  1

  9
$DIMSTYLE
  2
STANDARD
  9
$DIMCLRD
 70
     0
  9
$DIMCLRE
 70
     0
  9
$DIMCLRT
 70
     0
  9
$DIMTFAC
 40
1.0
  9
$DIMGAP
 40
0.09
  9
$LUNITS
 70
     2
  9
$LUPREC
 70
     4
  9
$SKETCHINC
 40
0.1
  9
$FILLETRAD
 40
0.0
  9
$AUNITS
 70
     0
  9
$AUPREC
 70
     0
  9
$MENU
  1
.
  9
$ELEVATION
 40
0.0
  9
$PELEVATION
 40
0.0
  9
$THICKNESS
 40
0.0
  9
$LIMCHECK
 70
     0
  9
$BLIPMODE
 70
     0
  9
$CHAMFERA
 40
0.0
  9
$CHAMFERB
 40
0.0
  9
$SKPOLY
 70
     0
  9
$TDCREATE
 40
2452538.449626
  9
$TDUPDATE
 40
2452538.451851
  9
$TDINDWG
 40
0.002226
  9
$TDUSRTIMER
 40
0.002226
  9
$USRTIMER
 70
     1
  9
$ANGBASE
 50
0.0
  9
$ANGDIR
 70
     0
  9
$PDMODE
 70
     0
  9
$PDSIZE
 40
0.0
  9
$PLINEWID
 40
0.0
  9
$COORDS
 70
     1
  9
$SPLFRAME
 70
     0
  9
$SPLINETYPE
 70
     6
  9
$SPLINESEGS
 70
     8
  9
$ATTDIA
 70
     0
  9
$ATTREQ
 70
     1
  9
$HANDLING
 70
     1
  9
$HANDSEED
  5
93
  9
$SURFTAB1
 70
     6
  9
$SURFTAB2
 70
     6
  9
$SURFTYPE
 70
     6
  9
$SURFU
 70
     6
  9
$SURFV
 70
     6
  9
$UCSNAME
  2

  9
$UCSORG
 10
0.0
 20
0.0
 30
0.0
  9
$UCSXDIR
 10
1.0
 20
0.0
 30
0.0
  9
$UCSYDIR
 10
0.0
 20
1.0
 30
0.0
  9
$PUCSNAME
  2

  9
$PUCSORG
 10
0.0
 20
0.0
 30
0.0
  9
$PUCSXDIR
 10
1.0
 20
0.0
 30
0.0
  9
$PUCSYDIR
 10
0.0
 20
1.0
 30
0.0
  9
$USERI1
 70
     0
  9
$USERI2
 70
     0
  9
$USERI3
 70
     0
  9
$USERI4
 70
     0
  9
$USERI5
 70
     0
  9
$USERR1
 40
0.0
  9
$USERR2
 40
0.0
  9
$USERR3
 40
0.0
  9
$USERR4
 40
0.0
  9
$USERR5
 40
0.0
  9
$WORLDVIEW
 70
     1
  9
$SHADEDGE
 70
     3
  9
$SHADEDIF
 70
    70
  9
$TILEMODE
 70
     1
  9
$MAXACTVP
 70
    48
  9
$PLIMCHECK
 70
     0
  9
$PEXTMIN
 10
1.000000E+020
 20
1.000000E+020
 30
1.000000E+020
  9
$PEXTMAX
 10
-1.000000E+020
 20
-1.000000E+020
 30
-1.000000E+020
  9
$PLIMMIN
 10
0.0
 20
0.0
  9
$PLIMMAX
 10
12.0
 20
9.0
  9
$UNITMODE
 70
     0
  9
$VISRETAIN
 70
     1
  9
$PLINEGEN
 70
     0
  9
$PSLTSCALE
 70
     1
  0
ENDSEC
  0
SECTION
  2
TABLES
  0
TABLE
  2
VPORT
 70
     2
  0
VPORT
  2
*ACTIVE
 70
     0
 10
0.0
 20
0.0
 11
1.0
 21
1.0
 12
286.649213
 22
37.321371
 13
0.0
 23
0.0
 14
1.0
 24
1.0
 15
0.0
 25
0.0
 16
0.0
 26
0.0
 36
1.0
 17
0.0
 27
0.0
 37
0.0
 40
14.971103
 41
1.486842
 42
50.0
 43
0.0
 44
0.0
 50
0.0
 51
0.0
 71
     0
 72
   100
 73
     1
 74
     3
 75
     0
 76
     0
 77
     0
 78
     0
  0
ENDTAB
  0
TABLE
  2
LTYPE
 70
     1
  0
LTYPE
  2
CONTINUOUS
 70
     0
  3
Solid line
 72
    65
 73
     0
 40
0.0
  0
ENDTAB
  0
TABLE
  2
LAYER
 70
     2
  0
LAYER
  2
0
 70
     0
 62
     7
  6
CONTINUOUS
  0
LAYER
  2
1
 70
     0
 62
     7
  6
CONTINUOUS
  0
ENDTAB
  0
TABLE
  2
STYLE
 70
     1
  0
STYLE
  2
STANDARD
 70
     0
 40
0.0
 41
1.0
 50
0.0
 71
     0
 42
0.2
  3
txt
  4

  0
ENDTAB
  0
TABLE
  2
VIEW
 70
     0
  0
ENDTAB
  0
TABLE
  2
UCS
 70
     0
  0
ENDTAB
  0
TABLE
  2
APPID
 70
     1
  0
APPID
  2
ACAD
 70
     0
  0
ENDTAB
  0
TABLE
  2
DIMSTYLE
 70
     1
  0
DIMSTYLE
  2
STANDARD
 70
     0
  3

  4

  5

  6

  7

 40
1.0
 41
0.18
 42
0.0625
 43
0.38
 44
0.18
 45
0.0
 46
0.0
 47
0.0
 48
0.0
140
0.18
141
0.09
142
0.0
143
25.4
144
1.0
145
0.0
146
1.0
147
0.09
 71
     0
 72
     0
 73
     1
 74
     1
 75
     0
 76
     0
 77
     0
 78
     0
170
     0
171
     2
172
     0
173
     0
174
     0
175
     0
176
     0
177
     0
178
     0
  0
ENDTAB
  0
ENDSEC
  0
SECTION
  2
BLOCKS
  0
BLOCK
  8
0
  2
$MODEL_SPACE
 70
     0
 10
0.0
 20
0.0
 30
0.0
  3
$MODEL_SPACE
  1

  0
ENDBLK
  5
87
  8
0
  0
BLOCK
 67
     1
  8
0
  2
$PAPER_SPACE
 70
     0
 10
0.0
 20
0.0
 30
0.0
  3
$PAPER_SPACE
  1

  0
ENDBLK
  5
84
 67
     1
  8
0
  0
ENDSEC
  0
SECTION
  2
ENTITIES
  0
TEXT
  5
22
  8
0
  6
CONTINUOUS
 62
     7
 10
287.008
 20
41.338
 30
0.0
 40
0.1
  1
2
  0
TEXT
  5
24
  8
0
  6
CONTINUOUS
 62
     7
 10
283.926
 20
41.768
 30
0.0
 40
0.3
  1
ESCALA  1:50
  0
POLYLINE
  5
25
  8
0
  6
CONTINUOUS
 62
     7
 66
     1
 10
0.0
 20
0.0
 30
0.0
 70
     1
  0
VERTEX
  5
69
  8
0
  6
CONTINUOUS
 62
     7
 10
281.396
 20
44.747
 30
0.0
  0
VERTEX
  5
6A
  8
0
  6
CONTINUOUS
 62
     7
 10
291.896
 20
44.747
 30
0.0
  0
VERTEX
  5
6B
  8
0
  6
CONTINUOUS
 62
     7
 10
291.896
 20
29.897
 30
0.0
  0
VERTEX
  5
6C
  8
0
  6
CONTINUOUS
 62
     7
 10
281.396
 20
29.897
 30
0.0
  0
SEQEND
  5
6D
  8
0
  6
CONTINUOUS
 62
     7
  0
TEXT
  5
2B
  8
0
  6
CONTINUOUS
 62
     7
 10
283.945
 20
41.099
 30
0.0
 40
0.3
  1
S = 126 dm
  0
TEXT
  5
2C
  8
0
  6
CONTINUOUS
 62
     7
 10
283.922
 20
40.529
 30
0.0
 40
0.3
  1
P = 46 dm
  0
TEXT
  5
2D
  8
0
  6
CONTINUOUS
 62
     7
 10
283.926
 20
42.381
 30
0.0
 40
0.3
  1
TIPUS   NT126B
  0
LINE
  5
2F
  8
1
  6
CONTINUOUS
 62
     7
 10
285.752
 20
35.762
 30
0.0
 11
285.752
 21
37.123
 31
0.0
  0
LINE
  5
30
  8
1
  6
CONTINUOUS
 62
     7
 10
285.742
 20
35.76
 30
0.0
 11
285.742
 21
37.133
 31
0.0
  0
LINE
  5
31
  8
1
  6
CONTINUOUS
 62
     7
 10
285.752
 20
37.123
 30
0.0
 11
286.672
 21
37.123
 31
0.0
  0
LINE
  5
32
  8
1
  6
CONTINUOUS
 62
     7
 10
285.742
 20
37.133
 30
0.0
 11
286.682
 21
37.133
 31
0.0
  0
LINE
  5
33
  8
1
  6
CONTINUOUS
 62
     7
 10
286.672
 20
37.123
 30
0.0
 11
286.672
 21
35.753
 31
0.0
  0
LINE
  5
34
  8
1
  6
CONTINUOUS
 62
     7
 10
286.682
 20
37.133
 30
0.0
 11
286.682
 21
35.743
 31
0.0
  0
LINE
  5
35
  8
1
  6
CONTINUOUS
 62
     7
 10
286.672
 20
35.753
 30
0.0
 11
286.169
 21
35.753
 31
0.0
  0
LINE
  5
36
  8
1
  6
CONTINUOUS
 62
     7
 10
286.682
 20
35.743
 30
0.0
 11
286.176
 21
35.743
 31
0.0
  0
ARC
  5
37
  8
1
  6
CONTINUOUS
 62
     7
 10
285.962
 20
35.821333
 30
0.0
 40
0.218333
 50
195.881008
 51
341.761264
  0
ARC
  5
38
  8
1
  6
CONTINUOUS
 62
     7
 10
285.962
 20
35.821333
 30
0.0
 40
0.228333
 50
195.527164
 51
339.936236
  0
LINE
  5
39
  8
1
  6
CONTINUOUS
 62
     7
 10
285.762
 20
35.763
 30
0.0
 11
285.762
 21
37.113
 31
0.0
  0
LINE
  5
3A
  8
1
  6
CONTINUOUS
 62
     7
 10
286.662
 20
35.763
 30
0.0
 11
286.162
 21
35.763
 31
0.0
  0
TEXT
  5
3B
  8
1
  6
CONTINUOUS
 62
     7
 10
285.84
 20
35.302
 30
0.0
 40
0.075
  1
0.40
  0
LINE
  5
3C
  8
1
  6
CONTINUOUS
 62
     7
 10
285.612
 20
35.339
 30
0.0
 11
285.762
 21
35.339
 31
0.0
  0
LINE
  5
3D
  8
1
  6
CONTINUOUS
 62
     7
 10
286.312
 20
35.339
 30
0.0
 11
286.162
 21
35.339
 31
0.0
  0
LINE
  5
3E
  8
1
  6
CONTINUOUS
 62
     7
 10
285.8
 20
35.358
 30
0.0
 11
285.724
 21
35.32
 31
0.0
  0
LINE
  5
3F
  8
1
  6
CONTINUOUS
 62
     7
 10
286.124
 20
35.32
 30
0.0
 11
286.2
 21
35.358
 31
0.0
  0
LINE
  5
40
  8
1
  6
CONTINUOUS
 62
     7
 10
285.762
 20
35.725
 30
0.0
 11
285.762
 21
35.301
 31
0.0
  0
LINE
  5
41
  8
1
  6
CONTINUOUS
 62
     7
 10
286.162
 20
35.725
 30
0.0
 11
286.162
 21
35.301
 31
0.0
  0
TEXT
  5
42
  8
1
  6
CONTINUOUS
 62
     7
 10
286.293
 20
35.116
 30
0.0
 40
0.075
  1
0.50
  0
LINE
  5
43
  8
1
  6
CONTINUOUS
 62
     7
 10
286.012
 20
35.153
 30
0.0
 11
286.162
 21
35.153
 31
0.0
  0
LINE
  5
44
  8
1
  6
CONTINUOUS
 62
     7
 10
286.812
 20
35.153
 30
0.0
 11
286.662
 21
35.153
 31
0.0
  0
LINE
  5
45
  8
1
  6
CONTINUOUS
 62
     7
 10
286.2
 20
35.172
 30
0.0
 11
286.124
 21
35.134
 31
0.0
  0
LINE
  5
46
  8
1
  6
CONTINUOUS
 62
     7
 10
286.624
 20
35.134
 30
0.0
 11
286.7
 21
35.172
 31
0.0
  0
LINE
  5
47
  8
1
  6
CONTINUOUS
 62
     7
 10
286.162
 20
35.725
 30
0.0
 11
286.162
 21
35.115
 31
0.0
  0
LINE
  5
48
  8
1
  6
CONTINUOUS
 62
     7
 10
286.662
 20
35.725
 30
0.0
 11
286.662
 21
35.115
 31
0.0
  0
LINE
  5
49
  8
1
  6
CONTINUOUS
 62
     7
 10
286.662
 20
37.113
 30
0.0
 11
286.662
 21
35.763
 31
0.0
  0
TEXT
  5
4A
  8
1
  6
CONTINUOUS
 62
     7
 10
286.093
 20
34.834
 30
0.0
 40
0.075
  1
0.90
  0
LINE
  5
4B
  8
1
  6
CONTINUOUS
 62
     7
 10
286.055
 20
34.872
 30
0.0
 11
285.762
 21
34.872
 31
0.0
  0
LINE
  5
4C
  8
1
  6
CONTINUOUS
 62
     7
 10
286.367
 20
34.872
 30
0.0
 11
286.662
 21
34.872
 31
0.0
  0
LINE
  5
4D
  8
1
  6
CONTINUOUS
 62
     7
 10
285.724
 20
34.853
 30
0.0
 11
285.8
 21
34.891
 31
0.0
  0
LINE
  5
4E
  8
1
  6
CONTINUOUS
 62
     7
 10
286.7
 20
34.891
 30
0.0
 11
286.624
 21
34.853
 31
0.0
  0
LINE
  5
4F
  8
1
  6
CONTINUOUS
 62
     7
 10
285.762
 20
35.725
 30
0.0
 11
285.762
 21
34.834
 31
0.0
  0
LINE
  5
50
  8
1
  6
CONTINUOUS
 62
     7
 10
286.662
 20
35.725
 30
0.0
 11
286.662
 21
34.834
 31
0.0
  0
ARC
  5
51
  8
1
  6
CONTINUOUS
 62
     7
 10
285.962
 20
35.821333
 30
0.0
 40
0.208333
 50
196.260206
 51
343.739794
  0
TEXT
  5
52
  8
1
  6
CONTINUOUS
 62
     7
 10
285.362
 20
36.013
 30
0.0
 40
0.075
  1
0.15
 50
90.0
  0
LINE
  5
53
  8
1
  6
CONTINUOUS
 62
     7
 10
285.324
 20
35.899
 30
0.0
 11
285.324
 21
35.763
 31
0.0
  0
LINE
  5
54
  8
1
  6
CONTINUOUS
 62
     7
 10
285.324
 20
35.463
 30
0.0
 11
285.324
 21
35.613
 31
0.0
  0
LINE
  5
55
  8
1
  6
CONTINUOUS
 62
     7
 10
285.343
 20
35.726
 30
0.0
 11
285.305
 21
35.8
 31
0.0
  0
LINE
  5
56
  8
1
  6
CONTINUOUS
 62
     7
 10
285.305
 20
35.65
 30
0.0
 11
285.343
 21
35.576
 31
0.0
  0
LINE
  5
57
  8
1
  6
CONTINUOUS
 62
     7
 10
285.724
 20
35.763
 30
0.0
 11
285.286
 21
35.763
 31
0.0
  0
LINE
  5
58
  8
1
  6
CONTINUOUS
 62
     7
 10
285.924
 20
35.613
 30
0.0
 11
285.286
 21
35.613
 31
0.0
  0
LINE
  5
59
  8
1
  6
CONTINUOUS
 62
     7
 10
285.762
 20
37.113
 30
0.0
 11
286.662
 21
37.113
 31
0.0
  0
TEXT
  5
5A
  8
1
  6
CONTINUOUS
 62
     7
 10
287.134
 20
36.254
 30
0.0
 40
0.075
  1
1.50
 50
90.0
  0
LINE
  5
5B
  8
1
  6
CONTINUOUS
 62
     7
 10
287.097
 20
36.511
 30
0.0
 11
287.097
 21
37.113
 31
0.0
  0
LINE
  5
5C
  8
1
  6
CONTINUOUS
 62
     7
 10
287.097
 20
36.216
 30
0.0
 11
287.097
 21
35.613
 31
0.0
  0
LINE
  5
5D
  8
1
  6
CONTINUOUS
 62
     7
 10
287.078
 20
37.15
 30
0.0
 11
287.116
 21
37.076
 31
0.0
  0
LINE
  5
5E
  8
1
  6
CONTINUOUS
 62
     7
 10
287.116
 20
35.576
 30
0.0
 11
287.078
 21
35.65
 31
0.0
  0
LINE
  5
5F
  8
1
  6
CONTINUOUS
 62
     7
 10
286.7
 20
37.113
 30
0.0
 11
287.135
 21
37.113
 31
0.0
  0
LINE
  5
60
  8
1
  6
CONTINUOUS
 62
     7
 10
285.962
 20
35.613
 30
0.0
 11
287.135
 21
35.613
 31
0.0
  0
ENDSEC
  0
EOF
