  0
SECTION
  2
HEADER
  9
$ACADVER
  1
AC1009
  9
$INSBASE
 10
105.464027
 20
-4.528761
 30
0.0
  9
$EXTMIN
 10
281.395795
 20
29.897444
 30
0.0
  9
$EXTMAX
 10
291.895795
 20
44.747444
 30
0.0
  9
$LIMMIN
 10
0.0
 20
0.0
  9
$LIMMAX
 10
410.0
 20
287.0
  9
$ORTHOMODE
 70
     1
  9
$REGENMODE
 70
     1
  9
$FILLMODE
 70
     1
  9
$QTEXTMODE
 70
     0
  9
$MIRRTEXT
 70
     1
  9
$DRAGMODE
 70
     2
  9
$LTSCALE
 40
25.0
  9
$OSMODE
 70
     0
  9
$ATTMODE
 70
     1
  9
$TEXTSIZE
 40
0.1
  9
$TRACEWID
 40
1.0
  9
$TEXTSTYLE
  7
ROMANC
  9
$CLAYER
  8
0
  9
$CELTYPE
  6
BYLAYER
  9
$CECOLOR
 62
   256
  9
$DIMSCALE
 40
1.5
  9
$DIMASZ
 40
0.1
  9
$DIMEXO
 40
0.01
  9
$DIMDLI
 40
7.0
  9
$DIMRND
 40
0.0
  9
$DIMDLE
 40
0.0
  9
$DIMEXE
 40
0.01
  9
$DIMTP
 40
0.0
  9
$DIMTM
 40
0.0
  9
$DIMTXT
 40
0.05
  9
$DIMCEN
 40
0.1
  9
$DIMTSZ
 40
0.0
  9
$DIMTOL
 70
     0
  9
$DIMLIM
 70
     0
  9
$DIMTIH
 70
     0
  9
$DIMTOH
 70
     0
  9
$DIMSE1
 70
     0
  9
$DIMSE2
 70
     0
  9
$DIMTAD
 70
     1
  9
$DIMZIN
 70
     0
  9
$DIMBLK
  1

  9
$DIMASO
 70
     1
  9
$DIMSHO
 70
     0
  9
$DIMPOST
  1

  9
$DIMAPOST
  1

  9
$DIMALT
 70
     0
  9
$DIMALTD
 70
     2
  9
$DIMALTF
 40
25.4
  9
$DIMLFAC
 40
1.0
  9
$DIMTOFL
 70
     1
  9
$DIMTVP
 40
0.0
  9
$DIMTIX
 70
     1
  9
$DIMSOXD
 70
     0
  9
$DIMSAH
 70
     0
  9
$DIMBLK1
  1

  9
$DIMBLK2
  1

  9
$DIMSTYLE
  2
*UNNAMED
  9
$DIMCLRD
 70
     0
  9
$DIMCLRE
 70
     0
  9
$DIMCLRT
 70
     0
  9
$DIMTFAC
 40
70.0
  9
$DIMGAP
 40
0.09
  9
$LUNITS
 70
     2
  9
$LUPREC
 70
     2
  9
$SKETCHINC
 40
1.0
  9
$FILLETRAD
 40
0.0
  9
$AUNITS
 70
     0
  9
$AUPREC
 70
     0
  9
$MENU
  1
acad
  9
$ELEVATION
 40
0.0
  9
$PELEVATION
 40
0.0
  9
$THICKNESS
 40
0.0
  9
$LIMCHECK
 70
     0
  9
$BLIPMODE
 70
     0
  9
$CHAMFERA
 40
0.0
  9
$CHAMFERB
 40
0.0
  9
$SKPOLY
 70
     0
  9
$TDCREATE
 40
2450305.554557986
  9
$TDUPDATE
 40
2450826.777539004
  9
$TDINDWG
 40
0.1037068287
  9
$TDUSRTIMER
 40
0.1037068287
  9
$USRTIMER
 70
     1
  9
$ANGBASE
 50
0.0
  9
$ANGDIR
 70
     0
  9
$PDMODE
 70
     0
  9
$PDSIZE
 40
0.0
  9
$PLINEWID
 40
0.0
  9
$COORDS
 70
     0
  9
$SPLFRAME
 70
     0
  9
$SPLINETYPE
 70
     6
  9
$SPLINESEGS
 70
     8
  9
$ATTDIA
 70
     0
  9
$ATTREQ
 70
     1
  9
$HANDLING
 70
     0
  9
$HANDSEED
  5
0
  9
$SURFTAB1
 70
     6
  9
$SURFTAB2
 70
     6
  9
$SURFTYPE
 70
     6
  9
$SURFU
 70
     6
  9
$SURFV
 70
     6
  9
$UCSNAME
  2

  9
$UCSORG
 10
0.0
 20
0.0
 30
0.0
  9
$UCSXDIR
 10
1.0
 20
0.0
 30
0.0
  9
$UCSYDIR
 10
0.0
 20
1.0
 30
0.0
  9
$PUCSNAME
  2

  9
$PUCSORG
 10
0.0
 20
0.0
 30
0.0
  9
$PUCSXDIR
 10
1.0
 20
0.0
 30
0.0
  9
$PUCSYDIR
 10
0.0
 20
1.0
 30
0.0
  9
$USERI1
 70
     0
  9
$USERI2
 70
     0
  9
$USERI3
 70
     0
  9
$USERI4
 70
     0
  9
$USERI5
 70
     0
  9
$USERR1
 40
0.0
  9
$USERR2
 40
0.0
  9
$USERR3
 40
0.0
  9
$USERR4
 40
0.0
  9
$USERR5
 40
0.0
  9
$WORLDVIEW
 70
     1
  9
$SHADEDGE
 70
     3
  9
$SHADEDIF
 70
    70
  9
$TILEMODE
 70
     1
  9
$MAXACTVP
 70
    16
  9
$PINSBASE
 10
0.0
 20
0.0
 30
0.0
  9
$PLIMCHECK
 70
     0
  9
$PEXTMIN
 10
1.000000E+20
 20
1.000000E+20
 30
1.000000E+20
  9
$PEXTMAX
 10
-1.000000E+20
 20
-1.000000E+20
 30
-1.000000E+20
  9
$PLIMMIN
 10
0.0
 20
0.0
  9
$PLIMMAX
 10
12.0
 20
9.0
  9
$UNITMODE
 70
     0
  9
$VISRETAIN
 70
     0
  9
$PLINEGEN
 70
     0
  9
$PSLTSCALE
 70
     0
  9
$TREEDEPTH
 70
  3020
  9
$DWGCODEPAGE
  3
iso8859-1
  0
ENDSEC
  0
SECTION
  2
TABLES
  0
TABLE
  2
VPORT
 70
     2
  0
VPORT
  2
*ACTIVE
 70
     0
 10
0.0
 20
0.0
 11
1.0
 21
1.0
 12
293.357646
 22
37.322444
 13
0.0
 23
0.0
 14
1.0
 24
1.0
 15
10.0
 25
10.0
 16
0.0
 26
0.0
 36
1.0
 17
0.0
 27
0.0
 37
0.0
 40
14.85
 41
1.611024
 42
50.0
 43
0.0
 44
0.0
 50
0.0
 51
0.0
 71
     0
 72
   100
 73
     1
 74
     0
 75
     0
 76
     0
 77
     0
 78
     1
  0
ENDTAB
  0
TABLE
  2
LTYPE
 70
     1
  0
LTYPE
  2
CONTINUOUS
 70
    64
  3
Solid line
 72
    65
 73
     0
 40
0.0
  0
ENDTAB
  0
TABLE
  2
LAYER
 70
     3
  0
LAYER
  2
0
 70
    64
 62
     7
  6
CONTINUOUS
  0
LAYER
  2
MESURA
 70
     0
 62
     7
  6
CONTINUOUS
  0
LAYER
  2
DEFPOINTS
 70
     0
 62
     7
  6
CONTINUOUS
  0
ENDTAB
  0
TABLE
  2
STYLE
 70
     2
  0
STYLE
  2
STANDARD
 70
     0
 40
0.0
 41
1.0
 50
0.0
 71
     0
 42
0.1
  3
txt
  4

  0
STYLE
  2
ROMANC
 70
    64
 40
0.0
 41
1.0
 50
0.0
 71
     0
 42
0.1
  3
romanc
  4

  0
ENDTAB
  0
TABLE
  2
VIEW
 70
     0
  0
ENDTAB
  0
TABLE
  2
UCS
 70
     0
  0
ENDTAB
  0
TABLE
  2
APPID
 70
     1
  0
APPID
  2
ACAD
 70
    64
  0
ENDTAB
  0
TABLE
  2
DIMSTYLE
 70
     1
  0
DIMSTYLE
  2
SILVIA
 70
     0
  3

  4

  5

  6

  7

 40
1.5
 41
0.1
 42
0.01
 43
7.0
 44
0.01
 45
0.0
 46
0.0
 47
0.0
 48
0.0
140
0.05
141
0.1
142
0.0
143
25.4
144
1.0
145
0.0
146
70.0
147
0.09
 71
     0
 72
     0
 73
     0
 74
     0
 75
     0
 76
     0
 77
     1
 78
     0
170
     0
171
     2
172
     1
173
     0
174
     1
175
     0
176
     0
177
     0
178
     0
  0
ENDTAB
  0
ENDSEC
  0
SECTION
  2
BLOCKS
  0
BLOCK
  8
0
  2
*D0
 70
    65
 10
0.0
 20
0.0
 30
0.0
  3
*D
  0
LINE
  8
0
  6
BYBLOCK
 62
     0
 10
286.31761
 20
36.832609
 30
0.0
 11
284.966096
 21
36.832609
 31
0.0
  0
LINE
  8
0
  6
BYBLOCK
 62
     0
 10
286.31761
 20
34.632609
 30
0.0
 11
284.966096
 21
34.632609
 31
0.0
  0
LINE
  8
0
  6
BYBLOCK
 62
     0
 10
284.981096
 20
36.682609
 30
0.0
 11
284.981096
 21
34.782609
 31
0.0
  0
SOLID
  8
0
  6
BYBLOCK
 62
     0
 10
284.956096
 20
36.682609
 30
0.0
 11
285.006096
 21
36.682609
 31
0.0
 12
284.981096
 22
36.832609
 32
0.0
 13
284.981096
 23
36.832609
 33
0.0
  0
SOLID
  8
0
  6
BYBLOCK
 62
     0
 10
284.956096
 20
34.782609
 30
0.0
 11
285.006096
 21
34.782609
 31
0.0
 12
284.981096
 22
34.632609
 32
0.0
 13
284.981096
 23
34.632609
 33
0.0
  0
TEXT
  8
0
  6
BYBLOCK
 62
     0
 10
284.943596
 20
35.602252
 30
0.0
 40
0.075
  1
1.30
 50
90.0
  7
ROMANC
 72
     1
 11
284.906096
 21
35.732609
 31
0.0
 73
     2
  0
POINT
  8
DEFPOINTS
  6
BYBLOCK
 62
     0
 10
286.33261
 20
36.832609
 30
0.0
  0
POINT
  8
DEFPOINTS
  6
BYBLOCK
 62
     0
 10
286.33261
 20
34.632609
 30
0.0
  0
POINT
  8
DEFPOINTS
  6
BYBLOCK
 62
     0
 10
284.981096
 20
34.632609
 30
0.0
  0
ENDBLK
  8
0
  0
BLOCK
  8
0
  2
*D1
 70
    65
 10
0.0
 20
0.0
 30
0.0
  3
*D
  0
LINE
  8
0
  6
BYBLOCK
 62
     0
 10
286.31761
 20
36.832609
 30
0.0
 11
284.966096
 21
36.832609
 31
0.0
  0
LINE
  8
0
  6
BYBLOCK
 62
     0
 10
285.61857
 20
34.632609
 30
0.0
 11
284.966096
 21
34.632609
 31
0.0
  0
LINE
  8
0
  6
BYBLOCK
 62
     0
 10
284.981096
 20
36.682609
 30
0.0
 11
284.981096
 21
34.782609
 31
0.0
  0
SOLID
  8
0
  6
BYBLOCK
 62
     0
 10
284.956096
 20
36.682609
 30
0.0
 11
285.006096
 21
36.682609
 31
0.0
 12
284.981096
 22
36.832609
 32
0.0
 13
284.981096
 23
36.832609
 33
0.0
  0
SOLID
  8
0
  6
BYBLOCK
 62
     0
 10
284.956096
 20
34.782609
 30
0.0
 11
285.006096
 21
34.782609
 31
0.0
 12
284.981096
 22
34.632609
 32
0.0
 13
284.981096
 23
34.632609
 33
0.0
  0
TEXT
  8
0
  6
BYBLOCK
 62
     0
 10
284.943596
 20
35.602252
 30
0.0
 40
0.075
  1
1.30
 50
90.0
  7
ROMANC
 72
     1
 11
284.906096
 21
35.732609
 31
0.0
 73
     2
  0
POINT
  8
DEFPOINTS
  6
BYBLOCK
 62
     0
 10
286.33261
 20
36.832609
 30
0.0
  0
POINT
  8
DEFPOINTS
  6
BYBLOCK
 62
     0
 10
285.63357
 20
34.632609
 30
0.0
  0
POINT
  8
DEFPOINTS
  6
BYBLOCK
 62
     0
 10
284.981096
 20
34.632609
 30
0.0
  0
ENDBLK
  8
0
  0
BLOCK
  8
0
  2
*D2
 70
    65
 10
0.0
 20
0.0
 30
0.0
  3
*D
  0
LINE
  8
0
  6
BYBLOCK
 62
     0
 10
286.31761
 20
36.832609
 30
0.0
 11
284.738123
 21
36.832609
 31
0.0
  0
LINE
  8
0
  6
BYBLOCK
 62
     0
 10
285.61857
 20
34.632609
 30
0.0
 11
284.738123
 21
34.632609
 31
0.0
  0
LINE
  8
0
  6
BYBLOCK
 62
     0
 10
284.753123
 20
36.682609
 30
0.0
 11
284.753123
 21
34.782609
 31
0.0
  0
SOLID
  8
0
  6
BYBLOCK
 62
     0
 10
284.728123
 20
36.682609
 30
0.0
 11
284.778123
 21
36.682609
 31
0.0
 12
284.753123
 22
36.832609
 32
0.0
 13
284.753123
 23
36.832609
 33
0.0
  0
SOLID
  8
0
  6
BYBLOCK
 62
     0
 10
284.728123
 20
34.782609
 30
0.0
 11
284.778123
 21
34.782609
 31
0.0
 12
284.753123
 22
34.632609
 32
0.0
 13
284.753123
 23
34.632609
 33
0.0
  0
TEXT
  8
0
  6
BYBLOCK
 62
     0
 10
284.715623
 20
35.602252
 30
0.0
 40
0.075
  1
1.30
 50
90.0
  7
ROMANC
 72
     1
 11
284.678123
 21
35.732609
 31
0.0
 73
     2
  0
POINT
  8
DEFPOINTS
  6
BYBLOCK
 62
     0
 10
286.33261
 20
36.832609
 30
0.0
  0
POINT
  8
DEFPOINTS
  6
BYBLOCK
 62
     0
 10
285.63357
 20
34.632609
 30
0.0
  0
POINT
  8
DEFPOINTS
  6
BYBLOCK
 62
     0
 10
284.753123
 20
34.632609
 30
0.0
  0
ENDBLK
  8
0
  0
BLOCK
  8
0
  2
*D3
 70
    65
 10
0.0
 20
0.0
 30
0.0
  3
*D
  0
LINE
  8
0
  6
BYBLOCK
 62
     0
 10
285.61761
 20
36.132609
 30
0.0
 11
285.241236
 21
36.132609
 31
0.0
  0
LINE
  8
0
  6
BYBLOCK
 62
     0
 10
285.61761
 20
34.63538
 30
0.0
 11
285.241236
 21
34.63538
 31
0.0
  0
LINE
  8
0
  6
BYBLOCK
 62
     0
 10
285.256236
 20
35.982609
 30
0.0
 11
285.256236
 21
34.78538
 31
0.0
  0
SOLID
  8
0
  6
BYBLOCK
 62
     0
 10
285.231236
 20
35.982609
 30
0.0
 11
285.281236
 21
35.982609
 31
0.0
 12
285.256236
 22
36.132609
 32
0.0
 13
285.256236
 23
36.132609
 33
0.0
  0
SOLID
  8
0
  6
BYBLOCK
 62
     0
 10
285.231236
 20
34.78538
 30
0.0
 11
285.281236
 21
34.78538
 31
0.0
 12
285.256236
 22
34.63538
 32
0.0
 13
285.256236
 23
34.63538
 33
0.0
  0
TEXT
  8
0
  6
BYBLOCK
 62
     0
 10
285.218736
 20
35.258995
 30
0.0
 40
0.075
  1
0.85
 50
90.0
  7
ROMANC
 72
     1
 11
285.181236
 21
35.383995
 31
0.0
 73
     2
  0
POINT
  8
DEFPOINTS
  6
BYBLOCK
 62
     0
 10
285.63261
 20
36.132609
 30
0.0
  0
POINT
  8
DEFPOINTS
  6
BYBLOCK
 62
     0
 10
285.63261
 20
34.63538
 30
0.0
  0
POINT
  8
DEFPOINTS
  6
BYBLOCK
 62
     0
 10
285.256236
 20
34.63538
 30
0.0
  0
ENDBLK
  8
0
  0
BLOCK
  8
0
  2
*D4
 70
    65
 10
0.0
 20
0.0
 30
0.0
  3
*D
  0
LINE
  8
0
  6
BYBLOCK
 62
     0
 10
286.31761
 20
36.832609
 30
0.0
 11
284.738123
 21
36.832609
 31
0.0
  0
LINE
  8
0
  6
BYBLOCK
 62
     0
 10
285.61857
 20
35.248573
 30
0.0
 11
284.738123
 21
35.248573
 31
0.0
  0
LINE
  8
0
  6
BYBLOCK
 62
     0
 10
284.753123
 20
36.682609
 30
0.0
 11
284.753123
 21
35.398573
 31
0.0
  0
SOLID
  8
0
  6
BYBLOCK
 62
     0
 10
284.728123
 20
36.682609
 30
0.0
 11
284.778123
 21
36.682609
 31
0.0
 12
284.753123
 22
36.832609
 32
0.0
 13
284.753123
 23
36.832609
 33
0.0
  0
SOLID
  8
0
  6
BYBLOCK
 62
     0
 10
284.728123
 20
35.398573
 30
0.0
 11
284.778123
 21
35.398573
 31
0.0
 12
284.753123
 22
35.248573
 32
0.0
 13
284.753123
 23
35.248573
 33
0.0
  0
TEXT
  8
0
  6
BYBLOCK
 62
     0
 10
284.715623
 20
35.910234
 30
0.0
 40
0.075
  1
1.30
 50
90.0
  7
ROMANC
 72
     1
 11
284.678123
 21
36.040591
 31
0.0
 73
     2
  0
POINT
  8
DEFPOINTS
  6
BYBLOCK
 62
     0
 10
286.33261
 20
36.832609
 30
0.0
  0
POINT
  8
DEFPOINTS
  6
BYBLOCK
 62
     0
 10
285.63357
 20
35.248573
 30
0.0
  0
POINT
  8
DEFPOINTS
  6
BYBLOCK
 62
     0
 10
284.753123
 20
35.248573
 30
0.0
  0
ENDBLK
  8
0
  0
BLOCK
  8
0
  2
*D5
 70
    65
 10
0.0
 20
0.0
 30
0.0
  3
*D
  0
LINE
  8
0
  6
BYBLOCK
 62
     0
 10
286.31761
 20
36.832609
 30
0.0
 11
284.738123
 21
36.832609
 31
0.0
  0
LINE
  8
0
  6
BYBLOCK
 62
     0
 10
285.60261
 20
34.63538
 30
0.0
 11
284.738123
 21
34.63538
 31
0.0
  0
LINE
  8
0
  6
BYBLOCK
 62
     0
 10
284.753123
 20
36.682609
 30
0.0
 11
284.753123
 21
34.78538
 31
0.0
  0
SOLID
  8
0
  6
BYBLOCK
 62
     0
 10
284.728123
 20
36.682609
 30
0.0
 11
284.778123
 21
36.682609
 31
0.0
 12
284.753123
 22
36.832609
 32
0.0
 13
284.753123
 23
36.832609
 33
0.0
  0
SOLID
  8
0
  6
BYBLOCK
 62
     0
 10
284.728123
 20
34.78538
 30
0.0
 11
284.778123
 21
34.78538
 31
0.0
 12
284.753123
 22
34.63538
 32
0.0
 13
284.753123
 23
34.63538
 33
0.0
  0
TEXT
  8
0
  6
BYBLOCK
 62
     0
 10
284.715623
 20
35.603638
 30
0.0
 40
0.075
  1
1.30
 50
90.0
  7
ROMANC
 72
     1
 11
284.678123
 21
35.733995
 31
0.0
 73
     2
  0
POINT
  8
DEFPOINTS
  6
BYBLOCK
 62
     0
 10
286.33261
 20
36.832609
 30
0.0
  0
POINT
  8
DEFPOINTS
  6
BYBLOCK
 62
     0
 10
285.61761
 20
34.63538
 30
0.0
  0
POINT
  8
DEFPOINTS
  6
BYBLOCK
 62
     0
 10
284.753123
 20
34.63538
 30
0.0
  0
ENDBLK
  8
0
  0
BLOCK
  8
0
  2
*D6
 70
    65
 10
0.0
 20
0.0
 30
0.0
  3
*D
  0
LINE
  8
0
  6
BYBLOCK
 62
     0
 10
285.63261
 20
36.117609
 30
0.0
 11
285.63261
 21
36.115724
 31
0.0
  0
LINE
  8
0
  6
BYBLOCK
 62
     0
 10
287.03261
 20
36.117609
 30
0.0
 11
287.03261
 21
36.115724
 31
0.0
  0
LINE
  8
0
  6
BYBLOCK
 62
     0
 10
285.78261
 20
36.130724
 30
0.0
 11
286.88261
 21
36.130724
 31
0.0
  0
SOLID
  8
0
  6
BYBLOCK
 62
     0
 10
285.78261
 20
36.155724
 30
0.0
 11
285.78261
 21
36.105724
 31
0.0
 12
285.63261
 22
36.130724
 32
0.0
 13
285.63261
 23
36.130724
 33
0.0
  0
SOLID
  8
0
  6
BYBLOCK
 62
     0
 10
286.88261
 20
36.155724
 30
0.0
 11
286.88261
 21
36.105724
 31
0.0
 12
287.03261
 22
36.130724
 32
0.0
 13
287.03261
 23
36.130724
 33
0.0
  0
TEXT
  8
0
  6
BYBLOCK
 62
     0
 10
286.20761
 20
36.168224
 30
0.0
 40
0.075
  1
0.70
  7
ROMANC
 72
     1
 11
286.33261
 21
36.205724
 31
0.0
 73
     2
  0
POINT
  8
DEFPOINTS
  6
BYBLOCK
 62
     0
 10
285.63261
 20
36.132609
 30
0.0
  0
POINT
  8
DEFPOINTS
  6
BYBLOCK
 62
     0
 10
287.03261
 20
36.132609
 30
0.0
  0
POINT
  8
DEFPOINTS
  6
BYBLOCK
 62
     0
 10
287.03261
 20
36.130724
 30
0.0
  0
ENDBLK
  8
0
  0
BLOCK
  8
0
  2
*D7
 70
    65
 10
0.0
 20
0.0
 30
0.0
  3
*D
  0
LINE
  8
0
  6
BYBLOCK
 62
     0
 10
286.23261
 20
34.617609
 30
0.0
 11
286.23261
 21
33.986628
 31
0.0
  0
LINE
  8
0
  6
BYBLOCK
 62
     0
 10
287.03261
 20
34.617609
 30
0.0
 11
287.03261
 21
33.986628
 31
0.0
  0
LINE
  8
0
  6
BYBLOCK
 62
     0
 10
286.38261
 20
34.001628
 30
0.0
 11
286.88261
 21
34.001628
 31
0.0
  0
SOLID
  8
0
  6
BYBLOCK
 62
     0
 10
286.38261
 20
34.026628
 30
0.0
 11
286.38261
 21
33.976628
 31
0.0
 12
286.23261
 22
34.001628
 32
0.0
 13
286.23261
 23
34.001628
 33
0.0
  0
SOLID
  8
0
  6
BYBLOCK
 62
     0
 10
286.88261
 20
34.026628
 30
0.0
 11
286.88261
 21
33.976628
 31
0.0
 12
287.03261
 22
34.001628
 32
0.0
 13
287.03261
 23
34.001628
 33
0.0
  0
TEXT
  8
0
  6
BYBLOCK
 62
     0
 10
286.50761
 20
34.039128
 30
0.0
 40
0.075
  1
0.80
  7
ROMANC
 72
     1
 11
286.63261
 21
34.076628
 31
0.0
 73
     2
  0
POINT
  8
DEFPOINTS
  6
BYBLOCK
 62
     0
 10
286.23261
 20
34.632609
 30
0.0
  0
POINT
  8
DEFPOINTS
  6
BYBLOCK
 62
     0
 10
287.03261
 20
34.632609
 30
0.0
  0
POINT
  8
DEFPOINTS
  6
BYBLOCK
 62
     0
 10
287.03261
 20
34.001628
 30
0.0
  0
ENDBLK
  8
0
  0
BLOCK
  8
0
  2
*D8
 70
    65
 10
0.0
 20
0.0
 30
0.0
  3
*D
  0
LINE
  8
0
  6
BYBLOCK
 62
     0
 10
284.753123
 20
34.63538
 30
0.0
 11
285.271236
 21
34.63538
 31
0.0
  0
LINE
  8
0
  6
BYBLOCK
 62
     0
 10
285.918177
 20
34.432609
 30
0.0
 11
285.241236
 21
34.432609
 31
0.0
  0
LINE
  8
0
  6
BYBLOCK
 62
     0
 10
285.256236
 20
34.78538
 30
0.0
 11
285.256236
 21
34.93538
 31
0.0
  0
LINE
  8
0
  6
BYBLOCK
 62
     0
 10
285.256236
 20
34.282609
 30
0.0
 11
285.256236
 21
34.132609
 31
0.0
  0
SOLID
  8
0
  6
BYBLOCK
 62
     0
 10
285.231236
 20
34.78538
 30
0.0
 11
285.281236
 21
34.78538
 31
0.0
 12
285.256236
 22
34.63538
 32
0.0
 13
285.256236
 23
34.63538
 33
0.0
  0
SOLID
  8
0
  6
BYBLOCK
 62
     0
 10
285.231236
 20
34.282609
 30
0.0
 11
285.281236
 21
34.282609
 31
0.0
 12
285.256236
 22
34.432609
 32
0.0
 13
285.256236
 23
34.432609
 33
0.0
  0
LINE
  8
0
  6
BYBLOCK
 62
     0
 10
285.256236
 20
34.63538
 30
0.0
 11
285.256236
 21
34.432609
 31
0.0
  0
TEXT
  8
0
  6
BYBLOCK
 62
     0
 10
285.218736
 20
34.408994
 30
0.0
 40
0.075
  1
0.10
 50
90.0
  7
ROMANC
 72
     1
 11
285.181236
 21
34.533994
 31
0.0
 73
     2
  0
POINT
  8
DEFPOINTS
  6
BYBLOCK
 62
     0
 10
284.738123
 20
34.63538
 30
0.0
  0
POINT
  8
DEFPOINTS
  6
BYBLOCK
 62
     0
 10
285.933177
 20
34.432609
 30
0.0
  0
POINT
  8
DEFPOINTS
  6
BYBLOCK
 62
     0
 10
285.256236
 20
34.432609
 30
0.0
  0
ENDBLK
  8
0
  0
BLOCK
  8
0
  2
*D9
 70
    65
 10
0.0
 20
0.0
 30
0.0
  3
*D
  0
LINE
  8
0
  6
BYBLOCK
 62
     0
 10
286.31761
 20
36.832609
 30
0.0
 11
284.738123
 21
36.832609
 31
0.0
  0
LINE
  8
0
  6
BYBLOCK
 62
     0
 10
285.60261
 20
34.432609
 30
0.0
 11
284.738123
 21
34.432609
 31
0.0
  0
LINE
  8
0
  6
BYBLOCK
 62
     0
 10
284.753123
 20
36.682609
 30
0.0
 11
284.753123
 21
34.582609
 31
0.0
  0
SOLID
  8
0
  6
BYBLOCK
 62
     0
 10
284.728123
 20
36.682609
 30
0.0
 11
284.778123
 21
36.682609
 31
0.0
 12
284.753123
 22
36.832609
 32
0.0
 13
284.753123
 23
36.832609
 33
0.0
  0
SOLID
  8
0
  6
BYBLOCK
 62
     0
 10
284.728123
 20
34.582609
 30
0.0
 11
284.778123
 21
34.582609
 31
0.0
 12
284.753123
 22
34.432609
 32
0.0
 13
284.753123
 23
34.432609
 33
0.0
  0
TEXT
  8
0
  6
BYBLOCK
 62
     0
 10
284.715623
 20
35.502252
 30
0.0
 40
0.075
  1
1.30
 50
90.0
  7
ROMANC
 72
     1
 11
284.678123
 21
35.632609
 31
0.0
 73
     2
  0
POINT
  8
DEFPOINTS
  6
BYBLOCK
 62
     0
 10
286.33261
 20
36.832609
 30
0.0
  0
POINT
  8
DEFPOINTS
  6
BYBLOCK
 62
     0
 10
285.61761
 20
34.432609
 30
0.0
  0
POINT
  8
DEFPOINTS
  6
BYBLOCK
 62
     0
 10
284.753123
 20
34.432609
 30
0.0
  0
ENDBLK
  8
0
  0
BLOCK
  8
0
  2
*D10
 70
    65
 10
0.0
 20
0.0
 30
0.0
  3
*D
  0
LINE
  8
0
  6
BYBLOCK
 62
     0
 10
284.753123
 20
34.63538
 30
0.0
 11
285.271236
 21
34.63538
 31
0.0
  0
LINE
  8
0
  6
BYBLOCK
 62
     0
 10
285.918177
 20
34.432609
 30
0.0
 11
285.241236
 21
34.432609
 31
0.0
  0
LINE
  8
0
  6
BYBLOCK
 62
     0
 10
285.256236
 20
34.78538
 30
0.0
 11
285.256236
 21
34.93538
 31
0.0
  0
LINE
  8
0
  6
BYBLOCK
 62
     0
 10
285.256236
 20
34.282609
 30
0.0
 11
285.256236
 21
34.132609
 31
0.0
  0
SOLID
  8
0
  6
BYBLOCK
 62
     0
 10
285.231236
 20
34.78538
 30
0.0
 11
285.281236
 21
34.78538
 31
0.0
 12
285.256236
 22
34.63538
 32
0.0
 13
285.256236
 23
34.63538
 33
0.0
  0
SOLID
  8
0
  6
BYBLOCK
 62
     0
 10
285.231236
 20
34.282609
 30
0.0
 11
285.281236
 21
34.282609
 31
0.0
 12
285.256236
 22
34.432609
 32
0.0
 13
285.256236
 23
34.432609
 33
0.0
  0
LINE
  8
0
  6
BYBLOCK
 62
     0
 10
285.256236
 20
34.63538
 30
0.0
 11
285.256236
 21
34.432609
 31
0.0
  0
TEXT
  8
0
  6
BYBLOCK
 62
     0
 10
285.218736
 20
34.041613
 30
0.0
 40
0.075
  1
0.10
 50
90.0
  7
ROMANC
 72
     1
 11
285.181236
 21
34.166613
 31
0.0
 73
     2
  0
POINT
  8
DEFPOINTS
  6
BYBLOCK
 62
     0
 10
284.738123
 20
34.63538
 30
0.0
  0
POINT
  8
DEFPOINTS
  6
BYBLOCK
 62
     0
 10
285.933177
 20
34.432609
 30
0.0
  0
POINT
  8
DEFPOINTS
  6
BYBLOCK
 62
     0
 10
285.256236
 20
34.432609
 30
0.0
  0
ENDBLK
  8
0
  0
BLOCK
  8
0
  2
*D11
 70
    65
 10
0.0
 20
0.0
 30
0.0
  3
*D
  0
LINE
  8
0
  6
BYBLOCK
 62
     0
 10
284.753123
 20
34.63538
 30
0.0
 11
285.271236
 21
34.63538
 31
0.0
  0
LINE
  8
0
  6
BYBLOCK
 62
     0
 10
285.918177
 20
34.432609
 30
0.0
 11
285.241236
 21
34.432609
 31
0.0
  0
LINE
  8
0
  6
BYBLOCK
 62
     0
 10
285.256236
 20
34.78538
 30
0.0
 11
285.256236
 21
34.93538
 31
0.0
  0
LINE
  8
0
  6
BYBLOCK
 62
     0
 10
285.256236
 20
34.282609
 30
0.0
 11
285.256236
 21
34.132609
 31
0.0
  0
SOLID
  8
0
  6
BYBLOCK
 62
     0
 10
285.231236
 20
34.78538
 30
0.0
 11
285.281236
 21
34.78538
 31
0.0
 12
285.256236
 22
34.63538
 32
0.0
 13
285.256236
 23
34.63538
 33
0.0
  0
SOLID
  8
0
  6
BYBLOCK
 62
     0
 10
285.231236
 20
34.282609
 30
0.0
 11
285.281236
 21
34.282609
 31
0.0
 12
285.256236
 22
34.432609
 32
0.0
 13
285.256236
 23
34.432609
 33
0.0
  0
LINE
  8
0
  6
BYBLOCK
 62
     0
 10
285.256236
 20
34.63538
 30
0.0
 11
285.256236
 21
34.432609
 31
0.0
  0
TEXT
  8
0
  6
BYBLOCK
 62
     0
 10
285.218736
 20
34.410866
 30
0.0
 40
0.075
  1
0.10
 50
90.0
  7
ROMANC
 72
     1
 11
285.181236
 21
34.535866
 31
0.0
 73
     2
  0
POINT
  8
DEFPOINTS
  6
BYBLOCK
 62
     0
 10
284.738123
 20
34.63538
 30
0.0
  0
POINT
  8
DEFPOINTS
  6
BYBLOCK
 62
     0
 10
285.933177
 20
34.432609
 30
0.0
  0
POINT
  8
DEFPOINTS
  6
BYBLOCK
 62
     0
 10
285.256236
 20
34.432609
 30
0.0
  0
ENDBLK
  8
0
  0
BLOCK
  8
0
  2
*D12
 70
    65
 10
0.0
 20
0.0
 30
0.0
  3
*D
  0
LINE
  8
0
  6
BYBLOCK
 62
     0
 10
285.60261
 20
34.63538
 30
0.0
 11
285.241236
 21
34.63538
 31
0.0
  0
LINE
  8
0
  6
BYBLOCK
 62
     0
 10
285.918177
 20
34.432609
 30
0.0
 11
285.241236
 21
34.432609
 31
0.0
  0
LINE
  8
0
  6
BYBLOCK
 62
     0
 10
285.256236
 20
34.78538
 30
0.0
 11
285.256236
 21
34.93538
 31
0.0
  0
LINE
  8
0
  6
BYBLOCK
 62
     0
 10
285.256236
 20
34.282609
 30
0.0
 11
285.256236
 21
34.132609
 31
0.0
  0
SOLID
  8
0
  6
BYBLOCK
 62
     0
 10
285.231236
 20
34.78538
 30
0.0
 11
285.281236
 21
34.78538
 31
0.0
 12
285.256236
 22
34.63538
 32
0.0
 13
285.256236
 23
34.63538
 33
0.0
  0
SOLID
  8
0
  6
BYBLOCK
 62
     0
 10
285.231236
 20
34.282609
 30
0.0
 11
285.281236
 21
34.282609
 31
0.0
 12
285.256236
 22
34.432609
 32
0.0
 13
285.256236
 23
34.432609
 33
0.0
  0
LINE
  8
0
  6
BYBLOCK
 62
     0
 10
285.256236
 20
34.63538
 30
0.0
 11
285.256236
 21
34.432609
 31
0.0
  0
TEXT
  8
0
  6
BYBLOCK
 62
     0
 10
285.218736
 20
34.410866
 30
0.0
 40
0.075
  1
0.10
 50
90.0
  7
ROMANC
 72
     1
 11
285.181236
 21
34.535866
 31
0.0
 73
     2
  0
POINT
  8
DEFPOINTS
  6
BYBLOCK
 62
     0
 10
285.61761
 20
34.63538
 30
0.0
  0
POINT
  8
DEFPOINTS
  6
BYBLOCK
 62
     0
 10
285.933177
 20
34.432609
 30
0.0
  0
POINT
  8
DEFPOINTS
  6
BYBLOCK
 62
     0
 10
285.256236
 20
34.432609
 30
0.0
  0
ENDBLK
  8
0
  0
BLOCK
  8
0
  2
*D13
 70
    65
 10
0.0
 20
0.0
 30
0.0
  3
*D
  0
LINE
  8
0
  6
BYBLOCK
 62
     0
 10
286.23261
 20
34.602609
 30
0.0
 11
286.23261
 21
33.986628
 31
0.0
  0
LINE
  8
0
  6
BYBLOCK
 62
     0
 10
285.63261
 20
34.62038
 30
0.0
 11
285.63261
 21
33.986628
 31
0.0
  0
LINE
  8
0
  6
BYBLOCK
 62
     0
 10
286.38261
 20
34.001628
 30
0.0
 11
286.53261
 21
34.001628
 31
0.0
  0
LINE
  8
0
  6
BYBLOCK
 62
     0
 10
285.48261
 20
34.001628
 30
0.0
 11
285.33261
 21
34.001628
 31
0.0
  0
SOLID
  8
0
  6
BYBLOCK
 62
     0
 10
286.38261
 20
34.026628
 30
0.0
 11
286.38261
 21
33.976628
 31
0.0
 12
286.23261
 22
34.001628
 32
0.0
 13
286.23261
 23
34.001628
 33
0.0
  0
SOLID
  8
0
  6
BYBLOCK
 62
     0
 10
285.48261
 20
34.026628
 30
0.0
 11
285.48261
 21
33.976628
 31
0.0
 12
285.63261
 22
34.001628
 32
0.0
 13
285.63261
 23
34.001628
 33
0.0
  0
LINE
  8
0
  6
BYBLOCK
 62
     0
 10
286.23261
 20
34.001628
 30
0.0
 11
285.63261
 21
34.001628
 31
0.0
  0
TEXT
  8
0
  6
BYBLOCK
 62
     0
 10
285.80761
 20
34.039128
 30
0.0
 40
0.075
  1
0.30
  7
ROMANC
 72
     1
 11
285.93261
 21
34.076628
 31
0.0
 73
     2
  0
POINT
  8
DEFPOINTS
  6
BYBLOCK
 62
     0
 10
286.23261
 20
34.617609
 30
0.0
  0
POINT
  8
DEFPOINTS
  6
BYBLOCK
 62
     0
 10
285.63261
 20
34.63538
 30
0.0
  0
POINT
  8
DEFPOINTS
  6
BYBLOCK
 62
     0
 10
285.63261
 20
34.001628
 30
0.0
  0
ENDBLK
  8
0
  0
BLOCK
  8
0
  2
*D14
 70
    65
 10
0.0
 20
0.0
 30
0.0
  3
*D
  0
LINE
  8
0
  6
BYBLOCK
 62
     0
 10
285.957417
 20
35.853555
 30
0.0
 11
285.957417
 21
35.870455
 31
0.0
  0
LINE
  8
0
  6
BYBLOCK
 62
     0
 10
286.657417
 20
35.853555
 30
0.0
 11
286.657417
 21
35.870455
 31
0.0
  0
LINE
  8
0
  6
BYBLOCK
 62
     0
 10
285.807417
 20
35.855455
 30
0.0
 11
285.657417
 21
35.855455
 31
0.0
  0
LINE
  8
0
  6
BYBLOCK
 62
     0
 10
286.807417
 20
35.855455
 30
0.0
 11
286.957417
 21
35.855455
 31
0.0
  0
SOLID
  8
0
  6
BYBLOCK
 62
     0
 10
285.807417
 20
35.880455
 30
0.0
 11
285.807417
 21
35.830455
 31
0.0
 12
285.957417
 22
35.855455
 32
0.0
 13
285.957417
 23
35.855455
 33
0.0
  0
SOLID
  8
0
  6
BYBLOCK
 62
     0
 10
286.807417
 20
35.880455
 30
0.0
 11
286.807417
 21
35.830455
 31
0.0
 12
286.657417
 22
35.855455
 32
0.0
 13
286.657417
 23
35.855455
 33
0.0
  0
LINE
  8
0
  6
BYBLOCK
 62
     0
 10
285.957417
 20
35.855455
 30
0.0
 11
286.657417
 21
35.855455
 31
0.0
  0
TEXT
  8
0
  6
BYBLOCK
 62
     0
 10
286.182417
 20
35.892955
 30
0.0
 40
0.075
  1
0.70
  7
ROMANC
 72
     1
 11
286.307417
 21
35.930455
 31
0.0
 73
     2
  0
POINT
  8
DEFPOINTS
  6
BYBLOCK
 62
     0
 10
285.957417
 20
35.838555
 30
0.0
  0
POINT
  8
DEFPOINTS
  6
BYBLOCK
 62
     0
 10
286.657417
 20
35.838555
 30
0.0
  0
POINT
  8
DEFPOINTS
  6
BYBLOCK
 62
     0
 10
286.657417
 20
35.855455
 30
0.0
  0
ENDBLK
  8
0
  0
BLOCK
  8
0
  2
*D15
 70
    65
 10
0.0
 20
0.0
 30
0.0
  3
*D
  0
LINE
  8
0
  6
BYBLOCK
 62
     0
 10
286.657417
 20
35.073555
 30
0.0
 11
286.657417
 21
34.783212
 31
0.0
  0
LINE
  8
0
  6
BYBLOCK
 62
     0
 10
286.257417
 20
35.073555
 30
0.0
 11
286.257417
 21
34.783212
 31
0.0
  0
LINE
  8
0
  6
BYBLOCK
 62
     0
 10
286.807417
 20
34.798212
 30
0.0
 11
286.957417
 21
34.798212
 31
0.0
  0
LINE
  8
0
  6
BYBLOCK
 62
     0
 10
286.107417
 20
34.798212
 30
0.0
 11
285.957417
 21
34.798212
 31
0.0
  0
SOLID
  8
0
  6
BYBLOCK
 62
     0
 10
286.807417
 20
34.823212
 30
0.0
 11
286.807417
 21
34.773212
 31
0.0
 12
286.657417
 22
34.798212
 32
0.0
 13
286.657417
 23
34.798212
 33
0.0
  0
SOLID
  8
0
  6
BYBLOCK
 62
     0
 10
286.107417
 20
34.823212
 30
0.0
 11
286.107417
 21
34.773212
 31
0.0
 12
286.257417
 22
34.798212
 32
0.0
 13
286.257417
 23
34.798212
 33
0.0
  0
LINE
  8
0
  6
BYBLOCK
 62
     0
 10
286.657417
 20
34.798212
 30
0.0
 11
286.257417
 21
34.798212
 31
0.0
  0
TEXT
  8
0
  6
BYBLOCK
 62
     0
 10
286.332417
 20
34.835712
 30
0.0
 40
0.075
  1
0.40
  7
ROMANC
 72
     1
 11
286.457417
 21
34.873212
 31
0.0
 73
     2
  0
POINT
  8
DEFPOINTS
  6
BYBLOCK
 62
     0
 10
286.657417
 20
35.088555
 30
0.0
  0
POINT
  8
DEFPOINTS
  6
BYBLOCK
 62
     0
 10
286.257417
 20
35.088555
 30
0.0
  0
POINT
  8
DEFPOINTS
  6
BYBLOCK
 62
     0
 10
286.257417
 20
34.798212
 30
0.0
  0
ENDBLK
  8
0
  0
BLOCK
  8
0
  2
*D16
 70
    65
 10
0.0
 20
0.0
 30
0.0
  3
*D
  0
LINE
  8
0
  6
BYBLOCK
 62
     0
 10
286.257417
 20
35.073555
 30
0.0
 11
286.257417
 21
34.783212
 31
0.0
  0
LINE
  8
0
  6
BYBLOCK
 62
     0
 10
285.957417
 20
35.07494
 30
0.0
 11
285.957417
 21
34.783212
 31
0.0
  0
LINE
  8
0
  6
BYBLOCK
 62
     0
 10
286.407417
 20
34.798212
 30
0.0
 11
286.557417
 21
34.798212
 31
0.0
  0
LINE
  8
0
  6
BYBLOCK
 62
     0
 10
285.807417
 20
34.798212
 30
0.0
 11
285.657417
 21
34.798212
 31
0.0
  0
SOLID
  8
0
  6
BYBLOCK
 62
     0
 10
286.407417
 20
34.823212
 30
0.0
 11
286.407417
 21
34.773212
 31
0.0
 12
286.257417
 22
34.798212
 32
0.0
 13
286.257417
 23
34.798212
 33
0.0
  0
SOLID
  8
0
  6
BYBLOCK
 62
     0
 10
285.807417
 20
34.823212
 30
0.0
 11
285.807417
 21
34.773212
 31
0.0
 12
285.957417
 22
34.798212
 32
0.0
 13
285.957417
 23
34.798212
 33
0.0
  0
LINE
  8
0
  6
BYBLOCK
 62
     0
 10
286.257417
 20
34.798212
 30
0.0
 11
285.957417
 21
34.798212
 31
0.0
  0
TEXT
  8
0
  6
BYBLOCK
 62
     0
 10
285.982417
 20
34.835712
 30
0.0
 40
0.075
  1
0.30
  7
ROMANC
 72
     1
 11
286.107417
 21
34.873212
 31
0.0
 73
     2
  0
POINT
  8
DEFPOINTS
  6
BYBLOCK
 62
     0
 10
286.257417
 20
35.088555
 30
0.0
  0
POINT
  8
DEFPOINTS
  6
BYBLOCK
 62
     0
 10
285.957417
 20
35.08994
 30
0.0
  0
POINT
  8
DEFPOINTS
  6
BYBLOCK
 62
     0
 10
285.957417
 20
34.798212
 30
0.0
  0
ENDBLK
  8
0
  0
BLOCK
  8
0
  2
*D17
 70
    65
 10
0.0
 20
0.0
 30
0.0
  3
*D
  0
LINE
  8
0
  6
BYBLOCK
 62
     0
 10
286.292417
 20
36.188555
 30
0.0
 11
285.028324
 21
36.188555
 31
0.0
  0
LINE
  8
0
  6
BYBLOCK
 62
     0
 10
286.0927
 20
34.988555
 30
0.0
 11
285.028324
 21
34.988555
 31
0.0
  0
LINE
  8
0
  6
BYBLOCK
 62
     0
 10
285.043324
 20
36.038555
 30
0.0
 11
285.043324
 21
35.138555
 31
0.0
  0
SOLID
  8
0
  6
BYBLOCK
 62
     0
 10
285.018324
 20
36.038555
 30
0.0
 11
285.068324
 21
36.038555
 31
0.0
 12
285.043324
 22
36.188555
 32
0.0
 13
285.043324
 23
36.188555
 33
0.0
  0
SOLID
  8
0
  6
BYBLOCK
 62
     0
 10
285.018324
 20
35.138555
 30
0.0
 11
285.068324
 21
35.138555
 31
0.0
 12
285.043324
 22
34.988555
 32
0.0
 13
285.043324
 23
34.988555
 33
0.0
  0
TEXT
  8
0
  6
BYBLOCK
 62
     0
 10
285.005824
 20
35.458198
 30
0.0
 40
0.075
  1
1.20
 50
90.0
  7
ROMANC
 72
     1
 11
284.968324
 21
35.588555
 31
0.0
 73
     2
  0
POINT
  8
DEFPOINTS
  6
BYBLOCK
 62
     0
 10
286.307417
 20
36.188555
 30
0.0
  0
POINT
  8
DEFPOINTS
  6
BYBLOCK
 62
     0
 10
286.1077
 20
34.988555
 30
0.0
  0
POINT
  8
DEFPOINTS
  6
BYBLOCK
 62
     0
 10
285.043324
 20
34.988555
 30
0.0
  0
ENDBLK
  8
0
  0
BLOCK
  8
0
  2
*D18
 70
    65
 10
0.0
 20
0.0
 30
0.0
  3
*D
  0
LINE
  8
0
  6
BYBLOCK
 62
     0
 10
285.942417
 20
34.98994
 30
0.0
 11
285.548775
 21
34.98994
 31
0.0
  0
LINE
  8
0
  6
BYBLOCK
 62
     0
 10
285.942417
 20
35.838555
 30
0.0
 11
285.548775
 21
35.838555
 31
0.0
  0
LINE
  8
0
  6
BYBLOCK
 62
     0
 10
285.563775
 20
35.13994
 30
0.0
 11
285.563775
 21
35.688555
 31
0.0
  0
SOLID
  8
0
  6
BYBLOCK
 62
     0
 10
285.538775
 20
35.13994
 30
0.0
 11
285.588775
 21
35.13994
 31
0.0
 12
285.563775
 22
34.98994
 32
0.0
 13
285.563775
 23
34.98994
 33
0.0
  0
SOLID
  8
0
  6
BYBLOCK
 62
     0
 10
285.538775
 20
35.688555
 30
0.0
 11
285.588775
 21
35.688555
 31
0.0
 12
285.563775
 22
35.838555
 32
0.0
 13
285.563775
 23
35.838555
 33
0.0
  0
TEXT
  8
0
  6
BYBLOCK
 62
     0
 10
285.526275
 20
35.289248
 30
0.0
 40
0.075
  1
0.85
 50
90.0
  7
ROMANC
 72
     1
 11
285.488775
 21
35.414248
 31
0.0
 73
     2
  0
POINT
  8
DEFPOINTS
  6
BYBLOCK
 62
     0
 10
285.957417
 20
34.98994
 30
0.0
  0
POINT
  8
DEFPOINTS
  6
BYBLOCK
 62
     0
 10
285.957417
 20
35.838555
 30
0.0
  0
POINT
  8
DEFPOINTS
  6
BYBLOCK
 62
     0
 10
285.563775
 20
35.838555
 30
0.0
  0
ENDBLK
  8
0
  0
BLOCK
  8
0
  2
*D19
 70
    65
 10
0.0
 20
0.0
 30
0.0
  3
*D
  0
LINE
  8
0
  6
BYBLOCK
 62
     0
 10
285.957417
 20
35.853555
 30
0.0
 11
285.957417
 21
35.853555
 31
0.0
  0
LINE
  8
0
  6
BYBLOCK
 62
     0
 10
286.657417
 20
35.853555
 30
0.0
 11
286.657417
 21
35.853555
 31
0.0
  0
LINE
  8
0
  6
BYBLOCK
 62
     0
 10
285.807417
 20
35.838555
 30
0.0
 11
285.657417
 21
35.838555
 31
0.0
  0
LINE
  8
0
  6
BYBLOCK
 62
     0
 10
286.807417
 20
35.838555
 30
0.0
 11
286.957417
 21
35.838555
 31
0.0
  0
SOLID
  8
0
  6
BYBLOCK
 62
     0
 10
285.807417
 20
35.863555
 30
0.0
 11
285.807417
 21
35.813555
 31
0.0
 12
285.957417
 22
35.838555
 32
0.0
 13
285.957417
 23
35.838555
 33
0.0
  0
SOLID
  8
0
  6
BYBLOCK
 62
     0
 10
286.807417
 20
35.863555
 30
0.0
 11
286.807417
 21
35.813555
 31
0.0
 12
286.657417
 22
35.838555
 32
0.0
 13
286.657417
 23
35.838555
 33
0.0
  0
LINE
  8
0
  6
BYBLOCK
 62
     0
 10
285.957417
 20
35.838555
 30
0.0
 11
286.657417
 21
35.838555
 31
0.0
  0
TEXT
  8
0
  6
BYBLOCK
 62
     0
 10
286.182417
 20
35.876055
 30
0.0
 40
0.075
  1
0.70
  7
ROMANC
 72
     1
 11
286.307417
 21
35.913555
 31
0.0
 73
     2
  0
POINT
  8
DEFPOINTS
  6
BYBLOCK
 62
     0
 10
285.957417
 20
35.838555
 30
0.0
  0
POINT
  8
DEFPOINTS
  6
BYBLOCK
 62
     0
 10
286.657417
 20
35.838555
 30
0.0
  0
POINT
  8
DEFPOINTS
  6
BYBLOCK
 62
     0
 10
286.657417
 20
35.838555
 30
0.0
  0
ENDBLK
  8
0
  0
BLOCK
  8
0
  2
*D20
 70
    65
 10
0.0
 20
0.0
 30
0.0
  3
*D
  0
LINE
  8
0
  6
BYBLOCK
 62
     0
 10
285.927417
 20
34.98994
 30
0.0
 11
285.548775
 21
34.98994
 31
0.0
  0
LINE
  8
0
  6
BYBLOCK
 62
     0
 10
286.0927
 20
34.888555
 30
0.0
 11
285.548775
 21
34.888555
 31
0.0
  0
LINE
  8
0
  6
BYBLOCK
 62
     0
 10
285.563775
 20
35.13994
 30
0.0
 11
285.563775
 21
35.28994
 31
0.0
  0
LINE
  8
0
  6
BYBLOCK
 62
     0
 10
285.563775
 20
34.738555
 30
0.0
 11
285.563775
 21
34.588555
 31
0.0
  0
SOLID
  8
0
  6
BYBLOCK
 62
     0
 10
285.538775
 20
35.13994
 30
0.0
 11
285.588775
 21
35.13994
 31
0.0
 12
285.563775
 22
34.98994
 32
0.0
 13
285.563775
 23
34.98994
 33
0.0
  0
SOLID
  8
0
  6
BYBLOCK
 62
     0
 10
285.538775
 20
34.738555
 30
0.0
 11
285.588775
 21
34.738555
 31
0.0
 12
285.563775
 22
34.888555
 32
0.0
 13
285.563775
 23
34.888555
 33
0.0
  0
LINE
  8
0
  6
BYBLOCK
 62
     0
 10
285.563775
 20
34.98994
 30
0.0
 11
285.563775
 21
34.888555
 31
0.0
  0
TEXT
  8
0
  6
BYBLOCK
 62
     0
 10
285.526275
 20
34.814248
 30
0.0
 40
0.075
  1
0.10
 50
90.0
  7
ROMANC
 72
     1
 11
285.488775
 21
34.939248
 31
0.0
 73
     2
  0
POINT
  8
DEFPOINTS
  6
BYBLOCK
 62
     0
 10
285.942417
 20
34.98994
 30
0.0
  0
POINT
  8
DEFPOINTS
  6
BYBLOCK
 62
     0
 10
286.1077
 20
34.888555
 30
0.0
  0
POINT
  8
DEFPOINTS
  6
BYBLOCK
 62
     0
 10
285.563775
 20
34.888555
 30
0.0
  0
ENDBLK
  8
0
  0
BLOCK
  8
0
  2
*D21
 70
    65
 10
0.0
 20
0.0
 30
0.0
  3
*D
  0
LINE
  8
0
  6
BYBLOCK
 62
     0
 10
286.292417
 20
36.188555
 30
0.0
 11
285.215007
 21
36.188555
 31
0.0
  0
LINE
  8
0
  6
BYBLOCK
 62
     0
 10
286.0927
 20
34.888555
 30
0.0
 11
285.215007
 21
34.888555
 31
0.0
  0
LINE
  8
0
  6
BYBLOCK
 62
     0
 10
285.230007
 20
36.038555
 30
0.0
 11
285.230007
 21
35.038555
 31
0.0
  0
SOLID
  8
0
  6
BYBLOCK
 62
     0
 10
285.205007
 20
36.038555
 30
0.0
 11
285.255007
 21
36.038555
 31
0.0
 12
285.230007
 22
36.188555
 32
0.0
 13
285.230007
 23
36.188555
 33
0.0
  0
SOLID
  8
0
  6
BYBLOCK
 62
     0
 10
285.205007
 20
35.038555
 30
0.0
 11
285.255007
 21
35.038555
 31
0.0
 12
285.230007
 22
34.888555
 32
0.0
 13
285.230007
 23
34.888555
 33
0.0
  0
TEXT
  8
0
  6
BYBLOCK
 62
     0
 10
285.192507
 20
35.408198
 30
0.0
 40
0.075
  1
1.30
 50
90.0
  7
ROMANC
 72
     1
 11
285.155007
 21
35.538555
 31
0.0
 73
     2
  0
POINT
  8
DEFPOINTS
  6
BYBLOCK
 62
     0
 10
286.307417
 20
36.188555
 30
0.0
  0
POINT
  8
DEFPOINTS
  6
BYBLOCK
 62
     0
 10
286.1077
 20
34.888555
 30
0.0
  0
POINT
  8
DEFPOINTS
  6
BYBLOCK
 62
     0
 10
285.230007
 20
34.888555
 30
0.0
  0
ENDBLK
  8
0
  0
BLOCK
  8
0
  2
*D25
 70
    65
 10
0.0
 20
0.0
 30
0.0
  3
*D
  0
LINE
  8
0
  6
BYBLOCK
 62
     0
 10
286.957417
 20
34.973555
 30
0.0
 11
286.957417
 21
34.683212
 31
0.0
  0
LINE
  8
0
  6
BYBLOCK
 62
     0
 10
286.257417
 20
34.973555
 30
0.0
 11
286.257417
 21
34.683212
 31
0.0
  0
LINE
  8
0
  6
BYBLOCK
 62
     0
 10
287.107417
 20
34.698212
 30
0.0
 11
287.257417
 21
34.698212
 31
0.0
  0
LINE
  8
0
  6
BYBLOCK
 62
     0
 10
286.107417
 20
34.698212
 30
0.0
 11
285.957417
 21
34.698212
 31
0.0
  0
SOLID
  8
0
  6
BYBLOCK
 62
     0
 10
287.107417
 20
34.723212
 30
0.0
 11
287.107417
 21
34.673212
 31
0.0
 12
286.957417
 22
34.698212
 32
0.0
 13
286.957417
 23
34.698212
 33
0.0
  0
SOLID
  8
0
  6
BYBLOCK
 62
     0
 10
286.107417
 20
34.723212
 30
0.0
 11
286.107417
 21
34.673212
 31
0.0
 12
286.257417
 22
34.698212
 32
0.0
 13
286.257417
 23
34.698212
 33
0.0
  0
LINE
  8
0
  6
BYBLOCK
 62
     0
 10
286.957417
 20
34.698212
 30
0.0
 11
286.257417
 21
34.698212
 31
0.0
  0
TEXT
  8
0
  6
BYBLOCK
 62
     0
 10
286.482417
 20
34.735712
 30
0.0
 40
0.075
  1
0.70
  7
ROMANC
 72
     1
 11
286.607417
 21
34.773212
 31
0.0
 73
     2
  0
POINT
  8
DEFPOINTS
  6
BYBLOCK
 62
     0
 10
286.957417
 20
34.988555
 30
0.0
  0
POINT
  8
DEFPOINTS
  6
BYBLOCK
 62
     0
 10
286.257417
 20
34.988555
 30
0.0
  0
POINT
  8
DEFPOINTS
  6
BYBLOCK
 62
     0
 10
286.257417
 20
34.698212
 30
0.0
  0
ENDBLK
  8
0
  0
BLOCK
  8
0
  2
*D26
 70
    65
 10
0.0
 20
0.0
 30
0.0
  3
*D
  0
LINE
  8
0
  6
BYBLOCK
 62
     0
 10
285.957417
 20
35.853555
 30
0.0
 11
285.957417
 21
35.853555
 31
0.0
  0
LINE
  8
0
  6
BYBLOCK
 62
     0
 10
286.957417
 20
35.853555
 30
0.0
 11
286.957417
 21
35.853555
 31
0.0
  0
LINE
  8
0
  6
BYBLOCK
 62
     0
 10
286.107417
 20
35.838555
 30
0.0
 11
286.807417
 21
35.838555
 31
0.0
  0
SOLID
  8
0
  6
BYBLOCK
 62
     0
 10
286.107417
 20
35.863555
 30
0.0
 11
286.107417
 21
35.813555
 31
0.0
 12
285.957417
 22
35.838555
 32
0.0
 13
285.957417
 23
35.838555
 33
0.0
  0
SOLID
  8
0
  6
BYBLOCK
 62
     0
 10
286.807417
 20
35.863555
 30
0.0
 11
286.807417
 21
35.813555
 31
0.0
 12
286.957417
 22
35.838555
 32
0.0
 13
286.957417
 23
35.838555
 33
0.0
  0
TEXT
  8
0
  6
BYBLOCK
 62
     0
 10
286.327059
 20
35.876055
 30
0.0
 40
0.075
  1
1.00
  7
ROMANC
 72
     1
 11
286.457417
 21
35.913555
 31
0.0
 73
     2
  0
POINT
  8
DEFPOINTS
  6
BYBLOCK
 62
     0
 10
285.957417
 20
35.838555
 30
0.0
  0
POINT
  8
DEFPOINTS
  6
BYBLOCK
 62
     0
 10
286.957417
 20
35.838555
 30
0.0
  0
POINT
  8
DEFPOINTS
  6
BYBLOCK
 62
     0
 10
286.957417
 20
35.838555
 30
0.0
  0
ENDBLK
  8
0
  0
BLOCK
  8
0
  2
*D27
 70
    65
 10
0.0
 20
0.0
 30
0.0
  3
*D
  0
LINE
  8
0
  6
BYBLOCK
 62
     0
 10
286.292417
 20
36.188555
 30
0.0
 11
285.215007
 21
36.188555
 31
0.0
  0
LINE
  8
0
  6
BYBLOCK
 62
     0
 10
286.0927
 20
34.73717
 30
0.0
 11
285.215007
 21
34.73717
 31
0.0
  0
LINE
  8
0
  6
BYBLOCK
 62
     0
 10
285.230007
 20
36.038555
 30
0.0
 11
285.230007
 21
34.88717
 31
0.0
  0
SOLID
  8
0
  6
BYBLOCK
 62
     0
 10
285.205007
 20
36.038555
 30
0.0
 11
285.255007
 21
36.038555
 31
0.0
 12
285.230007
 22
36.188555
 32
0.0
 13
285.230007
 23
36.188555
 33
0.0
  0
SOLID
  8
0
  6
BYBLOCK
 62
     0
 10
285.205007
 20
34.88717
 30
0.0
 11
285.255007
 21
34.88717
 31
0.0
 12
285.230007
 22
34.73717
 32
0.0
 13
285.230007
 23
34.73717
 33
0.0
  0
TEXT
  8
0
  6
BYBLOCK
 62
     0
 10
285.192507
 20
35.332505
 30
0.0
 40
0.075
  1
1.45
 50
90.0
  7
ROMANC
 72
     1
 11
285.155007
 21
35.462862
 31
0.0
 73
     2
  0
POINT
  8
DEFPOINTS
  6
BYBLOCK
 62
     0
 10
286.307417
 20
36.188555
 30
0.0
  0
POINT
  8
DEFPOINTS
  6
BYBLOCK
 62
     0
 10
286.1077
 20
34.73717
 30
0.0
  0
POINT
  8
DEFPOINTS
  6
BYBLOCK
 62
     0
 10
285.230007
 20
34.73717
 30
0.0
  0
ENDBLK
  8
0
  0
BLOCK
  8
0
  2
*D28
 70
    65
 10
0.0
 20
0.0
 30
0.0
  3
*D
  0
LINE
  8
0
  6
BYBLOCK
 62
     0
 10
285.942417
 20
34.838555
 30
0.0
 11
285.548775
 21
34.838555
 31
0.0
  0
LINE
  8
0
  6
BYBLOCK
 62
     0
 10
285.942417
 20
35.838555
 30
0.0
 11
285.548775
 21
35.838555
 31
0.0
  0
LINE
  8
0
  6
BYBLOCK
 62
     0
 10
285.563775
 20
34.988555
 30
0.0
 11
285.563775
 21
35.688555
 31
0.0
  0
SOLID
  8
0
  6
BYBLOCK
 62
     0
 10
285.538775
 20
34.988555
 30
0.0
 11
285.588775
 21
34.988555
 31
0.0
 12
285.563775
 22
34.838555
 32
0.0
 13
285.563775
 23
34.838555
 33
0.0
  0
SOLID
  8
0
  6
BYBLOCK
 62
     0
 10
285.538775
 20
35.688555
 30
0.0
 11
285.588775
 21
35.688555
 31
0.0
 12
285.563775
 22
35.838555
 32
0.0
 13
285.563775
 23
35.838555
 33
0.0
  0
TEXT
  8
0
  6
BYBLOCK
 62
     0
 10
285.526275
 20
35.208198
 30
0.0
 40
0.075
  1
1.00
 50
90.0
  7
ROMANC
 72
     1
 11
285.488775
 21
35.338555
 31
0.0
 73
     2
  0
POINT
  8
DEFPOINTS
  6
BYBLOCK
 62
     0
 10
285.957417
 20
34.838555
 30
0.0
  0
POINT
  8
DEFPOINTS
  6
BYBLOCK
 62
     0
 10
285.957417
 20
35.838555
 30
0.0
  0
POINT
  8
DEFPOINTS
  6
BYBLOCK
 62
     0
 10
285.563775
 20
35.838555
 30
0.0
  0
ENDBLK
  8
0
  0
BLOCK
  8
0
  2
*D33
 70
    65
 10
0.0
 20
0.0
 30
0.0
  3
*D
  0
LINE
  8
0
  6
BYBLOCK
 62
     0
 10
286.257417
 20
34.82217
 30
0.0
 11
286.257417
 21
34.433213
 31
0.0
  0
LINE
  8
0
  6
BYBLOCK
 62
     0
 10
285.957417
 20
34.823555
 30
0.0
 11
285.957417
 21
34.433213
 31
0.0
  0
LINE
  8
0
  6
BYBLOCK
 62
     0
 10
286.407417
 20
34.448213
 30
0.0
 11
286.557417
 21
34.448213
 31
0.0
  0
LINE
  8
0
  6
BYBLOCK
 62
     0
 10
285.807417
 20
34.448213
 30
0.0
 11
285.657417
 21
34.448213
 31
0.0
  0
SOLID
  8
0
  6
BYBLOCK
 62
     0
 10
286.407417
 20
34.473213
 30
0.0
 11
286.407417
 21
34.423213
 31
0.0
 12
286.257417
 22
34.448213
 32
0.0
 13
286.257417
 23
34.448213
 33
0.0
  0
SOLID
  8
0
  6
BYBLOCK
 62
     0
 10
285.807417
 20
34.473213
 30
0.0
 11
285.807417
 21
34.423213
 31
0.0
 12
285.957417
 22
34.448213
 32
0.0
 13
285.957417
 23
34.448213
 33
0.0
  0
LINE
  8
0
  6
BYBLOCK
 62
     0
 10
286.257417
 20
34.448213
 30
0.0
 11
285.957417
 21
34.448213
 31
0.0
  0
TEXT
  8
0
  6
BYBLOCK
 62
     0
 10
285.982417
 20
34.485713
 30
0.0
 40
0.075
  1
0.30
  7
ROMANC
 72
     1
 11
286.107417
 21
34.523213
 31
0.0
 73
     2
  0
POINT
  8
DEFPOINTS
  6
BYBLOCK
 62
     0
 10
286.257417
 20
34.83717
 30
0.0
  0
POINT
  8
DEFPOINTS
  6
BYBLOCK
 62
     0
 10
285.957417
 20
34.838555
 30
0.0
  0
POINT
  8
DEFPOINTS
  6
BYBLOCK
 62
     0
 10
285.957417
 20
34.448213
 30
0.0
  0
ENDBLK
  8
0
  0
BLOCK
  8
0
  2
*D34
 70
    65
 10
0.0
 20
0.0
 30
0.0
  3
*D
  0
LINE
  8
0
  6
BYBLOCK
 62
     0
 10
285.927417
 20
34.838555
 30
0.0
 11
285.548775
 21
34.838555
 31
0.0
  0
LINE
  8
0
  6
BYBLOCK
 62
     0
 10
286.0927
 20
34.638555
 30
0.0
 11
285.548775
 21
34.638555
 31
0.0
  0
LINE
  8
0
  6
BYBLOCK
 62
     0
 10
285.563775
 20
34.988555
 30
0.0
 11
285.563775
 21
35.138555
 31
0.0
  0
LINE
  8
0
  6
BYBLOCK
 62
     0
 10
285.563775
 20
34.488555
 30
0.0
 11
285.563775
 21
34.338555
 31
0.0
  0
SOLID
  8
0
  6
BYBLOCK
 62
     0
 10
285.538775
 20
34.988555
 30
0.0
 11
285.588775
 21
34.988555
 31
0.0
 12
285.563775
 22
34.838555
 32
0.0
 13
285.563775
 23
34.838555
 33
0.0
  0
SOLID
  8
0
  6
BYBLOCK
 62
     0
 10
285.538775
 20
34.488555
 30
0.0
 11
285.588775
 21
34.488555
 31
0.0
 12
285.563775
 22
34.638555
 32
0.0
 13
285.563775
 23
34.638555
 33
0.0
  0
LINE
  8
0
  6
BYBLOCK
 62
     0
 10
285.563775
 20
34.838555
 30
0.0
 11
285.563775
 21
34.638555
 31
0.0
  0
TEXT
  8
0
  6
BYBLOCK
 62
     0
 10
285.526275
 20
34.613555
 30
0.0
 40
0.075
  1
0.20
 50
90.0
  7
ROMANC
 72
     1
 11
285.488775
 21
34.738555
 31
0.0
 73
     2
  0
POINT
  8
DEFPOINTS
  6
BYBLOCK
 62
     0
 10
285.942417
 20
34.838555
 30
0.0
  0
POINT
  8
DEFPOINTS
  6
BYBLOCK
 62
     0
 10
286.1077
 20
34.638555
 30
0.0
  0
POINT
  8
DEFPOINTS
  6
BYBLOCK
 62
     0
 10
285.563775
 20
34.638555
 30
0.0
  0
ENDBLK
  8
0
  0
BLOCK
  8
0
  2
*D35
 70
    65
 10
0.0
 20
0.0
 30
0.0
  3
*D
  0
LINE
  8
0
  6
BYBLOCK
 62
     0
 10
286.292417
 20
36.188555
 30
0.0
 11
285.215007
 21
36.188555
 31
0.0
  0
LINE
  8
0
  6
BYBLOCK
 62
     0
 10
286.0927
 20
34.638555
 30
0.0
 11
285.215007
 21
34.638555
 31
0.0
  0
LINE
  8
0
  6
BYBLOCK
 62
     0
 10
285.230007
 20
36.038555
 30
0.0
 11
285.230007
 21
34.788555
 31
0.0
  0
SOLID
  8
0
  6
BYBLOCK
 62
     0
 10
285.205007
 20
36.038555
 30
0.0
 11
285.255007
 21
36.038555
 31
0.0
 12
285.230007
 22
36.188555
 32
0.0
 13
285.230007
 23
36.188555
 33
0.0
  0
SOLID
  8
0
  6
BYBLOCK
 62
     0
 10
285.205007
 20
34.788555
 30
0.0
 11
285.255007
 21
34.788555
 31
0.0
 12
285.230007
 22
34.638555
 32
0.0
 13
285.230007
 23
34.638555
 33
0.0
  0
TEXT
  8
0
  6
BYBLOCK
 62
     0
 10
285.192507
 20
35.283198
 30
0.0
 40
0.075
  1
1.55
 50
90.0
  7
ROMANC
 72
     1
 11
285.155007
 21
35.413555
 31
0.0
 73
     2
  0
POINT
  8
DEFPOINTS
  6
BYBLOCK
 62
     0
 10
286.307417
 20
36.188555
 30
0.0
  0
POINT
  8
DEFPOINTS
  6
BYBLOCK
 62
     0
 10
286.1077
 20
34.638555
 30
0.0
  0
POINT
  8
DEFPOINTS
  6
BYBLOCK
 62
     0
 10
285.230007
 20
34.638555
 30
0.0
  0
ENDBLK
  8
0
  0
BLOCK
  8
0
  2
*D36
 70
    65
 10
0.0
 20
0.0
 30
0.0
  3
*D
  0
LINE
  8
0
  6
BYBLOCK
 62
     0
 10
286.957417
 20
34.82217
 30
0.0
 11
286.957417
 21
34.433213
 31
0.0
  0
LINE
  8
0
  6
BYBLOCK
 62
     0
 10
286.257417
 20
34.82217
 30
0.0
 11
286.257417
 21
34.433213
 31
0.0
  0
LINE
  8
0
  6
BYBLOCK
 62
     0
 10
287.107417
 20
34.448213
 30
0.0
 11
287.257417
 21
34.448213
 31
0.0
  0
LINE
  8
0
  6
BYBLOCK
 62
     0
 10
286.107417
 20
34.448213
 30
0.0
 11
285.957417
 21
34.448213
 31
0.0
  0
SOLID
  8
0
  6
BYBLOCK
 62
     0
 10
287.107417
 20
34.473213
 30
0.0
 11
287.107417
 21
34.423213
 31
0.0
 12
286.957417
 22
34.448213
 32
0.0
 13
286.957417
 23
34.448213
 33
0.0
  0
SOLID
  8
0
  6
BYBLOCK
 62
     0
 10
286.107417
 20
34.473213
 30
0.0
 11
286.107417
 21
34.423213
 31
0.0
 12
286.257417
 22
34.448213
 32
0.0
 13
286.257417
 23
34.448213
 33
0.0
  0
LINE
  8
0
  6
BYBLOCK
 62
     0
 10
286.957417
 20
34.448213
 30
0.0
 11
286.257417
 21
34.448213
 31
0.0
  0
TEXT
  8
0
  6
BYBLOCK
 62
     0
 10
286.482417
 20
34.485713
 30
0.0
 40
0.075
  1
0.70
  7
ROMANC
 72
     1
 11
286.607417
 21
34.523213
 31
0.0
 73
     2
  0
POINT
  8
DEFPOINTS
  6
BYBLOCK
 62
     0
 10
286.957417
 20
34.83717
 30
0.0
  0
POINT
  8
DEFPOINTS
  6
BYBLOCK
 62
     0
 10
286.257417
 20
34.83717
 30
0.0
  0
POINT
  8
DEFPOINTS
  6
BYBLOCK
 62
     0
 10
286.257417
 20
34.448213
 30
0.0
  0
ENDBLK
  8
0
  0
BLOCK
  8
0
  2
*D37
 70
    65
 10
0.0
 20
0.0
 30
0.0
  3
*D
  0
LINE
  8
0
  6
BYBLOCK
 62
     0
 10
286.245455
 20
36.29813
 30
0.0
 11
285.215007
 21
36.29813
 31
0.0
  0
LINE
  8
0
  6
BYBLOCK
 62
     0
 10
286.0927
 20
34.638555
 30
0.0
 11
285.215007
 21
34.638555
 31
0.0
  0
LINE
  8
0
  6
BYBLOCK
 62
     0
 10
285.230007
 20
36.14813
 30
0.0
 11
285.230007
 21
34.788555
 31
0.0
  0
SOLID
  8
0
  6
BYBLOCK
 62
     0
 10
285.205007
 20
36.14813
 30
0.0
 11
285.255007
 21
36.14813
 31
0.0
 12
285.230007
 22
36.29813
 32
0.0
 13
285.230007
 23
36.29813
 33
0.0
  0
SOLID
  8
0
  6
BYBLOCK
 62
     0
 10
285.205007
 20
34.788555
 30
0.0
 11
285.255007
 21
34.788555
 31
0.0
 12
285.230007
 22
34.638555
 32
0.0
 13
285.230007
 23
34.638555
 33
0.0
  0
TEXT
  8
0
  6
BYBLOCK
 62
     0
 10
285.192507
 20
35.337986
 30
0.0
 40
0.075
  1
1.66
 50
90.0
  7
ROMANC
 72
     1
 11
285.155007
 21
35.468343
 31
0.0
 73
     2
  0
POINT
  8
DEFPOINTS
  6
BYBLOCK
 62
     0
 10
286.260455
 20
36.29813
 30
0.0
  0
POINT
  8
DEFPOINTS
  6
BYBLOCK
 62
     0
 10
286.1077
 20
34.638555
 30
0.0
  0
POINT
  8
DEFPOINTS
  6
BYBLOCK
 62
     0
 10
285.230007
 20
34.638555
 30
0.0
  0
ENDBLK
  8
0
  0
BLOCK
  8
0
  2
*D38
 70
    65
 10
0.0
 20
0.0
 30
0.0
  3
*D
  0
LINE
  8
0
  6
BYBLOCK
 62
     0
 10
286.442417
 20
36.338559
 30
0.0
 11
285.215007
 21
36.338559
 31
0.0
  0
LINE
  8
0
  6
BYBLOCK
 62
     0
 10
286.0927
 20
34.638555
 30
0.0
 11
285.215007
 21
34.638555
 31
0.0
  0
LINE
  8
0
  6
BYBLOCK
 62
     0
 10
285.230007
 20
36.188559
 30
0.0
 11
285.230007
 21
34.788555
 31
0.0
  0
SOLID
  8
0
  6
BYBLOCK
 62
     0
 10
285.205007
 20
36.188559
 30
0.0
 11
285.255007
 21
36.188559
 31
0.0
 12
285.230007
 22
36.338559
 32
0.0
 13
285.230007
 23
36.338559
 33
0.0
  0
SOLID
  8
0
  6
BYBLOCK
 62
     0
 10
285.205007
 20
34.788555
 30
0.0
 11
285.255007
 21
34.788555
 31
0.0
 12
285.230007
 22
34.638555
 32
0.0
 13
285.230007
 23
34.638555
 33
0.0
  0
TEXT
  8
0
  6
BYBLOCK
 62
     0
 10
285.192507
 20
35.3582
 30
0.0
 40
0.075
  1
1.70
 50
90.0
  7
ROMANC
 72
     1
 11
285.155007
 21
35.488557
 31
0.0
 73
     2
  0
POINT
  8
DEFPOINTS
  6
BYBLOCK
 62
     0
 10
286.457417
 20
36.338559
 30
0.0
  0
POINT
  8
DEFPOINTS
  6
BYBLOCK
 62
     0
 10
286.1077
 20
34.638555
 30
0.0
  0
POINT
  8
DEFPOINTS
  6
BYBLOCK
 62
     0
 10
285.230007
 20
34.638555
 30
0.0
  0
ENDBLK
  8
0
  0
BLOCK
  8
0
  2
*D39
 70
    65
 10
0.0
 20
0.0
 30
0.0
  3
*D
  0
LINE
  8
0
  6
BYBLOCK
 62
     0
 10
286.257417
 20
34.82217
 30
0.0
 11
286.257417
 21
34.407076
 31
0.0
  0
LINE
  8
0
  6
BYBLOCK
 62
     0
 10
286.657417
 20
34.82217
 30
0.0
 11
286.657417
 21
34.407076
 31
0.0
  0
LINE
  8
0
  6
BYBLOCK
 62
     0
 10
286.107417
 20
34.422076
 30
0.0
 11
285.957417
 21
34.422076
 31
0.0
  0
LINE
  8
0
  6
BYBLOCK
 62
     0
 10
286.807417
 20
34.422076
 30
0.0
 11
286.957417
 21
34.422076
 31
0.0
  0
SOLID
  8
0
  6
BYBLOCK
 62
     0
 10
286.107417
 20
34.447076
 30
0.0
 11
286.107417
 21
34.397076
 31
0.0
 12
286.257417
 22
34.422076
 32
0.0
 13
286.257417
 23
34.422076
 33
0.0
  0
SOLID
  8
0
  6
BYBLOCK
 62
     0
 10
286.807417
 20
34.447076
 30
0.0
 11
286.807417
 21
34.397076
 31
0.0
 12
286.657417
 22
34.422076
 32
0.0
 13
286.657417
 23
34.422076
 33
0.0
  0
LINE
  8
0
  6
BYBLOCK
 62
     0
 10
286.257417
 20
34.422076
 30
0.0
 11
286.657417
 21
34.422076
 31
0.0
  0
TEXT
  8
0
  6
BYBLOCK
 62
     0
 10
286.332417
 20
34.459576
 30
0.0
 40
0.075
  1
0.40
  7
ROMANC
 72
     1
 11
286.457417
 21
34.497076
 31
0.0
 73
     2
  0
POINT
  8
DEFPOINTS
  6
BYBLOCK
 62
     0
 10
286.257417
 20
34.83717
 30
0.0
  0
POINT
  8
DEFPOINTS
  6
BYBLOCK
 62
     0
 10
286.657417
 20
34.83717
 30
0.0
  0
POINT
  8
DEFPOINTS
  6
BYBLOCK
 62
     0
 10
286.657417
 20
34.422076
 30
0.0
  0
ENDBLK
  8
0
  0
BLOCK
  8
0
  2
*D40
 70
    65
 10
0.0
 20
0.0
 30
0.0
  3
*D
  0
LINE
  8
0
  6
BYBLOCK
 62
     0
 10
285.957417
 20
34.82217
 30
0.0
 11
285.957417
 21
34.126961
 31
0.0
  0
LINE
  8
0
  6
BYBLOCK
 62
     0
 10
286.957417
 20
34.82217
 30
0.0
 11
286.957417
 21
34.126961
 31
0.0
  0
LINE
  8
0
  6
BYBLOCK
 62
     0
 10
286.107417
 20
34.141961
 30
0.0
 11
286.807417
 21
34.141961
 31
0.0
  0
SOLID
  8
0
  6
BYBLOCK
 62
     0
 10
286.107417
 20
34.166961
 30
0.0
 11
286.107417
 21
34.116961
 31
0.0
 12
285.957417
 22
34.141961
 32
0.0
 13
285.957417
 23
34.141961
 33
0.0
  0
SOLID
  8
0
  6
BYBLOCK
 62
     0
 10
286.807417
 20
34.166961
 30
0.0
 11
286.807417
 21
34.116961
 31
0.0
 12
286.957417
 22
34.141961
 32
0.0
 13
286.957417
 23
34.141961
 33
0.0
  0
TEXT
  8
0
  6
BYBLOCK
 62
     0
 10
286.327059
 20
34.179461
 30
0.0
 40
0.075
  1
1.00
  7
ROMANC
 72
     1
 11
286.457417
 21
34.216961
 31
0.0
 73
     2
  0
POINT
  8
DEFPOINTS
  6
BYBLOCK
 62
     0
 10
285.957417
 20
34.83717
 30
0.0
  0
POINT
  8
DEFPOINTS
  6
BYBLOCK
 62
     0
 10
286.957417
 20
34.83717
 30
0.0
  0
POINT
  8
DEFPOINTS
  6
BYBLOCK
 62
     0
 10
286.957417
 20
34.141961
 30
0.0
  0
ENDBLK
  8
0
  0
BLOCK
  8
0
  2
*D41
 70
    65
 10
0.0
 20
0.0
 30
0.0
  3
*D
  0
LINE
  8
0
  6
BYBLOCK
 62
     0
 10
286.157417
 20
34.82217
 30
0.0
 11
286.157417
 21
34.106952
 31
0.0
  0
LINE
  8
0
  6
BYBLOCK
 62
     0
 10
286.757417
 20
34.82217
 30
0.0
 11
286.757417
 21
34.106952
 31
0.0
  0
LINE
  8
0
  6
BYBLOCK
 62
     0
 10
286.007417
 20
34.121952
 30
0.0
 11
285.857417
 21
34.121952
 31
0.0
  0
LINE
  8
0
  6
BYBLOCK
 62
     0
 10
286.907417
 20
34.121952
 30
0.0
 11
287.057417
 21
34.121952
 31
0.0
  0
SOLID
  8
0
  6
BYBLOCK
 62
     0
 10
286.007417
 20
34.146952
 30
0.0
 11
286.007417
 21
34.096952
 31
0.0
 12
286.157417
 22
34.121952
 32
0.0
 13
286.157417
 23
34.121952
 33
0.0
  0
SOLID
  8
0
  6
BYBLOCK
 62
     0
 10
286.907417
 20
34.146952
 30
0.0
 11
286.907417
 21
34.096952
 31
0.0
 12
286.757417
 22
34.121952
 32
0.0
 13
286.757417
 23
34.121952
 33
0.0
  0
LINE
  8
0
  6
BYBLOCK
 62
     0
 10
286.157417
 20
34.121952
 30
0.0
 11
286.757417
 21
34.121952
 31
0.0
  0
TEXT
  8
0
  6
BYBLOCK
 62
     0
 10
286.332417
 20
34.159452
 30
0.0
 40
0.075
  1
0.60
  7
ROMANC
 72
     1
 11
286.457417
 21
34.196952
 31
0.0
 73
     2
  0
POINT
  8
DEFPOINTS
  6
BYBLOCK
 62
     0
 10
286.157417
 20
34.83717
 30
0.0
  0
POINT
  8
DEFPOINTS
  6
BYBLOCK
 62
     0
 10
286.757417
 20
34.83717
 30
0.0
  0
POINT
  8
DEFPOINTS
  6
BYBLOCK
 62
     0
 10
286.757417
 20
34.121952
 30
0.0
  0
ENDBLK
  8
0
  0
ENDSEC
  0
SECTION
  2
ENTITIES
  0
TEXT
  8
0
 10
283.887846
 20
40.56142
 30
0.0
 40
0.3
  1
P = 44.4 dm
  7
ROMANC
  0
TEXT
  8
0
 10
286.906274
 20
41.564915
 30
0.0
 40
0.1
  1
2
  7
ROMANC
  0
TEXT
  8
0
 10
283.925768
 20
41.857589
 30
0.0
 40
0.3
  1
ESCALA  1:50
  7
ROMANC
  0
TEXT
  8
0
 10
283.925768
 20
42.343303
 30
0.0
 40
0.3
  1
TIPUS   NT126A
  7
ROMANC
  0
TEXT
  8
0
 10
283.938862
 20
41.258999
 30
0.0
 40
0.3
  1
S= 126 dm
  7
ROMANC
  0
LINE
  8
0
 10
286.152496
 20
34.83117
 30
0.0
 11
286.251544
 21
34.83117
 31
0.0
  0
ARC
  8
0
 10
286.457417
 20
34.83856
 30
0.0
 40
0.206005
 50
182.055832
 51
357.944168
  0
LINE
  8
0
 10
286.663289
 20
34.83117
 30
0.0
 11
286.762337
 21
34.83117
 31
0.0
  0
LINE
  8
0
 10
286.762337
 20
34.83117
 30
0.0
 11
286.963416
 21
35.83796
 31
0.0
  0
ARC
  8
0
 10
286.457417
 20
35.838559
 30
0.0
 40
0.506
 50
359.932245
 51
180.067755
  0
LINE
  8
0
 10
285.951417
 20
35.83796
 30
0.0
 11
286.152496
 21
34.83117
 31
0.0
  0
LINE
  8
0
 10
286.154956
 20
34.83417
 30
0.0
 11
286.254459
 21
34.83417
 31
0.0
  0
ARC
  8
0
 10
286.457417
 20
34.83856
 30
0.0
 40
0.203005
 50
181.239146
 51
358.760854
  0
LINE
  8
0
 10
286.660374
 20
34.83417
 30
0.0
 11
286.759877
 21
34.83417
 31
0.0
  0
LINE
  8
0
 10
286.759877
 20
34.83417
 30
0.0
 11
286.960416
 21
35.838258
 31
0.0
  0
ARC
  8
0
 10
286.457417
 20
35.838559
 30
0.0
 40
0.503
 50
359.965783
 51
180.034217
  0
LINE
  8
0
 10
285.954417
 20
35.838258
 30
0.0
 11
286.154956
 21
34.83417
 31
0.0
  0
LINE
  8
0
 10
286.157417
 20
34.83717
 30
0.0
 11
286.257417
 21
34.83717
 31
0.0
  0
ARC
  8
0
 10
286.457417
 20
34.83856
 30
0.0
 40
0.200005
 50
180.398222
 51
359.601778
  0
LINE
  8
0
 10
286.657417
 20
34.83717
 30
0.0
 11
286.757417
 21
34.83717
 31
0.0
  0
LINE
  8
0
 10
286.757417
 20
34.83717
 30
0.0
 11
286.957417
 21
35.838555
 31
0.0
  0
ARC
  8
0
 10
286.457417
 20
35.838559
 30
0.0
 40
0.5
 50
359.999623
 51
180.000377
  0
LINE
  8
0
 10
285.957417
 20
35.838555
 30
0.0
 11
286.157417
 21
34.83717
 31
0.0
  0
LINE
  8
0
  6
BYBLOCK
 62
     0
 10
286.157417
 20
34.82217
 30
0.0
 11
286.157417
 21
34.106952
 31
0.0
  0
LINE
  8
0
  6
BYBLOCK
 62
     0
 10
286.757417
 20
34.82217
 30
0.0
 11
286.757417
 21
34.106952
 31
0.0
  0
LINE
  8
0
  6
BYBLOCK
 62
     0
 10
286.007417
 20
34.121952
 30
0.0
 11
285.857417
 21
34.121952
 31
0.0
  0
LINE
  8
0
  6
BYBLOCK
 62
     0
 10
286.907417
 20
34.121952
 30
0.0
 11
287.057417
 21
34.121952
 31
0.0
  0
SOLID
  8
0
  6
BYBLOCK
 62
     0
 10
286.007417
 20
34.146952
 30
0.0
 11
286.007417
 21
34.096952
 31
0.0
 12
286.157417
 22
34.121952
 32
0.0
 13
286.157417
 23
34.121952
 33
0.0
  0
SOLID
  8
0
  6
BYBLOCK
 62
     0
 10
286.907417
 20
34.146952
 30
0.0
 11
286.907417
 21
34.096952
 31
0.0
 12
286.757417
 22
34.121952
 32
0.0
 13
286.757417
 23
34.121952
 33
0.0
  0
LINE
  8
0
  6
BYBLOCK
 62
     0
 10
286.157417
 20
34.121952
 30
0.0
 11
286.757417
 21
34.121952
 31
0.0
  0
TEXT
  8
0
  6
BYBLOCK
 62
     0
 10
286.332417
 20
34.159452
 30
0.0
 40
0.075
  1
0.60
  7
ROMANC
 72
     1
 11
286.457417
 21
34.196952
 31
0.0
 73
     2
  0
POINT
  8
DEFPOINTS
  6
BYBLOCK
 62
     0
 10
286.157417
 20
34.83717
 30
0.0
  0
POINT
  8
DEFPOINTS
  6
BYBLOCK
 62
     0
 10
286.757417
 20
34.83717
 30
0.0
  0
POINT
  8
DEFPOINTS
  6
BYBLOCK
 62
     0
 10
286.757417
 20
34.121952
 30
0.0
  0
LINE
  8
0
  6
BYBLOCK
 62
     0
 10
286.257417
 20
34.82217
 30
0.0
 11
286.257417
 21
34.407076
 31
0.0
  0
LINE
  8
0
  6
BYBLOCK
 62
     0
 10
286.657417
 20
34.82217
 30
0.0
 11
286.657417
 21
34.407076
 31
0.0
  0
LINE
  8
0
  6
BYBLOCK
 62
     0
 10
286.107417
 20
34.422076
 30
0.0
 11
285.957417
 21
34.422076
 31
0.0
  0
LINE
  8
0
  6
BYBLOCK
 62
     0
 10
286.807417
 20
34.422076
 30
0.0
 11
286.957417
 21
34.422076
 31
0.0
  0
SOLID
  8
0
  6
BYBLOCK
 62
     0
 10
286.107417
 20
34.447076
 30
0.0
 11
286.107417
 21
34.397076
 31
0.0
 12
286.257417
 22
34.422076
 32
0.0
 13
286.257417
 23
34.422076
 33
0.0
  0
SOLID
  8
0
  6
BYBLOCK
 62
     0
 10
286.807417
 20
34.447076
 30
0.0
 11
286.807417
 21
34.397076
 31
0.0
 12
286.657417
 22
34.422076
 32
0.0
 13
286.657417
 23
34.422076
 33
0.0
  0
LINE
  8
0
  6
BYBLOCK
 62
     0
 10
286.257417
 20
34.422076
 30
0.0
 11
286.657417
 21
34.422076
 31
0.0
  0
TEXT
  8
0
  6
BYBLOCK
 62
     0
 10
286.332417
 20
34.459576
 30
0.0
 40
0.075
  1
0.40
  7
ROMANC
 72
     1
 11
286.457417
 21
34.497076
 31
0.0
 73
     2
  0
POINT
  8
DEFPOINTS
  6
BYBLOCK
 62
     0
 10
286.257417
 20
34.83717
 30
0.0
  0
POINT
  8
DEFPOINTS
  6
BYBLOCK
 62
     0
 10
286.657417
 20
34.83717
 30
0.0
  0
POINT
  8
DEFPOINTS
  6
BYBLOCK
 62
     0
 10
286.657417
 20
34.422076
 30
0.0
  0
LINE
  8
0
  6
BYBLOCK
 62
     0
 10
286.442417
 20
36.338559
 30
0.0
 11
285.215007
 21
36.338559
 31
0.0
  0
LINE
  8
0
  6
BYBLOCK
 62
     0
 10
286.0927
 20
34.638555
 30
0.0
 11
285.215007
 21
34.638555
 31
0.0
  0
LINE
  8
0
  6
BYBLOCK
 62
     0
 10
285.230007
 20
36.188559
 30
0.0
 11
285.230007
 21
34.788555
 31
0.0
  0
SOLID
  8
0
  6
BYBLOCK
 62
     0
 10
285.205007
 20
36.188559
 30
0.0
 11
285.255007
 21
36.188559
 31
0.0
 12
285.230007
 22
36.338559
 32
0.0
 13
285.230007
 23
36.338559
 33
0.0
  0
SOLID
  8
0
  6
BYBLOCK
 62
     0
 10
285.205007
 20
34.788555
 30
0.0
 11
285.255007
 21
34.788555
 31
0.0
 12
285.230007
 22
34.638555
 32
0.0
 13
285.230007
 23
34.638555
 33
0.0
  0
TEXT
  8
0
  6
BYBLOCK
 62
     0
 10
285.192507
 20
35.3582
 30
0.0
 40
0.075
  1
1.70
 50
90.0
  7
ROMANC
 72
     1
 11
285.155007
 21
35.488557
 31
0.0
 73
     2
  0
POINT
  8
DEFPOINTS
  6
BYBLOCK
 62
     0
 10
286.457417
 20
36.338559
 30
0.0
  0
POINT
  8
DEFPOINTS
  6
BYBLOCK
 62
     0
 10
286.1077
 20
34.638555
 30
0.0
  0
POINT
  8
DEFPOINTS
  6
BYBLOCK
 62
     0
 10
285.230007
 20
34.638555
 30
0.0
  0
LINE
  8
0
  6
BYBLOCK
 62
     0
 10
285.927417
 20
34.838555
 30
0.0
 11
285.548775
 21
34.838555
 31
0.0
  0
LINE
  8
0
  6
BYBLOCK
 62
     0
 10
286.0927
 20
34.638555
 30
0.0
 11
285.548775
 21
34.638555
 31
0.0
  0
LINE
  8
0
  6
BYBLOCK
 62
     0
 10
285.563775
 20
34.988555
 30
0.0
 11
285.563775
 21
35.138555
 31
0.0
  0
LINE
  8
0
  6
BYBLOCK
 62
     0
 10
285.563775
 20
34.488555
 30
0.0
 11
285.563775
 21
34.338555
 31
0.0
  0
SOLID
  8
0
  6
BYBLOCK
 62
     0
 10
285.538775
 20
34.988555
 30
0.0
 11
285.588775
 21
34.988555
 31
0.0
 12
285.563775
 22
34.838555
 32
0.0
 13
285.563775
 23
34.838555
 33
0.0
  0
SOLID
  8
0
  6
BYBLOCK
 62
     0
 10
285.538775
 20
34.488555
 30
0.0
 11
285.588775
 21
34.488555
 31
0.0
 12
285.563775
 22
34.638555
 32
0.0
 13
285.563775
 23
34.638555
 33
0.0
  0
LINE
  8
0
  6
BYBLOCK
 62
     0
 10
285.563775
 20
34.838555
 30
0.0
 11
285.563775
 21
34.638555
 31
0.0
  0
TEXT
  8
0
  6
BYBLOCK
 62
     0
 10
285.526275
 20
34.613555
 30
0.0
 40
0.075
  1
0.20
 50
90.0
  7
ROMANC
 72
     1
 11
285.488775
 21
34.738555
 31
0.0
 73
     2
  0
POINT
  8
DEFPOINTS
  6
BYBLOCK
 62
     0
 10
285.942417
 20
34.838555
 30
0.0
  0
POINT
  8
DEFPOINTS
  6
BYBLOCK
 62
     0
 10
286.1077
 20
34.638555
 30
0.0
  0
POINT
  8
DEFPOINTS
  6
BYBLOCK
 62
     0
 10
285.563775
 20
34.638555
 30
0.0
  0
LINE
  8
0
  6
BYBLOCK
 62
     0
 10
285.942417
 20
34.838555
 30
0.0
 11
285.548775
 21
34.838555
 31
0.0
  0
LINE
  8
0
  6
BYBLOCK
 62
     0
 10
285.942417
 20
35.838555
 30
0.0
 11
285.548775
 21
35.838555
 31
0.0
  0
LINE
  8
0
  6
BYBLOCK
 62
     0
 10
285.563775
 20
34.988555
 30
0.0
 11
285.563775
 21
35.688555
 31
0.0
  0
SOLID
  8
0
  6
BYBLOCK
 62
     0
 10
285.538775
 20
34.988555
 30
0.0
 11
285.588775
 21
34.988555
 31
0.0
 12
285.563775
 22
34.838555
 32
0.0
 13
285.563775
 23
34.838555
 33
0.0
  0
SOLID
  8
0
  6
BYBLOCK
 62
     0
 10
285.538775
 20
35.688555
 30
0.0
 11
285.588775
 21
35.688555
 31
0.0
 12
285.563775
 22
35.838555
 32
0.0
 13
285.563775
 23
35.838555
 33
0.0
  0
TEXT
  8
0
  6
BYBLOCK
 62
     0
 10
285.526275
 20
35.208198
 30
0.0
 40
0.075
  1
1.00
 50
90.0
  7
ROMANC
 72
     1
 11
285.488775
 21
35.338555
 31
0.0
 73
     2
  0
POINT
  8
DEFPOINTS
  6
BYBLOCK
 62
     0
 10
285.957417
 20
34.838555
 30
0.0
  0
POINT
  8
DEFPOINTS
  6
BYBLOCK
 62
     0
 10
285.957417
 20
35.838555
 30
0.0
  0
POINT
  8
DEFPOINTS
  6
BYBLOCK
 62
     0
 10
285.563775
 20
35.838555
 30
0.0
  0
LINE
  8
0
  6
BYBLOCK
 62
     0
 10
285.957417
 20
35.853555
 30
0.0
 11
285.957417
 21
35.853555
 31
0.0
  0
LINE
  8
0
  6
BYBLOCK
 62
     0
 10
286.957417
 20
35.853555
 30
0.0
 11
286.957417
 21
35.853555
 31
0.0
  0
LINE
  8
0
  6
BYBLOCK
 62
     0
 10
286.107417
 20
35.838555
 30
0.0
 11
286.807417
 21
35.838555
 31
0.0
  0
SOLID
  8
0
  6
BYBLOCK
 62
     0
 10
286.107417
 20
35.863555
 30
0.0
 11
286.107417
 21
35.813555
 31
0.0
 12
285.957417
 22
35.838555
 32
0.0
 13
285.957417
 23
35.838555
 33
0.0
  0
SOLID
  8
0
  6
BYBLOCK
 62
     0
 10
286.807417
 20
35.863555
 30
0.0
 11
286.807417
 21
35.813555
 31
0.0
 12
286.957417
 22
35.838555
 32
0.0
 13
286.957417
 23
35.838555
 33
0.0
  0
TEXT
  8
0
  6
BYBLOCK
 62
     0
 10
286.327059
 20
35.876055
 30
0.0
 40
0.075
  1
1.00
  7
ROMANC
 72
     1
 11
286.457417
 21
35.913555
 31
0.0
 73
     2
  0
POINT
  8
DEFPOINTS
  6
BYBLOCK
 62
     0
 10
285.957417
 20
35.838555
 30
0.0
  0
POINT
  8
DEFPOINTS
  6
BYBLOCK
 62
     0
 10
286.957417
 20
35.838555
 30
0.0
  0
POINT
  8
DEFPOINTS
  6
BYBLOCK
 62
     0
 10
286.957417
 20
35.838555
 30
0.0
  0
LINE
  8
0
 10
281.395795
 20
44.747444
 30
0.0
 11
281.395795
 21
29.897444
 31
0.0
  0
LINE
  8
0
 10
281.395795
 20
29.897444
 30
0.0
 11
291.895795
 21
29.897444
 31
0.0
  0
LINE
  8
0
 10
291.895795
 20
29.897444
 30
0.0
 11
291.895795
 21
44.747444
 31
0.0
  0
LINE
  8
0
 10
291.895795
 20
44.747444
 30
0.0
 11
281.395795
 21
44.747444
 31
0.0
  0
ENDSEC
  0
EOF
