  0
SECTION
  2
HEADER
  9
$ACADVER
  1
AC1009
  9
$INSBASE
 10
128.518609
 20
-4.637231
 30
0.0
  9
$EXTMIN
 10
-3.35
 20
-34.354564
 30
0.0
  9
$EXTMAX
 10
478.171683
 20
96.450756
 30
0.0
  9
$LIMMIN
 10
0.0
 20
0.0
  9
$LIMMAX
 10
410.0
 20
287.0
  9
$ORTHOMODE
 70
     0
  9
$REGENMODE
 70
     1
  9
$FILLMODE
 70
     1
  9
$QTEXTMODE
 70
     0
  9
$MIRRTEXT
 70
     1
  9
$DRAGMODE
 70
     2
  9
$LTSCALE
 40
25.0
  9
$OSMODE
 70
    32
  9
$ATTMODE
 70
     1
  9
$TEXTSIZE
 40
0.1
  9
$TRACEWID
 40
1.0
  9
$TEXTSTYLE
  7
ROMANC
  9
$CLAYER
  8
0
  9
$CELTYPE
  6
BYLAYER
  9
$CECOLOR
 62
   256
  9
$DIMSCALE
 40
0.0
  9
$DIMASZ
 40
0.0
  9
$DIMEXO
 40
0.1
  9
$DIMDLI
 40
7.0
  9
$DIMRND
 40
0.0
  9
$DIMDLE
 40
0.0
  9
$DIMEXE
 40
1.8
  9
$DIMTP
 40
0.0
  9
$DIMTM
 40
0.0
  9
$DIMTXT
 40
0.03
  9
$DIMCEN
 40
1.5
  9
$DIMTSZ
 40
1.0
  9
$DIMTOL
 70
     0
  9
$DIMLIM
 70
     0
  9
$DIMTIH
 70
     0
  9
$DIMTOH
 70
     0
  9
$DIMSE1
 70
     0
  9
$DIMSE2
 70
     0
  9
$DIMTAD
 70
     0
  9
$DIMZIN
 70
     0
  9
$DIMBLK
  1

  9
$DIMASO
 70
     1
  9
$DIMSHO
 70
     0
  9
$DIMPOST
  1

  9
$DIMAPOST
  1

  9
$DIMALT
 70
     0
  9
$DIMALTD
 70
     2
  9
$DIMALTF
 40
25.4
  9
$DIMLFAC
 40
1.0
  9
$DIMTOFL
 70
     1
  9
$DIMTVP
 40
0.0
  9
$DIMTIX
 70
     1
  9
$DIMSOXD
 70
     0
  9
$DIMSAH
 70
     0
  9
$DIMBLK1
  1

  9
$DIMBLK2
  1

  9
$DIMSTYLE
  2
*UNNAMED
  9
$DIMCLRD
 70
     0
  9
$DIMCLRE
 70
     0
  9
$DIMCLRT
 70
     0
  9
$DIMTFAC
 40
116.666667
  9
$DIMGAP
 40
0.09
  9
$LUNITS
 70
     2
  9
$LUPREC
 70
     2
  9
$SKETCHINC
 40
1.0
  9
$FILLETRAD
 40
0.0
  9
$AUNITS
 70
     0
  9
$AUPREC
 70
     0
  9
$MENU
  1
acad
  9
$ELEVATION
 40
0.0
  9
$PELEVATION
 40
0.0
  9
$THICKNESS
 40
0.0
  9
$LIMCHECK
 70
     0
  9
$BLIPMODE
 70
     0
  9
$CHAMFERA
 40
0.0
  9
$CHAMFERB
 40
0.0
  9
$SKPOLY
 70
     0
  9
$TDCREATE
 40
2449967.664590740
  9
$TDUPDATE
 40
2450207.419183796
  9
$TDINDWG
 40
0.0001074074
  9
$TDUSRTIMER
 40
0.0001074074
  9
$USRTIMER
 70
     1
  9
$ANGBASE
 50
0.0
  9
$ANGDIR
 70
     0
  9
$PDMODE
 70
     0
  9
$PDSIZE
 40
0.0
  9
$PLINEWID
 40
0.0
  9
$COORDS
 70
     0
  9
$SPLFRAME
 70
     0
  9
$SPLINETYPE
 70
     6
  9
$SPLINESEGS
 70
     8
  9
$ATTDIA
 70
     0
  9
$ATTREQ
 70
     1
  9
$HANDLING
 70
     0
  9
$HANDSEED
  5
0
  9
$SURFTAB1
 70
     6
  9
$SURFTAB2
 70
     6
  9
$SURFTYPE
 70
     6
  9
$SURFU
 70
     6
  9
$SURFV
 70
     6
  9
$UCSNAME
  2

  9
$UCSORG
 10
0.0
 20
0.0
 30
0.0
  9
$UCSXDIR
 10
1.0
 20
0.0
 30
0.0
  9
$UCSYDIR
 10
0.0
 20
1.0
 30
0.0
  9
$PUCSNAME
  2

  9
$PUCSORG
 10
0.0
 20
0.0
 30
0.0
  9
$PUCSXDIR
 10
1.0
 20
0.0
 30
0.0
  9
$PUCSYDIR
 10
0.0
 20
1.0
 30
0.0
  9
$USERI1
 70
     0
  9
$USERI2
 70
     0
  9
$USERI3
 70
     0
  9
$USERI4
 70
     0
  9
$USERI5
 70
     0
  9
$USERR1
 40
0.0
  9
$USERR2
 40
0.0
  9
$USERR3
 40
0.0
  9
$USERR4
 40
0.0
  9
$USERR5
 40
0.0
  9
$WORLDVIEW
 70
     1
  9
$SHADEDGE
 70
     3
  9
$SHADEDIF
 70
    70
  9
$TILEMODE
 70
     1
  9
$MAXACTVP
 70
    16
  9
$PINSBASE
 10
0.0
 20
0.0
 30
0.0
  9
$PLIMCHECK
 70
     0
  9
$PEXTMIN
 10
1.000000E+20
 20
1.000000E+20
 30
1.000000E+20
  9
$PEXTMAX
 10
-1.000000E+20
 20
-1.000000E+20
 30
-1.000000E+20
  9
$PLIMMIN
 10
0.0
 20
0.0
  9
$PLIMMAX
 10
12.0
 20
9.0
  9
$UNITMODE
 70
     0
  9
$VISRETAIN
 70
     0
  9
$PLINEGEN
 70
     0
  9
$PSLTSCALE
 70
     0
  9
$TREEDEPTH
 70
  3020
  9
$DWGCODEPAGE
  3
iso8859-1
  0
ENDSEC
  0
SECTION
  2
TABLES
  0
TABLE
  2
VPORT
 70
     1
  0
VPORT
  2
*ACTIVE
 70
     0
 10
0.0
 20
0.0
 11
1.0
 21
1.0
 12
131.589111
 22
1.734316
 13
0.0
 23
0.0
 14
1.0
 24
1.0
 15
10.0
 25
10.0
 16
0.0
 26
0.0
 36
1.0
 17
0.0
 27
0.0
 37
0.0
 40
19.229088
 41
1.65
 42
50.0
 43
0.0
 44
0.0
 50
0.0
 51
0.0
 71
     0
 72
   100
 73
     1
 74
     0
 75
     0
 76
     0
 77
     0
 78
     1
  0
ENDTAB
  0
TABLE
  2
LTYPE
 70
     1
  0
LTYPE
  2
CONTINUOUS
 70
    64
  3
Solid line
 72
    65
 73
     0
 40
0.0
  0
ENDTAB
  0
TABLE
  2
LAYER
 70
     1
  0
LAYER
  2
0
 70
    64
 62
     7
  6
CONTINUOUS
  0
ENDTAB
  0
TABLE
  2
STYLE
 70
     2
  0
STYLE
  2
STANDARD
 70
     0
 40
0.0
 41
1.0
 50
0.0
 71
     0
 42
0.1
  3
txt
  4

  0
STYLE
  2
ROMANC
 70
    64
 40
0.0
 41
1.0
 50
0.0
 71
     0
 42
0.1
  3
romanc
  4

  0
ENDTAB
  0
TABLE
  2
VIEW
 70
     0
  0
ENDTAB
  0
TABLE
  2
UCS
 70
     0
  0
ENDTAB
  0
TABLE
  2
APPID
 70
     1
  0
APPID
  2
ACAD
 70
    64
  0
ENDTAB
  0
TABLE
  2
DIMSTYLE
 70
     0
  0
ENDTAB
  0
ENDSEC
  0
SECTION
  2
BLOCKS
  0
ENDSEC
  0
SECTION
  2
ENTITIES
  0
TEXT
  8
0
 10
133.069097
 20
0.757147
 30
0.0
 40
0.1
  1
0.6
  7
ROMANC
  0
LINE
  8
0
 10
133.408135
 20
0.480425
 30
0.0
 11
133.408135
 21
1.189955
 31
0.0
  0
LINE
  8
0
 10
130.474809
 20
2.327354
 30
0.0
 11
130.474809
 21
0.477354
 31
0.0
  0
LINE
  8
0
 10
137.601349
 20
2.327354
 30
0.0
 11
137.601349
 21
-0.272646
 31
0.0
  0
LINE
  8
0
 10
128.518609
 20
10.212769
 30
0.0
 11
128.518609
 21
-4.637231
 31
0.0
  0
LINE
  8
0
 10
139.018609
 20
-4.637231
 30
0.0
 11
139.018609
 21
10.212769
 31
0.0
  0
LINE
  8
0
 10
133.727318
 20
0.105587
 30
0.0
 11
134.629553
 21
0.105587
 31
0.0
  0
LINE
  8
0
 10
128.518609
 20
-4.637231
 30
0.0
 11
139.018609
 21
-4.637231
 31
0.0
  0
LINE
  8
0
 10
133.674449
 20
0.055577
 30
0.0
 11
133.800612
 21
0.194041
 31
0.0
  0
LINE
  8
0
 10
133.727318
 20
0.477354
 30
0.0
 11
133.727318
 21
0.105587
 31
0.0
  0
LINE
  8
0
 10
130.414128
 20
0.430415
 30
0.0
 11
130.540291
 21
0.568879
 31
0.0
  0
LINE
  8
0
 10
130.977318
 20
0.477354
 30
0.0
 11
130.474809
 21
0.477354
 31
0.0
  0
TEXT
  8
0
 10
134.052294
 20
-0.144375
 30
0.0
 40
0.1
  1
0.9
  7
ROMANC
  0
TEXT
  8
0
 10
135.785558
 20
-1.147191
 30
0.0
 40
0.1
  1
2.45
  7
ROMANC
  0
LINE
  8
0
 10
134.588107
 20
-0.838265
 30
0.0
 11
134.71427
 21
-0.699801
 31
0.0
  0
LINE
  8
0
 10
137.011708
 20
-0.867099
 30
0.0
 11
137.137871
 21
-0.728635
 31
0.0
  0
LINE
  8
0
 10
137.540668
 20
-0.328871
 30
0.0
 11
137.666832
 21
-0.190407
 31
0.0
  0
LINE
  8
0
 10
134.627318
 20
-0.272646
 30
0.0
 11
134.627318
 21
-0.788255
 31
0.0
  0
LINE
  8
0
 10
137.077318
 20
-0.272646
 30
0.0
 11
137.077318
 21
-0.788255
 31
0.0
  0
LINE
  8
0
 10
137.077318
 20
-0.272646
 30
0.0
 11
137.601349
 21
-0.272646
 31
0.0
  0
LINE
  8
0
 10
134.627318
 20
-0.788255
 30
0.0
 11
137.077318
 21
-0.788255
 31
0.0
  0
TEXT
  8
0
 10
131.045256
 20
6.155377
 30
0.0
 40
0.3
  1
P = 137.7 dm
  7
ROMANC
  0
LINE
  8
0
 10
134.327904
 20
1.189955
 30
0.0
 11
133.408135
 21
1.189955
 31
0.0
  0
LINE
  8
0
 10
130.977318
 20
2.83517
 30
0.0
 11
137.077318
 21
2.83517
 31
0.0
  0
TEXT
  8
0
 10
131.048582
 20
7.808628
 30
0.0
 40
0.3
  1
TIPUS   NT1262
  7
ROMANC
  0
TEXT
  8
0
 10
131.048582
 20
7.322913
 30
0.0
 40
0.3
  1
ESCALA  1:50
  7
ROMANC
  0
TEXT
  8
0
 10
131.061676
 20
6.724324
 30
0.0
 40
0.3
  1
S = 1262 dm
  7
ROMANC
  0
LINE
  8
0
 10
139.018609
 20
10.212769
 30
0.0
 11
128.518609
 21
10.212769
 31
0.0
  0
TEXT
  8
0
 10
130.089098
 20
1.364915
 30
0.0
 40
0.1
  1
1.85
  7
ROMANC
  0
TEXT
  8
0
 10
133.677259
 20
3.167958
 30
0.0
 40
0.1
  1
6.1
  7
ROMANC
  0
LINE
  8
0
 10
133.347455
 20
1.122422
 30
0.0
 11
133.473618
 21
1.260886
 31
0.0
  0
LINE
  8
0
 10
130.394894
 20
2.246933
 30
0.0
 11
130.521057
 21
2.385397
 31
0.0
  0
LINE
  8
0
 10
130.914237
 20
2.765938
 30
0.0
 11
131.0404
 21
2.904402
 31
0.0
  0
LINE
  8
0
 10
130.977318
 20
2.327354
 30
0.0
 11
130.474809
 21
2.327354
 31
0.0
  0
LINE
  8
0
 10
130.977318
 20
2.327354
 30
0.0
 11
130.977318
 21
2.83517
 31
0.0
  0
TEXT
  8
0
 10
134.569507
 20
7.03024
 30
0.0
 40
0.1
  1
2
  7
ROMANC
  0
TEXT
  8
0
 10
137.873585
 20
0.969866
 30
0.0
 40
0.1
  1
2.6
  7
ROMANC
  0
LINE
  8
0
 10
137.511816
 20
2.237322
 30
0.0
 11
137.637979
 21
2.375786
 31
0.0
  0
LINE
  8
0
 10
137.011708
 20
2.765938
 30
0.0
 11
137.137871
 21
2.904402
 31
0.0
  0
LINE
  8
0
 10
137.077318
 20
2.327354
 30
0.0
 11
137.601349
 21
2.327354
 31
0.0
  0
LINE
  8
0
 10
137.077318
 20
2.327354
 30
0.0
 11
137.077318
 21
2.83517
 31
0.0
  0
LINE
  8
0
 10
130.977318
 20
2.327354
 30
0.0
 11
130.977318
 21
0.477354
 31
0.0
  0
LINE
  8
0
 10
130.977318
 20
0.477354
 30
0.0
 11
133.727318
 21
0.477354
 31
0.0
  0
LINE
  8
0
 10
133.727318
 20
0.477354
 30
0.0
 11
133.78532
 21
0.621948
 31
0.0
  0
LINE
  8
0
 10
133.78532
 20
0.621948
 30
0.0
 11
133.89106
 21
0.864478
 31
0.0
  0
LINE
  8
0
 10
133.89106
 20
0.864478
 30
0.0
 11
134.057544
 21
1.091689
 31
0.0
  0
LINE
  8
0
 10
134.057544
 20
1.091689
 30
0.0
 11
134.123536
 21
1.133747
 31
0.0
  0
LINE
  8
0
 10
134.123536
 20
1.133747
 30
0.0
 11
134.218056
 21
1.174217
 31
0.0
  0
LINE
  8
0
 10
134.218056
 20
1.174217
 30
0.0
 11
134.327904
 21
1.189955
 31
0.0
  0
LINE
  8
0
 10
134.327904
 20
1.189955
 30
0.0
 11
134.440306
 21
1.187707
 31
0.0
  0
LINE
  8
0
 10
134.440306
 20
1.187707
 30
0.0
 11
134.54249
 21
1.162976
 31
0.0
  0
LINE
  8
0
 10
134.54249
 20
1.162976
 30
0.0
 11
134.627318
 21
1.127354
 31
0.0
  0
LINE
  8
0
 10
134.627318
 20
1.127354
 30
0.0
 11
134.627318
 21
-0.272646
 31
0.0
  0
LINE
  8
0
 10
134.627318
 20
-0.272646
 30
0.0
 11
137.077318
 21
-0.272646
 31
0.0
  0
LINE
  8
0
 10
137.077318
 20
-0.272646
 30
0.0
 11
137.077318
 21
2.327354
 31
0.0
  0
LINE
  8
0
 10
137.077318
 20
2.327354
 30
0.0
 11
130.977318
 21
2.327354
 31
0.0
  0
LINE
  8
0
 10
130.967318
 20
2.337354
 30
0.0
 11
130.967318
 21
0.467354
 31
0.0
  0
LINE
  8
0
 10
130.967318
 20
0.467354
 30
0.0
 11
133.734081
 21
0.467354
 31
0.0
  0
LINE
  8
0
 10
133.734081
 20
0.467354
 30
0.0
 11
133.794546
 21
0.618088
 31
0.0
  0
LINE
  8
0
 10
133.794546
 20
0.618088
 30
0.0
 11
133.899783
 21
0.859463
 31
0.0
  0
LINE
  8
0
 10
133.899783
 20
0.859463
 30
0.0
 11
134.064502
 21
1.084265
 31
0.0
  0
LINE
  8
0
 10
134.064502
 20
1.084265
 30
0.0
 11
134.128222
 21
1.124876
 31
0.0
  0
LINE
  8
0
 10
134.128222
 20
1.124876
 30
0.0
 11
134.220779
 21
1.164505
 31
0.0
  0
LINE
  8
0
 10
134.220779
 20
1.164505
 30
0.0
 11
134.328517
 21
1.179941
 31
0.0
  0
LINE
  8
0
 10
134.328517
 20
1.179941
 30
0.0
 11
134.439015
 21
1.177731
 31
0.0
  0
LINE
  8
0
 10
134.439015
 20
1.177731
 30
0.0
 11
134.539358
 21
1.153445
 31
0.0
  0
LINE
  8
0
 10
134.539358
 20
1.153445
 30
0.0
 11
134.617318
 21
1.120708
 31
0.0
  0
LINE
  8
0
 10
134.617318
 20
1.120708
 30
0.0
 11
134.617318
 21
-0.282646
 31
0.0
  0
LINE
  8
0
 10
134.617318
 20
-0.282646
 30
0.0
 11
137.087318
 21
-0.282646
 31
0.0
  0
LINE
  8
0
 10
137.087318
 20
-0.282646
 30
0.0
 11
137.087318
 21
2.337354
 31
0.0
  0
LINE
  8
0
 10
137.087318
 20
2.337354
 30
0.0
 11
130.967318
 21
2.337354
 31
0.0
  0
LINE
  8
0
 10
130.987318
 20
2.317354
 30
0.0
 11
130.987318
 21
0.487354
 31
0.0
  0
LINE
  8
0
 10
130.987318
 20
0.487354
 30
0.0
 11
133.720555
 21
0.487354
 31
0.0
  0
LINE
  8
0
 10
133.720555
 20
0.487354
 30
0.0
 11
133.776153
 21
0.625945
 31
0.0
  0
LINE
  8
0
 10
133.776153
 20
0.625945
 30
0.0
 11
133.882337
 21
0.869492
 31
0.0
  0
LINE
  8
0
 10
133.882337
 20
0.869492
 30
0.0
 11
134.050587
 21
1.099114
 31
0.0
  0
LINE
  8
0
 10
134.050587
 20
1.099114
 30
0.0
 11
134.11885
 21
1.142619
 31
0.0
  0
LINE
  8
0
 10
134.11885
 20
1.142619
 30
0.0
 11
134.215332
 21
1.183929
 31
0.0
  0
LINE
  8
0
 10
134.215332
 20
1.183929
 30
0.0
 11
134.32729
 21
1.19997
 31
0.0
  0
LINE
  8
0
 10
134.32729
 20
1.19997
 30
0.0
 11
134.441598
 21
1.197683
 31
0.0
  0
LINE
  8
0
 10
134.441598
 20
1.197683
 30
0.0
 11
134.545622
 21
1.172506
 31
0.0
  0
LINE
  8
0
 10
134.545622
 20
1.172506
 30
0.0
 11
134.637318
 21
1.134001
 31
0.0
  0
LINE
  8
0
 10
134.637318
 20
1.134001
 30
0.0
 11
134.637318
 21
-0.262646
 31
0.0
  0
LINE
  8
0
 10
134.637318
 20
-0.262646
 30
0.0
 11
137.067318
 21
-0.262646
 31
0.0
  0
LINE
  8
0
 10
137.067318
 20
-0.262646
 30
0.0
 11
137.067318
 21
2.317354
 31
0.0
  0
LINE
  8
0
 10
137.067318
 20
2.317354
 30
0.0
 11
130.987318
 21
2.317354
 31
0.0
  0
ENDSEC
  0
EOF
