  0
SECTION
  2
HEADER
  9
$ACADVER
  1
AC1009
  9
$INSBASE
 10
0.0
 20
0.0
 30
0.0
  9
$EXTMIN
 10
281.396000
 20
29.897000
 30
-2147483.648000
  9
$EXTMAX
 10
291.896000
 20
44.747000
 30
0.000000
  9
$LIMMIN
 10
280.396000
 20
28.897000
  9
$LIMMAX
 10
292.896000
 20
43.747000
  9
$ORTHOMODE
 70
     0
  9
$REGENMODE
 70
     1
  9
$FILLMODE
 70
     1
  9
$QTEXTMODE
 70
     0
  9
$MIRRTEXT
 70
     1
  9
$DRAGMODE
 70
     2
  9
$LTSCALE
 40
1.0
  9
$OSMODE
 70
     0
  9
$ATTMODE
 70
     1
  9
$TEXTSIZE
 40
0.2
  9
$TRACEWID
 40
0.05
  9
$TEXTSTYLE
  7
STANDARD
  9
$CLAYER
  8
0
  9
$CELTYPE
  6
BYLAYER
  9
$CECOLOR
 62
   256
  9
$DIMSCALE
 40
1.0
  9
$DIMASZ
 40
0.18
  9
$DIMEXO
 40
0.0625
  9
$DIMDLI
 40
0.38
  9
$DIMRND
 40
0.0
  9
$DIMDLE
 40
0.0
  9
$DIMEXE
 40
0.18
  9
$DIMTP
 40
0.0
  9
$DIMTM
 40
0.0
  9
$DIMTXT
 40
0.18
  9
$DIMCEN
 40
0.09
  9
$DIMTSZ
 40
0.0
  9
$DIMTOL
 70
     0
  9
$DIMLIM
 70
     0
  9
$DIMTIH
 70
     1
  9
$DIMTOH
 70
     1
  9
$DIMSE1
 70
     0
  9
$DIMSE2
 70
     0
  9
$DIMTAD
 70
     0
  9
$DIMZIN
 70
     0
  9
$DIMBLK
  1

  9
$DIMASO
 70
     1
  9
$DIMSHO
 70
     1
  9
$DIMPOST
  1

  9
$DIMAPOST
  1

  9
$DIMALT
 70
     0
  9
$DIMALTD
 70
     2
  9
$DIMALTF
 40
25.4
  9
$DIMLFAC
 40
1.0
  9
$DIMTOFL
 70
     0
  9
$DIMTVP
 40
0.0
  9
$DIMTIX
 70
     0
  9
$DIMSOXD
 70
     0
  9
$DIMSAH
 70
     0
  9
$DIMBLK1
  1

  9
$DIMBLK2
  1

  9
$DIMSTYLE
  2
*UNNAMED
  9
$DIMCLRD
 70
     0
  9
$DIMCLRE
 70
     0
  9
$DIMCLRT
 70
     0
  9
$DIMTFAC
 40
1.0
  9
$DIMGAP
 40
0.09
  9
$LUNITS
 70
     2
  9
$LUPREC
 70
     4
  9
$AXISMODE
 70
     0
  9
$AXISUNIT
 10
0.0
 20
0.0
  9
$SKETCHINC
 40
0.1
  9
$FILLETRAD
 40
0.0
  9
$AUNITS
 70
     0
  9
$AUPREC
 70
     0
  9
$MENU
  1
acad
  9
$ELEVATION
 40
0.0
  9
$PELEVATION
 40
0.0
  9
$THICKNESS
 40
0.0
  9
$LIMCHECK
 70
     0
  9
$BLIPMODE
 70
     1
  9
$CHAMFERA
 40
0.0
  9
$CHAMFERB
 40
0.0
  9
$SKPOLY
 70
     0
  9
$TDCREATE
 40
2448315.373408102
  9
$TDUPDATE
 40
2448315.373408102
  9
$TDINDWG
 40
0.0000000000
  9
$TDUSRTIMER
 40
0.0000000000
  9
$USRTIMER
 70
     1
  9
$ANGBASE
 50
0.0
  9
$ANGDIR
 70
     0
  9
$PDMODE
 70
     0
  9
$PDSIZE
 40
0.0
  9
$PLINEWID
 40
0.0
  9
$COORDS
 70
     0
  9
$SPLFRAME
 70
     0
  9
$SPLINETYPE
 70
     6
  9
$SPLINESEGS
 70
     8
  9
$ATTDIA
 70
     0
  9
$ATTREQ
 70
     1
  9
$HANDLING
 70
     0
  9
$HANDSEED
  5
0
  9
$SURFTAB1
 70
     6
  9
$SURFTAB2
 70
     6
  9
$SURFTYPE
 70
     6
  9
$SURFU
 70
     6
  9
$SURFV
 70
     6
  9
$UCSNAME
  2

  9
$UCSORG
 10
0.0
 20
0.0
 30
0.0
  9
$UCSXDIR
 10
1.0
 20
0.0
 30
0.0
  9
$UCSYDIR
 10
0.0
 20
1.0
 30
0.0
  9
$PUCSNAME
  2

  9
$PUCSORG
 10
0.0
 20
0.0
 30
0.0
  9
$PUCSXDIR
 10
1.0
 20
0.0
 30
0.0
  9
$PUCSYDIR
 10
0.0
 20
1.0
 30
0.0
  9
$USERI1
 70
     0
  9
$USERI2
 70
     0
  9
$USERI3
 70
     0
  9
$USERI4
 70
     0
  9
$USERI5
 70
     0
  9
$USERR1
 40
0.0
  9
$USERR2
 40
0.0
  9
$USERR3
 40
0.0
  9
$USERR4
 40
0.0
  9
$USERR5
 40
0.0
  9
$WORLDVIEW
 70
     1
  9
$SHADEDGE
 70
     3
  9
$SHADEDIF
 70
    70
  9
$TILEMODE
 70
     1
  9
$MAXACTVP
 70
    16
  9
$PINSBASE
 10
0.0
 20
0.0
 30
0.0
  9
$PLIMCHECK
 70
     0
  9
$PEXTMIN
 10
1.000000E+20
 20
1.000000E+20
 30
1.000000E+20
  9
$PEXTMAX
 10
-1.000000E+20
 20
-1.000000E+20
 30
-1.000000E+20
  9
$PLIMMIN
 10
0.0
 20
0.0
  9
$PLIMMAX
 10
12.0
 20
9.0
  9
$UNITMODE
 70
     0
  9
$VISRETAIN
 70
     0
  0
ENDSEC
  0
SECTION
  2
TABLES
  0
TABLE
  2
LTYPE
 70
    1
  0
LTYPE
  2
CONTINUOUS
 70
    64
3
Solid line
 72
    65
 73
0
 40
0.000000
  0
ENDTAB
  0
TABLE
  2
LAYER
 70
    8
  0
LAYER
  2
0
 70
    64
 62
7
  6
CONTINUOUS
  0
LAYER
  2
1
 70
    64
 62
7
  6
CONTINUOUS
  0
LAYER
  2
7
 70
    64
 62
7
  6
CONTINUOUS
  0
LAYER
  2
8
 70
    64
 62
7
  6
CONTINUOUS
  0
LAYER
  2
9
 70
    64
 62
7
  6
CONTINUOUS
  0
LAYER
  2
22
 70
    64
 62
7
  6
CONTINUOUS
  0
LAYER
  2
25
 70
    64
 62
7
  6
CONTINUOUS
  0
LAYER
  2
0
 70
    64
 62
7
  6
CONTINUOUS
  0
ENDTAB
  0
TABLE
  2
STYLE
 70
    1
  0
STYLE
  2
ROMANC
70
     0
 40
0.0
 41
1.0
 50
0.0
 71
     0
 42
0.2
  3
ROMANC
  4

  0
ENDTAB
  0
ENDSEC
  0
SECTION
  2
BLOCKS
  0
ENDSEC
  0
SECTION
  2
ENTITIES
  0
TEXT
  8
0
  6
CONTINUOUS
 40
0.100000
 10
287.008000
 20
41.338000
  1
2
  7
ROMANC
  0
TEXT
  8
0
  6
CONTINUOUS
 40
0.300000
 10
283.926000
 20
41.768000
  1
ESCALA  1:50
  7
ROMANC
  0
POLYLINE
  8
0
  6
CONTINUOUS
 66
     1
 70
     1
  0
VERTEX
  8
0
  6
CONTINUOUS
 10
281.396000
 20
44.747000
  0
VERTEX
  8
0
  6
CONTINUOUS
 10
291.896000
 20
44.747000
  0
VERTEX
  8
0
  6
CONTINUOUS
 10
291.896000
 20
29.897000
  0
VERTEX
  8
0
  6
CONTINUOUS
 10
281.396000
 20
29.897000
  0
SEQEND
  8
0
  0
TEXT
  8
0
  6
CONTINUOUS
 40
0.300000
 10
283.945000
 20
41.099000
  1
S = 125 dm
  7
ROMANC
  0
TEXT
  8
0
  6
CONTINUOUS
 40
0.300000
 10
283.922000
 20
40.529000
  1
P = 47 dm
  7
ROMANC
  0
TEXT
  8
0
  6
CONTINUOUS
 40
0.300000
 10
283.926000
 20
42.381000
  1
TIPUS   NT125D
  7
ROMANC
  0
LINE
  8
1
  6
CONTINUOUS
 10
286.762000
 20
37.340000
 11
286.762000
 21
35.840000
  0
LINE
  8
1
  6
CONTINUOUS
 10
285.952000
 20
37.350000
 11
286.772000
 21
37.350000
  0
LINE
  8
1
  6
CONTINUOUS
 10
285.942000
 20
37.360000
 11
286.782000
 21
37.360000
  0
LINE
  8
1
  6
CONTINUOUS
 10
285.952000
 20
35.830000
 11
285.952000
 21
37.350000
  0
LINE
  8
1
  6
CONTINUOUS
 10
285.942000
 20
35.820000
 11
285.942000
 21
37.360000
  0
LINE
  8
1
  6
CONTINUOUS
 10
286.772000
 20
37.350000
 11
286.772000
 21
35.830000
  0
LINE
  8
1
  6
CONTINUOUS
 10
286.782000
 20
37.360000
 11
286.782000
 21
35.820000
  0
LINE
  8
1
  6
CONTINUOUS
 10
286.772000
 20
35.830000
 11
286.572000
 21
35.830000
  0
LINE
  8
1
  6
CONTINUOUS
 10
286.782000
 20
35.820000
 11
286.581000
 21
35.820000
  0
LINE
  8
1
  6
CONTINUOUS
 10
286.153000
 20
35.830000
 11
285.952000
 21
35.830000
  0
LINE
  8
1
  6
CONTINUOUS
 10
286.144000
 20
35.820000
 11
285.942000
 21
35.820000
  0
POLYLINE
  8
1
  6
CONTINUOUS
 66
     1
 70
     0
  0
VERTEX
  8
1
  6
CONTINUOUS
 10
286.152784
 20
35.830000
 42
0.044713
  0
VERTEX
  8
1
  6
CONTINUOUS
 10
286.156636
 20
35.808090
 42
0.042299
  0
VERTEX
  8
1
  6
CONTINUOUS
 10
286.164204
 20
35.787158
 42
0.041032
  0
VERTEX
  8
1
  6
CONTINUOUS
 10
286.175793
 20
35.766703
 42
0.036985
  0
VERTEX
  8
1
  6
CONTINUOUS
 10
286.190417
 20
35.748270
 42
0.035577
  0
VERTEX
  8
1
  6
CONTINUOUS
 10
286.208858
 20
35.730946
 42
0.031859
  0
VERTEX
  8
1
  6
CONTINUOUS
 10
286.229467
 20
35.716239
 42
0.030788
  0
VERTEX
  8
1
  6
CONTINUOUS
 10
286.253276
 20
35.703407
 42
0.028242
  0
VERTEX
  8
1
  6
CONTINUOUS
 10
286.278438
 20
35.693457
 42
0.027613
  0
VERTEX
  8
1
  6
CONTINUOUS
 10
286.305735
 20
35.686052
 42
0.026365
  0
VERTEX
  8
1
  6
CONTINUOUS
 10
286.333674
 20
35.681624
 42
0.026160
  0
VERTEX
  8
1
  6
CONTINUOUS
 10
286.362364
 20
35.680125
 42
0.026160
  0
VERTEX
  8
1
  6
CONTINUOUS
 10
286.391053
 20
35.681624
 42
0.026365
  0
VERTEX
  8
1
  6
CONTINUOUS
 10
286.418992
 20
35.686052
 42
0.027613
  0
VERTEX
  8
1
  6
CONTINUOUS
 10
286.446289
 20
35.693457
 42
0.028242
  0
VERTEX
  8
1
  6
CONTINUOUS
 10
286.471451
 20
35.703407
 42
0.030788
  0
VERTEX
  8
1
  6
CONTINUOUS
 10
286.495260
 20
35.716239
 42
0.031859
  0
VERTEX
  8
1
  6
CONTINUOUS
 10
286.515869
 20
35.730946
 42
0.035577
  0
VERTEX
  8
1
  6
CONTINUOUS
 10
286.534310
 20
35.748270
 42
0.036985
  0
VERTEX
  8
1
  6
CONTINUOUS
 10
286.548934
 20
35.766703
 42
0.041032
  0
VERTEX
  8
1
  6
CONTINUOUS
 10
286.560523
 20
35.787158
 42
0.042299
  0
VERTEX
  8
1
  6
CONTINUOUS
 10
286.568091
 20
35.808090
 42
0.044713
  0
VERTEX
  8
1
  6
CONTINUOUS
 10
286.571943
 20
35.830000
  0
SEQEND
  8
0
  0
POLYLINE
  8
1
  6
CONTINUOUS
 66
     1
 70
     0
  0
VERTEX
  8
1
  6
CONTINUOUS
 10
286.143910
 20
35.820000
 42
0.042094
  0
VERTEX
  8
1
  6
CONTINUOUS
 10
286.149327
 20
35.797743
 42
0.039608
  0
VERTEX
  8
1
  6
CONTINUOUS
 10
286.158277
 20
35.776645
 42
0.038451
  0
VERTEX
  8
1
  6
CONTINUOUS
 10
286.171103
 20
35.756131
 42
0.034877
  0
VERTEX
  8
1
  6
CONTINUOUS
 10
286.186788
 20
35.737689
 42
0.033666
  0
VERTEX
  8
1
  6
CONTINUOUS
 10
286.206102
 20
35.720463
 42
0.030470
  0
VERTEX
  8
1
  6
CONTINUOUS
 10
286.227467
 20
35.705832
 42
0.029551
  0
VERTEX
  8
1
  6
CONTINUOUS
 10
286.251836
 20
35.693138
 42
0.027357
  0
VERTEX
  8
1
  6
CONTINUOUS
 10
286.277495
 20
35.683283
 42
0.026813
  0
VERTEX
  8
1
  6
CONTINUOUS
 10
286.305141
 20
35.675977
 42
0.025729
  0
VERTEX
  8
1
  6
CONTINUOUS
 10
286.333405
 20
35.671603
 42
0.025551
  0
VERTEX
  8
1
  6
CONTINUOUS
 10
286.362364
 20
35.670125
 42
0.025551
  0
VERTEX
  8
1
  6
CONTINUOUS
 10
286.391322
 20
35.671603
 42
0.025729
  0
VERTEX
  8
1
  6
CONTINUOUS
 10
286.419586
 20
35.675977
 42
0.026813
  0
VERTEX
  8
1
  6
CONTINUOUS
 10
286.447232
 20
35.683283
 42
0.027357
  0
VERTEX
  8
1
  6
CONTINUOUS
 10
286.472891
 20
35.693138
 42
0.029551
  0
VERTEX
  8
1
  6
CONTINUOUS
 10
286.497261
 20
35.705832
 42
0.030470
  0
VERTEX
  8
1
  6
CONTINUOUS
 10
286.518625
 20
35.720463
 42
0.033666
  0
VERTEX
  8
1
  6
CONTINUOUS
 10
286.537940
 20
35.737689
 42
0.034877
  0
VERTEX
  8
1
  6
CONTINUOUS
 10
286.553624
 20
35.756131
 42
0.038451
  0
VERTEX
  8
1
  6
CONTINUOUS
 10
286.566450
 20
35.776645
 42
0.039608
  0
VERTEX
  8
1
  6
CONTINUOUS
 10
286.575401
 20
35.797743
 42
0.042094
  0
VERTEX
  8
1
  6
CONTINUOUS
 10
286.580817
 20
35.820000
  0
SEQEND
  8
0
  0
LINE
  8
1
  6
CONTINUOUS
 10
286.162000
 20
35.840000
 11
285.962000
 21
35.840000
  0
LINE
  8
1
  6
CONTINUOUS
 10
286.762000
 20
35.840000
 11
286.562000
 21
35.840000
  0
TEXT
  8
1
  6
CONTINUOUS
 40
0.075000
 10
285.702000
 20
35.418000
  1
0.40
  7
ROMANC
  0
LINE
  8
1
  6
CONTINUOUS
 10
286.089000
 20
35.456000
 11
286.162000
 21
35.456000
  0
LINE
  8
1
  6
CONTINUOUS
 10
286.712000
 20
35.456000
 11
286.562000
 21
35.456000
  0
LINE
  8
1
  6
CONTINUOUS
 10
286.200000
 20
35.475000
 11
286.124000
 21
35.437000
  0
LINE
  8
1
  6
CONTINUOUS
 10
286.524000
 20
35.437000
 11
286.600000
 21
35.475000
  0
LINE
  8
1
  6
CONTINUOUS
 10
286.162000
 20
35.802000
 11
286.162000
 21
35.418000
  0
LINE
  8
1
  6
CONTINUOUS
 10
286.562000
 20
35.802000
 11
286.562000
 21
35.418000
  0
LINE
  8
1
  6
CONTINUOUS
 10
285.962000
 20
35.840000
 11
285.962000
 21
37.340000
  0
TEXT
  8
1
  6
CONTINUOUS
 40
0.075000
 10
286.225000
 20
35.162000
  1
0.80
  7
ROMANC
  0
LINE
  8
1
  6
CONTINUOUS
 10
286.187000
 20
35.200000
 11
285.962000
 21
35.200000
  0
LINE
  8
1
  6
CONTINUOUS
 10
286.536000
 20
35.200000
 11
286.762000
 21
35.200000
  0
LINE
  8
1
  6
CONTINUOUS
 10
285.924000
 20
35.181000
 11
286.000000
 21
35.219000
  0
LINE
  8
1
  6
CONTINUOUS
 10
286.800000
 20
35.219000
 11
286.724000
 21
35.181000
  0
LINE
  8
1
  6
CONTINUOUS
 10
285.962000
 20
35.802000
 11
285.962000
 21
35.162000
  0
LINE
  8
1
  6
CONTINUOUS
 10
286.762000
 20
35.802000
 11
286.762000
 21
35.162000
  0
POLYLINE
  8
1
  6
CONTINUOUS
 66
     1
 70
     0
  0
VERTEX
  8
1
  6
CONTINUOUS
 10
286.162364
 20
35.840127
 42
0.043663
  0
VERTEX
  8
1
  6
CONTINUOUS
 10
286.164113
 20
35.820428
 42
0.042017
  0
VERTEX
  8
1
  6
CONTINUOUS
 10
286.169178
 20
35.801303
 42
0.040949
  0
VERTEX
  8
1
  6
CONTINUOUS
 10
286.177754
 20
35.782443
 42
0.037205
  0
VERTEX
  8
1
  6
CONTINUOUS
 10
286.189157
 20
35.765126
 42
0.035806
  0
VERTEX
  8
1
  6
CONTINUOUS
 10
286.203994
 20
35.748523
 42
0.031955
  0
VERTEX
  8
1
  6
CONTINUOUS
 10
286.220941
 20
35.734059
 42
0.030789
  0
VERTEX
  8
1
  6
CONTINUOUS
 10
286.240949
 20
35.720929
 42
0.027895
  0
VERTEX
  8
1
  6
CONTINUOUS
 10
286.262363
 20
35.710221
 42
0.027129
  0
VERTEX
  8
1
  6
CONTINUOUS
 10
286.286085
 20
35.701463
 42
0.025427
  0
VERTEX
  8
1
  6
CONTINUOUS
 10
286.310599
 20
35.695235
 42
0.025057
  0
VERTEX
  8
1
  6
CONTINUOUS
 10
286.336354
 20
35.691399
 42
0.024503
  0
VERTEX
  8
1
  6
CONTINUOUS
 10
286.362364
 20
35.690124
 42
0.024503
  0
VERTEX
  8
1
  6
CONTINUOUS
 10
286.388373
 20
35.691399
 42
0.025057
  0
VERTEX
  8
1
  6
CONTINUOUS
 10
286.414128
 20
35.695235
 42
0.025427
  0
VERTEX
  8
1
  6
CONTINUOUS
 10
286.438643
 20
35.701463
 42
0.027129
  0
VERTEX
  8
1
  6
CONTINUOUS
 10
286.462365
 20
35.710221
 42
0.027895
  0
VERTEX
  8
1
  6
CONTINUOUS
 10
286.483779
 20
35.720929
 42
0.030789
  0
VERTEX
  8
1
  6
CONTINUOUS
 10
286.503786
 20
35.734059
 42
0.031955
  0
VERTEX
  8
1
  6
CONTINUOUS
 10
286.520734
 20
35.748523
 42
0.035806
  0
VERTEX
  8
1
  6
CONTINUOUS
 10
286.535570
 20
35.765126
 42
0.037205
  0
VERTEX
  8
1
  6
CONTINUOUS
 10
286.546973
 20
35.782443
 42
0.040949
  0
VERTEX
  8
1
  6
CONTINUOUS
 10
286.555550
 20
35.801304
 42
0.042017
  0
VERTEX
  8
1
  6
CONTINUOUS
 10
286.560614
 20
35.820428
 42
0.043663
  0
VERTEX
  8
1
  6
CONTINUOUS
 10
286.562364
 20
35.840127
  0
SEQEND
  8
0
  0
TEXT
  8
1
  6
CONTINUOUS
 40
0.075000
 10
287.136000
 20
36.027000
  1
0.15
 50
90.000000
  7
ROMANC
  0
LINE
  8
1
  6
CONTINUOUS
 10
287.098000
 20
35.913000
 11
287.098000
 21
35.840000
  0
LINE
  8
1
  6
CONTINUOUS
 10
287.098000
 20
35.540000
 11
287.098000
 21
35.690000
  0
LINE
  8
1
  6
CONTINUOUS
 10
287.117000
 20
35.802000
 11
287.079000
 21
35.878000
  0
LINE
  8
1
  6
CONTINUOUS
 10
287.079000
 20
35.728000
 11
287.117000
 21
35.652000
  0
LINE
  8
1
  6
CONTINUOUS
 10
286.800000
 20
35.840000
 11
287.136000
 21
35.840000
  0
LINE
  8
1
  6
CONTINUOUS
 10
286.400000
 20
35.690000
 11
287.136000
 21
35.690000
  0
LINE
  8
1
  6
CONTINUOUS
 10
285.962000
 20
37.340000
 11
286.762000
 21
37.340000
  0
TEXT
  8
1
  6
CONTINUOUS
 40
0.075000
 10
287.446000
 20
36.378000
  1
1.65
 50
90.000000
  7
ROMANC
  0
LINE
  8
1
  6
CONTINUOUS
 10
287.408000
 20
36.340000
 11
287.408000
 21
35.690000
  0
LINE
  8
1
  6
CONTINUOUS
 10
287.408000
 20
36.689000
 11
287.408000
 21
37.340000
  0
LINE
  8
1
  6
CONTINUOUS
 10
287.427000
 20
35.652000
 11
287.389000
 21
35.728000
  0
LINE
  8
1
  6
CONTINUOUS
 10
287.389000
 20
37.378000
 11
287.427000
 21
37.302000
  0
LINE
  8
1
  6
CONTINUOUS
 10
287.174000
 20
35.690000
 11
287.446000
 21
35.690000
  0
LINE
  8
1
  6
CONTINUOUS
 10
286.800000
 20
37.340000
 11
287.446000
 21
37.340000
  0
ENDSEC
  0
EOF
