  0
SECTION
  2
HEADER
  9
$ACADVER
  1
AC1009
  9
$INSBASE
 10
0.0
 20
0.0
 30
0.0
  9
$EXTMIN
 10
67.623298
 20
-27.532393
 30
0.0
  9
$EXTMAX
 10
351.54669
 20
44.747444
 30
0.0
  9
$LIMMIN
 10
0.0
 20
0.0
  9
$LIMMAX
 10
410.0
 20
287.0
  9
$ORTHOMODE
 70
     1
  9
$REGENMODE
 70
     1
  9
$FILLMODE
 70
     1
  9
$QTEXTMODE
 70
     0
  9
$MIRRTEXT
 70
     1
  9
$DRAGMODE
 70
     2
  9
$LTSCALE
 40
25.0
  9
$OSMODE
 70
    32
  9
$ATTMODE
 70
     1
  9
$TEXTSIZE
 40
0.1
  9
$TRACEWID
 40
1.0
  9
$TEXTSTYLE
  7
ROMANC
  9
$CLAYER
  8
0
  9
$CELTYPE
  6
BYLAYER
  9
$CECOLOR
 62
   256
  9
$DIMSCALE
 40
1.5
  9
$DIMASZ
 40
0.1
  9
$DIMEXO
 40
0.01
  9
$DIMDLI
 40
7.0
  9
$DIMRND
 40
0.0
  9
$DIMDLE
 40
0.0
  9
$DIMEXE
 40
0.01
  9
$DIMTP
 40
0.0
  9
$DIMTM
 40
0.0
  9
$DIMTXT
 40
0.05
  9
$DIMCEN
 40
0.1
  9
$DIMTSZ
 40
0.0
  9
$DIMTOL
 70
     0
  9
$DIMLIM
 70
     0
  9
$DIMTIH
 70
     0
  9
$DIMTOH
 70
     0
  9
$DIMSE1
 70
     0
  9
$DIMSE2
 70
     0
  9
$DIMTAD
 70
     1
  9
$DIMZIN
 70
     0
  9
$DIMBLK
  1

  9
$DIMASO
 70
     1
  9
$DIMSHO
 70
     0
  9
$DIMPOST
  1

  9
$DIMAPOST
  1

  9
$DIMALT
 70
     0
  9
$DIMALTD
 70
     2
  9
$DIMALTF
 40
25.4
  9
$DIMLFAC
 40
1.0
  9
$DIMTOFL
 70
     1
  9
$DIMTVP
 40
0.0
  9
$DIMTIX
 70
     1
  9
$DIMSOXD
 70
     0
  9
$DIMSAH
 70
     0
  9
$DIMBLK1
  1

  9
$DIMBLK2
  1

  9
$DIMSTYLE
  2
SILVIA
  9
$DIMCLRD
 70
     0
  9
$DIMCLRE
 70
     0
  9
$DIMCLRT
 70
     0
  9
$DIMTFAC
 40
70.0
  9
$DIMGAP
 40
0.09
  9
$LUNITS
 70
     2
  9
$LUPREC
 70
     2
  9
$SKETCHINC
 40
1.0
  9
$FILLETRAD
 40
0.0
  9
$AUNITS
 70
     0
  9
$AUPREC
 70
     0
  9
$MENU
  1
acad
  9
$ELEVATION
 40
0.0
  9
$PELEVATION
 40
0.0
  9
$THICKNESS
 40
0.0
  9
$LIMCHECK
 70
     0
  9
$BLIPMODE
 70
     0
  9
$CHAMFERA
 40
0.0
  9
$CHAMFERB
 40
0.0
  9
$SKPOLY
 70
     0
  9
$TDCREATE
 40
2450079.690646643
  9
$TDUPDATE
 40
2450723.539247453
  9
$TDINDWG
 40
0.0008906250
  9
$TDUSRTIMER
 40
0.0008906250
  9
$USRTIMER
 70
     1
  9
$ANGBASE
 50
0.0
  9
$ANGDIR
 70
     0
  9
$PDMODE
 70
     0
  9
$PDSIZE
 40
0.0
  9
$PLINEWID
 40
0.0
  9
$COORDS
 70
     2
  9
$SPLFRAME
 70
     0
  9
$SPLINETYPE
 70
     6
  9
$SPLINESEGS
 70
     8
  9
$ATTDIA
 70
     0
  9
$ATTREQ
 70
     1
  9
$HANDLING
 70
     0
  9
$HANDSEED
  5
0
  9
$SURFTAB1
 70
     6
  9
$SURFTAB2
 70
     6
  9
$SURFTYPE
 70
     6
  9
$SURFU
 70
     6
  9
$SURFV
 70
     6
  9
$UCSNAME
  2

  9
$UCSORG
 10
0.0
 20
0.0
 30
0.0
  9
$UCSXDIR
 10
1.0
 20
0.0
 30
0.0
  9
$UCSYDIR
 10
0.0
 20
1.0
 30
0.0
  9
$PUCSNAME
  2

  9
$PUCSORG
 10
0.0
 20
0.0
 30
0.0
  9
$PUCSXDIR
 10
1.0
 20
0.0
 30
0.0
  9
$PUCSYDIR
 10
0.0
 20
1.0
 30
0.0
  9
$USERI1
 70
     0
  9
$USERI2
 70
     0
  9
$USERI3
 70
     0
  9
$USERI4
 70
     0
  9
$USERI5
 70
     0
  9
$USERR1
 40
0.0
  9
$USERR2
 40
0.0
  9
$USERR3
 40
0.0
  9
$USERR4
 40
0.0
  9
$USERR5
 40
0.0
  9
$WORLDVIEW
 70
     1
  9
$SHADEDGE
 70
     3
  9
$SHADEDIF
 70
    70
  9
$TILEMODE
 70
     1
  9
$MAXACTVP
 70
    16
  9
$PINSBASE
 10
0.0
 20
0.0
 30
0.0
  9
$PLIMCHECK
 70
     0
  9
$PEXTMIN
 10
1.000000E+20
 20
1.000000E+20
 30
1.000000E+20
  9
$PEXTMAX
 10
-1.000000E+20
 20
-1.000000E+20
 30
-1.000000E+20
  9
$PLIMMIN
 10
0.0
 20
0.0
  9
$PLIMMAX
 10
12.0
 20
9.0
  9
$UNITMODE
 70
     0
  9
$VISRETAIN
 70
     0
  9
$PLINEGEN
 70
     0
  9
$PSLTSCALE
 70
     0
  9
$TREEDEPTH
 70
  3020
  9
$DWGCODEPAGE
  3
iso8859-1
  0
ENDSEC
  0
SECTION
  2
TABLES
  0
TABLE
  2
VPORT
 70
     1
  0
VPORT
  2
*ACTIVE
 70
     0
 10
0.0
 20
0.0
 11
1.0
 21
1.0
 12
293.655532
 22
21.063061
 13
0.0
 23
0.0
 14
1.0
 24
1.0
 15
10.0
 25
10.0
 16
0.0
 26
0.0
 36
1.0
 17
0.0
 27
0.0
 37
0.0
 40
17.701892
 41
1.611024
 42
50.0
 43
0.0
 44
0.0
 50
0.0
 51
0.0
 71
     0
 72
   100
 73
     1
 74
     0
 75
     0
 76
     0
 77
     0
 78
     1
  0
ENDTAB
  0
TABLE
  2
LTYPE
 70
     1
  0
LTYPE
  2
CONTINUOUS
 70
    64
  3
Solid line
 72
    65
 73
     0
 40
0.0
  0
ENDTAB
  0
TABLE
  2
LAYER
 70
     2
  0
LAYER
  2
0
 70
    64
 62
     7
  6
CONTINUOUS
  0
LAYER
  2
DEFPOINTS
 70
    64
 62
     7
  6
CONTINUOUS
  0
ENDTAB
  0
TABLE
  2
STYLE
 70
     2
  0
STYLE
  2
STANDARD
 70
     0
 40
0.0
 41
1.0
 50
0.0
 71
     0
 42
0.1
  3
txt
  4

  0
STYLE
  2
ROMANC
 70
    64
 40
0.0
 41
1.0
 50
0.0
 71
     0
 42
0.1
  3
romanc
  4

  0
ENDTAB
  0
TABLE
  2
VIEW
 70
     0
  0
ENDTAB
  0
TABLE
  2
UCS
 70
     0
  0
ENDTAB
  0
TABLE
  2
APPID
 70
     1
  0
APPID
  2
ACAD
 70
    64
  0
ENDTAB
  0
TABLE
  2
DIMSTYLE
 70
     1
  0
DIMSTYLE
  2
SILVIA
 70
    64
  3

  4

  5

  6

  7

 40
1.5
 41
0.1
 42
0.01
 43
7.0
 44
0.01
 45
0.0
 46
0.0
 47
0.0
 48
0.0
140
0.05
141
0.1
142
0.0
143
25.4
144
1.0
145
0.0
146
70.0
147
0.09
 71
     0
 72
     0
 73
     0
 74
     0
 75
     0
 76
     0
 77
     1
 78
     0
170
     0
171
     2
172
     1
173
     0
174
     1
175
     0
176
     0
177
     0
178
     0
  0
ENDTAB
  0
ENDSEC
  0
SECTION
  2
BLOCKS
  0
BLOCK
  8
0
  2
*D0
 70
    65
 10
0.0
 20
0.0
 30
0.0
  3
*D
  0
LINE
  8
0
  6
BYBLOCK
 62
     0
 10
289.2745
 20
18.372578
 30
0.0
 11
289.2745
 21
17.653225
 31
0.0
  0
LINE
  8
0
  6
BYBLOCK
 62
     0
 10
284.3045
 20
18.372578
 30
0.0
 11
284.3045
 21
17.653225
 31
0.0
  0
LINE
  8
0
  6
BYBLOCK
 62
     0
 10
289.1245
 20
17.668225
 30
0.0
 11
284.4545
 21
17.668225
 31
0.0
  0
SOLID
  8
0
  6
BYBLOCK
 62
     0
 10
289.1245
 20
17.693225
 30
0.0
 11
289.1245
 21
17.643225
 31
0.0
 12
289.2745
 22
17.668225
 32
0.0
 13
289.2745
 23
17.668225
 33
0.0
  0
SOLID
  8
0
  6
BYBLOCK
 62
     0
 10
284.4545
 20
17.693225
 30
0.0
 11
284.4545
 21
17.643225
 31
0.0
 12
284.3045
 22
17.668225
 32
0.0
 13
284.3045
 23
17.668225
 33
0.0
  0
TEXT
  8
0
  6
BYBLOCK
 62
     0
 10
286.666286
 20
17.705725
 30
0.0
 40
0.075
  1
4.99
  7
ROMANC
 72
     1
 11
286.7895
 21
17.743225
 31
0.0
 73
     2
  0
POINT
  8
DEFPOINTS
  6
BYBLOCK
 62
     0
 10
289.2745
 20
18.387578
 30
0.0
  0
POINT
  8
DEFPOINTS
  6
BYBLOCK
 62
     0
 10
284.3045
 20
18.387578
 30
0.0
  0
POINT
  8
DEFPOINTS
  6
BYBLOCK
 62
     0
 10
284.3045
 20
17.668225
 30
0.0
  0
ENDBLK
  8
0
  0
BLOCK
  8
0
  2
*D1
 70
    65
 10
0.0
 20
0.0
 30
0.0
  3
*D
  0
LINE
  8
0
  6
BYBLOCK
 62
     0
 10
289.2745
 20
18.372578
 30
0.0
 11
289.2745
 21
17.653225
 31
0.0
  0
LINE
  8
0
  6
BYBLOCK
 62
     0
 10
290.1845
 20
18.752578
 30
0.0
 11
290.1845
 21
17.653225
 31
0.0
  0
LINE
  8
0
  6
BYBLOCK
 62
     0
 10
289.4245
 20
17.668225
 30
0.0
 11
290.0345
 21
17.668225
 31
0.0
  0
SOLID
  8
0
  6
BYBLOCK
 62
     0
 10
289.4245
 20
17.693225
 30
0.0
 11
289.4245
 21
17.643225
 31
0.0
 12
289.2745
 22
17.668225
 32
0.0
 13
289.2745
 23
17.668225
 33
0.0
  0
SOLID
  8
0
  6
BYBLOCK
 62
     0
 10
290.0345
 20
17.693225
 30
0.0
 11
290.0345
 21
17.643225
 31
0.0
 12
290.1845
 22
17.668225
 32
0.0
 13
290.1845
 23
17.668225
 33
0.0
  0
TEXT
  8
0
  6
BYBLOCK
 62
     0
 10
289.608072
 20
17.705725
 30
0.0
 40
0.075
  1
0.91
  7
ROMANC
 72
     1
 11
289.7295
 21
17.743225
 31
0.0
 73
     2
  0
POINT
  8
DEFPOINTS
  6
BYBLOCK
 62
     0
 10
289.2745
 20
18.387578
 30
0.0
  0
POINT
  8
DEFPOINTS
  6
BYBLOCK
 62
     0
 10
290.1845
 20
18.767578
 30
0.0
  0
POINT
  8
DEFPOINTS
  6
BYBLOCK
 62
     0
 10
290.1845
 20
17.668225
 30
0.0
  0
ENDBLK
  8
0
  0
BLOCK
  8
0
  2
*D2
 70
    65
 10
0.0
 20
0.0
 30
0.0
  3
*D
  0
LINE
  8
0
  6
BYBLOCK
 62
     0
 10
290.1995
 20
18.767578
 30
0.0
 11
290.933799
 21
18.767578
 31
0.0
  0
LINE
  8
0
  6
BYBLOCK
 62
     0
 10
290.1995
 20
20.547578
 30
0.0
 11
290.933799
 21
20.547578
 31
0.0
  0
LINE
  8
0
  6
BYBLOCK
 62
     0
 10
290.918799
 20
18.917578
 30
0.0
 11
290.918799
 21
20.397578
 31
0.0
  0
SOLID
  8
0
  6
BYBLOCK
 62
     0
 10
290.893799
 20
18.917578
 30
0.0
 11
290.943799
 21
18.917578
 31
0.0
 12
290.918799
 22
18.767578
 32
0.0
 13
290.918799
 23
18.767578
 33
0.0
  0
SOLID
  8
0
  6
BYBLOCK
 62
     0
 10
290.893799
 20
20.397578
 30
0.0
 11
290.943799
 21
20.397578
 31
0.0
 12
290.918799
 22
20.547578
 32
0.0
 13
290.918799
 23
20.547578
 33
0.0
  0
TEXT
  8
0
  6
BYBLOCK
 62
     0
 10
290.881299
 20
19.527221
 30
0.0
 40
0.075
  1
1.80
 50
90.0
  7
ROMANC
 72
     1
 11
290.843799
 21
19.657578
 31
0.0
 73
     2
  0
POINT
  8
DEFPOINTS
  6
BYBLOCK
 62
     0
 10
290.1845
 20
18.767578
 30
0.0
  0
POINT
  8
DEFPOINTS
  6
BYBLOCK
 62
     0
 10
290.1845
 20
20.547578
 30
0.0
  0
POINT
  8
DEFPOINTS
  6
BYBLOCK
 62
     0
 10
290.918799
 20
20.547578
 30
0.0
  0
ENDBLK
  8
0
  0
BLOCK
  8
0
  2
*D3
 70
    65
 10
0.0
 20
0.0
 30
0.0
  3
*D
  0
LINE
  8
0
  6
BYBLOCK
 62
     0
 10
290.1995
 20
18.767578
 30
0.0
 11
290.933799
 21
18.767578
 31
0.0
  0
LINE
  8
0
  6
BYBLOCK
 62
     0
 10
289.2895
 20
18.367578
 30
0.0
 11
290.933799
 21
18.367578
 31
0.0
  0
LINE
  8
0
  6
BYBLOCK
 62
     0
 10
290.918799
 20
18.917578
 30
0.0
 11
290.918799
 21
19.067578
 31
0.0
  0
LINE
  8
0
  6
BYBLOCK
 62
     0
 10
290.918799
 20
18.217578
 30
0.0
 11
290.918799
 21
18.067578
 31
0.0
  0
SOLID
  8
0
  6
BYBLOCK
 62
     0
 10
290.893799
 20
18.917578
 30
0.0
 11
290.943799
 21
18.917578
 31
0.0
 12
290.918799
 22
18.767578
 32
0.0
 13
290.918799
 23
18.767578
 33
0.0
  0
SOLID
  8
0
  6
BYBLOCK
 62
     0
 10
290.893799
 20
18.217578
 30
0.0
 11
290.943799
 21
18.217578
 31
0.0
 12
290.918799
 22
18.367578
 32
0.0
 13
290.918799
 23
18.367578
 33
0.0
  0
LINE
  8
0
  6
BYBLOCK
 62
     0
 10
290.918799
 20
18.767578
 30
0.0
 11
290.918799
 21
18.367578
 31
0.0
  0
TEXT
  8
0
  6
BYBLOCK
 62
     0
 10
290.881299
 20
18.442578
 30
0.0
 40
0.075
  1
0.38
 50
90.0
  7
ROMANC
 72
     1
 11
290.843799
 21
18.567578
 31
0.0
 73
     2
  0
POINT
  8
DEFPOINTS
  6
BYBLOCK
 62
     0
 10
290.1845
 20
18.767578
 30
0.0
  0
POINT
  8
DEFPOINTS
  6
BYBLOCK
 62
     0
 10
289.2745
 20
18.367578
 30
0.0
  0
POINT
  8
DEFPOINTS
  6
BYBLOCK
 62
     0
 10
290.918799
 20
18.367578
 30
0.0
  0
ENDBLK
  8
0
  0
BLOCK
  8
0
  2
*D4
 70
    65
 10
0.0
 20
0.0
 30
0.0
  3
*D
  0
LINE
  8
0
  6
BYBLOCK
 62
     0
 10
283.518567
 20
17.653225
 30
0.0
 11
283.518567
 21
17.139363
 31
0.0
  0
LINE
  8
0
  6
BYBLOCK
 62
     0
 10
289.398567
 20
17.653225
 30
0.0
 11
289.398567
 21
17.139363
 31
0.0
  0
LINE
  8
0
  6
BYBLOCK
 62
     0
 10
283.668567
 20
17.154363
 30
0.0
 11
289.248567
 21
17.154363
 31
0.0
  0
SOLID
  8
0
  6
BYBLOCK
 62
     0
 10
283.668567
 20
17.179363
 30
0.0
 11
283.668567
 21
17.129363
 31
0.0
 12
283.518567
 22
17.154363
 32
0.0
 13
283.518567
 23
17.154363
 33
0.0
  0
SOLID
  8
0
  6
BYBLOCK
 62
     0
 10
289.248567
 20
17.179363
 30
0.0
 11
289.248567
 21
17.129363
 31
0.0
 12
289.398567
 22
17.154363
 32
0.0
 13
289.398567
 23
17.154363
 33
0.0
  0
TEXT
  8
0
  6
BYBLOCK
 62
     0
 10
286.333567
 20
17.191863
 30
0.0
 40
0.075
  1
5.88
  7
ROMANC
 72
     1
 11
286.458567
 21
17.229363
 31
0.0
 73
     2
  0
POINT
  8
DEFPOINTS
  6
BYBLOCK
 62
     0
 10
283.518567
 20
17.668225
 30
0.0
  0
POINT
  8
DEFPOINTS
  6
BYBLOCK
 62
     0
 10
289.398567
 20
17.668225
 30
0.0
  0
POINT
  8
DEFPOINTS
  6
BYBLOCK
 62
     0
 10
289.398567
 20
17.154363
 30
0.0
  0
ENDBLK
  8
0
  0
BLOCK
  8
0
  2
*D5
 70
    65
 10
0.0
 20
0.0
 30
0.0
  3
*D
  0
LINE
  8
0
  6
BYBLOCK
 62
     0
 10
290.147865
 20
20.547578
 30
0.0
 11
290.448812
 21
20.547578
 31
0.0
  0
LINE
  8
0
  6
BYBLOCK
 62
     0
 10
290.147865
 20
18.367578
 30
0.0
 11
290.448812
 21
18.367578
 31
0.0
  0
LINE
  8
0
  6
BYBLOCK
 62
     0
 10
290.433812
 20
20.397578
 30
0.0
 11
290.433812
 21
18.517578
 31
0.0
  0
SOLID
  8
0
  6
BYBLOCK
 62
     0
 10
290.408812
 20
20.397578
 30
0.0
 11
290.458812
 21
20.397578
 31
0.0
 12
290.433812
 22
20.547578
 32
0.0
 13
290.433812
 23
20.547578
 33
0.0
  0
SOLID
  8
0
  6
BYBLOCK
 62
     0
 10
290.408812
 20
18.517578
 30
0.0
 11
290.458812
 21
18.517578
 31
0.0
 12
290.433812
 22
18.367578
 32
0.0
 13
290.433812
 23
18.367578
 33
0.0
  0
TEXT
  8
0
  6
BYBLOCK
 62
     0
 10
290.396312
 20
19.332578
 30
0.0
 40
0.075
  1
2.18
 50
90.0
  7
ROMANC
 72
     1
 11
290.358812
 21
19.457578
 31
0.0
 73
     2
  0
POINT
  8
DEFPOINTS
  6
BYBLOCK
 62
     0
 10
290.132865
 20
20.547578
 30
0.0
  0
POINT
  8
DEFPOINTS
  6
BYBLOCK
 62
     0
 10
290.132865
 20
18.367578
 30
0.0
  0
POINT
  8
DEFPOINTS
  6
BYBLOCK
 62
     0
 10
290.433812
 20
18.367578
 30
0.0
  0
ENDBLK
  8
0
  0
ENDSEC
  0
SECTION
  2
ENTITIES
  0
TEXT
  8
0
 10
283.887846
 20
24.008872
 30
0.0
 40
0.3
  1
P = 162 dm
  7
ROMANC
  0
TEXT
  8
0
 10
283.938862
 20
24.706451
 30
0.0
 40
0.3
  1
S = 1252  dm
  7
ROMANC
  0
TEXT
  8
0
 10
283.925768
 20
25.790755
 30
0.0
 40
0.3
  1
TIPUS   NT1252
  7
ROMANC
  0
LINE
  8
0
 10
291.895795
 20
28.194896
 30
0.0
 11
281.395795
 21
28.194896
 31
0.0
  0
TEXT
  8
0
 10
283.925768
 20
25.305041
 30
0.0
 40
0.3
  1
ESCALA  1:50
  7
ROMANC
  0
LINE
  8
0
 10
281.395795
 20
13.344896
 30
0.0
 11
291.895795
 21
13.344896
 31
0.0
  0
LINE
  8
0
 10
281.395795
 20
28.194896
 30
0.0
 11
281.395795
 21
13.344896
 31
0.0
  0
LINE
  8
0
 10
291.895795
 20
13.344896
 30
0.0
 11
291.895795
 21
28.194896
 31
0.0
  0
TEXT
  8
0
 10
287.699215
 20
25.012367
 30
0.0
 40
0.1
  1
2
  7
ROMANC
  0
LINE
  8
0
  6
BYBLOCK
 62
     0
 10
283.518567
 20
17.653225
 30
0.0
 11
283.518567
 21
17.139363
 31
0.0
  0
LINE
  8
0
  6
BYBLOCK
 62
     0
 10
289.398567
 20
17.653225
 30
0.0
 11
289.398567
 21
17.139363
 31
0.0
  0
LINE
  8
0
  6
BYBLOCK
 62
     0
 10
283.668567
 20
17.154363
 30
0.0
 11
289.248567
 21
17.154363
 31
0.0
  0
SOLID
  8
0
  6
BYBLOCK
 62
     0
 10
283.668567
 20
17.179363
 30
0.0
 11
283.668567
 21
17.129363
 31
0.0
 12
283.518567
 22
17.154363
 32
0.0
 13
283.518567
 23
17.154363
 33
0.0
  0
SOLID
  8
0
  6
BYBLOCK
 62
     0
 10
289.248567
 20
17.179363
 30
0.0
 11
289.248567
 21
17.129363
 31
0.0
 12
289.398567
 22
17.154363
 32
0.0
 13
289.398567
 23
17.154363
 33
0.0
  0
TEXT
  8
0
  6
BYBLOCK
 62
     0
 10
286.333567
 20
17.191863
 30
0.0
 40
0.075
  1
5.90
  7
ROMANC
 72
     4
 11
286.458567
 21
17.229363
 31
0.0
  0
POINT
  8
DEFPOINTS
  6
BYBLOCK
 62
     0
 10
283.518567
 20
17.668225
 30
0.0
  0
POINT
  8
DEFPOINTS
  6
BYBLOCK
 62
     0
 10
289.398567
 20
17.668225
 30
0.0
  0
POINT
  8
DEFPOINTS
  6
BYBLOCK
 62
     0
 10
289.398567
 20
17.154363
 30
0.0
  0
LINE
  8
0
  6
BYBLOCK
 62
     0
 10
288.488567
 20
18.372578
 30
0.0
 11
288.488567
 21
17.653225
 31
0.0
  0
LINE
  8
0
  6
BYBLOCK
 62
     0
 10
283.518567
 20
18.372578
 30
0.0
 11
283.518567
 21
17.653225
 31
0.0
  0
LINE
  8
0
  6
BYBLOCK
 62
     0
 10
288.338567
 20
17.668225
 30
0.0
 11
283.668567
 21
17.668225
 31
0.0
  0
SOLID
  8
0
  6
BYBLOCK
 62
     0
 10
288.338567
 20
17.693225
 30
0.0
 11
288.338567
 21
17.643225
 31
0.0
 12
288.488567
 22
17.668225
 32
0.0
 13
288.488567
 23
17.668225
 33
0.0
  0
SOLID
  8
0
  6
BYBLOCK
 62
     0
 10
283.668567
 20
17.693225
 30
0.0
 11
283.668567
 21
17.643225
 31
0.0
 12
283.518567
 22
17.668225
 32
0.0
 13
283.518567
 23
17.668225
 33
0.0
  0
TEXT
  8
0
  6
BYBLOCK
 62
     0
 10
285.880353
 20
17.705725
 30
0.0
 40
0.075
  1
4.99
  7
ROMANC
 72
     1
 11
286.003567
 21
17.743225
 31
0.0
 73
     2
  0
POINT
  8
DEFPOINTS
  6
BYBLOCK
 62
     0
 10
288.488567
 20
18.387578
 30
0.0
  0
POINT
  8
DEFPOINTS
  6
BYBLOCK
 62
     0
 10
283.518567
 20
18.387578
 30
0.0
  0
POINT
  8
DEFPOINTS
  6
BYBLOCK
 62
     0
 10
283.518567
 20
17.668225
 30
0.0
  0
LINE
  8
0
 10
283.518567
 20
20.547578
 30
0.0
 11
289.398567
 21
20.547578
 31
0.0
  0
LINE
  8
0
 10
289.398567
 20
20.547578
 30
0.0
 11
289.398567
 21
18.767578
 31
0.0
  0
LINE
  8
0
 10
289.398567
 20
18.767578
 30
0.0
 11
288.488567
 21
18.767578
 31
0.0
  0
LINE
  8
0
 10
288.488567
 20
18.767578
 30
0.0
 11
288.488567
 21
18.387578
 31
0.0
  0
LINE
  8
0
 10
288.488567
 20
18.387578
 30
0.0
 11
283.518567
 21
18.387578
 31
0.0
  0
LINE
  8
0
 10
283.518567
 20
18.387578
 30
0.0
 11
283.518567
 21
20.547578
 31
0.0
  0
LINE
  8
0
 10
283.508567
 20
20.557578
 30
0.0
 11
289.408567
 21
20.557578
 31
0.0
  0
LINE
  8
0
 10
289.408567
 20
20.557578
 30
0.0
 11
289.408567
 21
18.757578
 31
0.0
  0
LINE
  8
0
 10
289.408567
 20
18.757578
 30
0.0
 11
288.498567
 21
18.757578
 31
0.0
  0
LINE
  8
0
 10
288.498567
 20
18.757578
 30
0.0
 11
288.498567
 21
18.377578
 31
0.0
  0
LINE
  8
0
 10
288.498567
 20
18.377578
 30
0.0
 11
283.508567
 21
18.377578
 31
0.0
  0
LINE
  8
0
 10
283.508567
 20
18.377578
 30
0.0
 11
283.508567
 21
20.557578
 31
0.0
  0
LINE
  8
0
 10
283.498567
 20
20.567578
 30
0.0
 11
289.418567
 21
20.567578
 31
0.0
  0
LINE
  8
0
 10
289.418567
 20
20.567578
 30
0.0
 11
289.418567
 21
18.747578
 31
0.0
  0
LINE
  8
0
 10
289.418567
 20
18.747578
 30
0.0
 11
288.508567
 21
18.747578
 31
0.0
  0
LINE
  8
0
 10
288.508567
 20
18.747578
 30
0.0
 11
288.508567
 21
18.367578
 31
0.0
  0
LINE
  8
0
 10
288.508567
 20
18.367578
 30
0.0
 11
283.498567
 21
18.367578
 31
0.0
  0
LINE
  8
0
 10
283.498567
 20
18.367578
 30
0.0
 11
283.498567
 21
20.567578
 31
0.0
  0
LINE
  8
0
 10
283.508567
 20
20.557578
 30
0.0
 11
289.408567
 21
20.557578
 31
0.0
  0
LINE
  8
0
 10
289.408567
 20
20.557578
 30
0.0
 11
289.408567
 21
18.757578
 31
0.0
  0
LINE
  8
0
 10
289.408567
 20
18.757578
 30
0.0
 11
288.498567
 21
18.757578
 31
0.0
  0
LINE
  8
0
 10
288.498567
 20
18.757578
 30
0.0
 11
288.498567
 21
18.377578
 31
0.0
  0
LINE
  8
0
 10
288.498567
 20
18.377578
 30
0.0
 11
283.508567
 21
18.377578
 31
0.0
  0
LINE
  8
0
 10
283.508567
 20
18.377578
 30
0.0
 11
283.508567
 21
20.557578
 31
0.0
  0
LINE
  8
0
  6
BYBLOCK
 62
     0
 10
290.147865
 20
20.547578
 30
0.0
 11
290.448812
 21
20.547578
 31
0.0
  0
LINE
  8
0
  6
BYBLOCK
 62
     0
 10
290.147865
 20
18.367578
 30
0.0
 11
290.448812
 21
18.367578
 31
0.0
  0
LINE
  8
0
  6
BYBLOCK
 62
     0
 10
290.433812
 20
20.397578
 30
0.0
 11
290.433812
 21
18.517578
 31
0.0
  0
SOLID
  8
0
  6
BYBLOCK
 62
     0
 10
290.408812
 20
20.397578
 30
0.0
 11
290.458812
 21
20.397578
 31
0.0
 12
290.433812
 22
20.547578
 32
0.0
 13
290.433812
 23
20.547578
 33
0.0
  0
SOLID
  8
0
  6
BYBLOCK
 62
     0
 10
290.408812
 20
18.517578
 30
0.0
 11
290.458812
 21
18.517578
 31
0.0
 12
290.433812
 22
18.367578
 32
0.0
 13
290.433812
 23
18.367578
 33
0.0
  0
TEXT
  8
0
  6
BYBLOCK
 62
     0
 10
290.396312
 20
19.332578
 30
0.0
 40
0.075
  1
2.18
 50
90.0
  7
ROMANC
 72
     1
 11
290.358812
 21
19.457578
 31
0.0
 73
     2
  0
POINT
  8
DEFPOINTS
  6
BYBLOCK
 62
     0
 10
290.132865
 20
20.547578
 30
0.0
  0
POINT
  8
DEFPOINTS
  6
BYBLOCK
 62
     0
 10
290.132865
 20
18.367578
 30
0.0
  0
POINT
  8
DEFPOINTS
  6
BYBLOCK
 62
     0
 10
290.433812
 20
18.367578
 30
0.0
  0
LINE
  8
0
  6
BYBLOCK
 62
     0
 10
289.413567
 20
18.767578
 30
0.0
 11
290.147865
 21
18.767578
 31
0.0
  0
LINE
  8
0
  6
BYBLOCK
 62
     0
 10
289.413567
 20
20.547578
 30
0.0
 11
290.147865
 21
20.547578
 31
0.0
  0
LINE
  8
0
  6
BYBLOCK
 62
     0
 10
290.132865
 20
18.917578
 30
0.0
 11
290.132865
 21
20.397578
 31
0.0
  0
SOLID
  8
0
  6
BYBLOCK
 62
     0
 10
290.107865
 20
18.917578
 30
0.0
 11
290.157865
 21
18.917578
 31
0.0
 12
290.132865
 22
18.767578
 32
0.0
 13
290.132865
 23
18.767578
 33
0.0
  0
SOLID
  8
0
  6
BYBLOCK
 62
     0
 10
290.107865
 20
20.397578
 30
0.0
 11
290.157865
 21
20.397578
 31
0.0
 12
290.132865
 22
20.547578
 32
0.0
 13
290.132865
 23
20.547578
 33
0.0
  0
TEXT
  8
0
  6
BYBLOCK
 62
     0
 10
290.095365
 20
19.527221
 30
0.0
 40
0.075
  1
1.80
 50
90.0
  7
ROMANC
 72
     1
 11
290.057865
 21
19.657578
 31
0.0
 73
     2
  0
POINT
  8
DEFPOINTS
  6
BYBLOCK
 62
     0
 10
289.398567
 20
18.767578
 30
0.0
  0
POINT
  8
DEFPOINTS
  6
BYBLOCK
 62
     0
 10
289.398567
 20
20.547578
 30
0.0
  0
POINT
  8
DEFPOINTS
  6
BYBLOCK
 62
     0
 10
290.132865
 20
20.547578
 30
0.0
  0
LINE
  8
0
  6
BYBLOCK
 62
     0
 10
289.413567
 20
18.767578
 30
0.0
 11
290.147865
 21
18.767578
 31
0.0
  0
LINE
  8
0
  6
BYBLOCK
 62
     0
 10
288.503567
 20
18.367578
 30
0.0
 11
290.147865
 21
18.367578
 31
0.0
  0
LINE
  8
0
  6
BYBLOCK
 62
     0
 10
290.132865
 20
18.917578
 30
0.0
 11
290.132865
 21
19.067578
 31
0.0
  0
LINE
  8
0
  6
BYBLOCK
 62
     0
 10
290.132865
 20
18.217578
 30
0.0
 11
290.132865
 21
18.067578
 31
0.0
  0
SOLID
  8
0
  6
BYBLOCK
 62
     0
 10
290.107865
 20
18.917578
 30
0.0
 11
290.157865
 21
18.917578
 31
0.0
 12
290.132865
 22
18.767578
 32
0.0
 13
290.132865
 23
18.767578
 33
0.0
  0
SOLID
  8
0
  6
BYBLOCK
 62
     0
 10
290.107865
 20
18.217578
 30
0.0
 11
290.157865
 21
18.217578
 31
0.0
 12
290.132865
 22
18.367578
 32
0.0
 13
290.132865
 23
18.367578
 33
0.0
  0
LINE
  8
0
  6
BYBLOCK
 62
     0
 10
290.132865
 20
18.767578
 30
0.0
 11
290.132865
 21
18.367578
 31
0.0
  0
TEXT
  8
0
  6
BYBLOCK
 62
     0
 10
290.095365
 20
18.442578
 30
0.0
 40
0.075
  1
0.38
 50
90.0
  7
ROMANC
 72
     1
 11
290.057865
 21
18.567578
 31
0.0
 73
     2
  0
POINT
  8
DEFPOINTS
  6
BYBLOCK
 62
     0
 10
289.398567
 20
18.767578
 30
0.0
  0
POINT
  8
DEFPOINTS
  6
BYBLOCK
 62
     0
 10
288.488567
 20
18.367578
 30
0.0
  0
POINT
  8
DEFPOINTS
  6
BYBLOCK
 62
     0
 10
290.132865
 20
18.367578
 30
0.0
  0
LINE
  8
0
  6
BYBLOCK
 62
     0
 10
288.488567
 20
18.372578
 30
0.0
 11
288.488567
 21
17.653225
 31
0.0
  0
LINE
  8
0
  6
BYBLOCK
 62
     0
 10
289.398567
 20
18.752578
 30
0.0
 11
289.398567
 21
17.653225
 31
0.0
  0
LINE
  8
0
  6
BYBLOCK
 62
     0
 10
288.638567
 20
17.668225
 30
0.0
 11
289.248567
 21
17.668225
 31
0.0
  0
SOLID
  8
0
  6
BYBLOCK
 62
     0
 10
288.638567
 20
17.693225
 30
0.0
 11
288.638567
 21
17.643225
 31
0.0
 12
288.488567
 22
17.668225
 32
0.0
 13
288.488567
 23
17.668225
 33
0.0
  0
SOLID
  8
0
  6
BYBLOCK
 62
     0
 10
289.248567
 20
17.693225
 30
0.0
 11
289.248567
 21
17.643225
 31
0.0
 12
289.398567
 22
17.668225
 32
0.0
 13
289.398567
 23
17.668225
 33
0.0
  0
TEXT
  8
0
  6
BYBLOCK
 62
     0
 10
288.822138
 20
17.705725
 30
0.0
 40
0.075
  1
0.91
  7
ROMANC
 72
     1
 11
288.943567
 21
17.743225
 31
0.0
 73
     2
  0
POINT
  8
DEFPOINTS
  6
BYBLOCK
 62
     0
 10
288.488567
 20
18.387578
 30
0.0
  0
POINT
  8
DEFPOINTS
  6
BYBLOCK
 62
     0
 10
289.398567
 20
18.767578
 30
0.0
  0
POINT
  8
DEFPOINTS
  6
BYBLOCK
 62
     0
 10
289.398567
 20
17.668225
 30
0.0
  0
ENDSEC
  0
EOF
