  0
SECTION
  2
HEADER
  9
$ACADVER
  1
AC1009
  9
$INSBASE
 10
170.64368
 20
233.072038
 30
0.0
  9
$EXTMIN
 10
170.64368
 20
233.072038
 30
0.0
  9
$EXTMAX
 10
181.14368
 20
247.922038
 30
0.0
  9
$LIMMIN
 10
0.0
 20
0.0
  9
$LIMMAX
 10
410.0
 20
287.0
  9
$ORTHOMODE
 70
     0
  9
$REGENMODE
 70
     1
  9
$FILLMODE
 70
     1
  9
$QTEXTMODE
 70
     0
  9
$MIRRTEXT
 70
     1
  9
$DRAGMODE
 70
     2
  9
$LTSCALE
 40
25.0
  9
$OSMODE
 70
    32
  9
$ATTMODE
 70
     1
  9
$TEXTSIZE
 40
0.1
  9
$TRACEWID
 40
0.3
  9
$TEXTSTYLE
  7
STANDARD
  9
$CLAYER
  8
0
  9
$CELTYPE
  6
BYLAYER
  9
$CECOLOR
 62
   256
  9
$DIMSCALE
 40
1.0
  9
$DIMASZ
 40
3.5
  9
$DIMEXO
 40
0.1
  9
$DIMDLI
 40
7.0
  9
$DIMRND
 40
0.0
  9
$DIMDLE
 40
0.0
  9
$DIMEXE
 40
1.8
  9
$DIMTP
 40
0.0
  9
$DIMTM
 40
0.0
  9
$DIMTXT
 40
3.5
  9
$DIMCEN
 40
1.5
  9
$DIMTSZ
 40
0.0
  9
$DIMTOL
 70
     0
  9
$DIMLIM
 70
     0
  9
$DIMTIH
 70
     0
  9
$DIMTOH
 70
     0
  9
$DIMSE1
 70
     0
  9
$DIMSE2
 70
     0
  9
$DIMTAD
 70
     0
  9
$DIMZIN
 70
     0
  9
$DIMBLK
  1

  9
$DIMASO
 70
     1
  9
$DIMSHO
 70
     0
  9
$DIMPOST
  1

  9
$DIMAPOST
  1

  9
$DIMALT
 70
     0
  9
$DIMALTD
 70
     2
  9
$DIMALTF
 40
25.4
  9
$DIMLFAC
 40
1.0
  9
$DIMTOFL
 70
     0
  9
$DIMTVP
 40
0.0
  9
$DIMTIX
 70
     0
  9
$DIMSOXD
 70
     0
  9
$DIMSAH
 70
     0
  9
$DIMBLK1
  1

  9
$DIMBLK2
  1

  9
$DIMSTYLE
  2
*UNNAMED
  9
$DIMCLRD
 70
     0
  9
$DIMCLRE
 70
     0
  9
$DIMCLRT
 70
     0
  9
$DIMTFAC
 40
1.0
  9
$DIMGAP
 40
0.09
  9
$LUNITS
 70
     2
  9
$LUPREC
 70
     2
  9
$SKETCHINC
 40
1.0
  9
$FILLETRAD
 40
0.0
  9
$AUNITS
 70
     0
  9
$AUPREC
 70
     0
  9
$MENU
  1
acad
  9
$ELEVATION
 40
0.0
  9
$PELEVATION
 40
0.0
  9
$THICKNESS
 40
0.0
  9
$LIMCHECK
 70
     0
  9
$BLIPMODE
 70
     0
  9
$CHAMFERA
 40
0.0
  9
$CHAMFERB
 40
0.0
  9
$SKPOLY
 70
     0
  9
$TDCREATE
 40
2449960.594825925
  9
$TDUPDATE
 40
2450728.566766782
  9
$TDINDWG
 40
0.0125444444
  9
$TDUSRTIMER
 40
0.0125444444
  9
$USRTIMER
 70
     1
  9
$ANGBASE
 50
0.0
  9
$ANGDIR
 70
     0
  9
$PDMODE
 70
     0
  9
$PDSIZE
 40
0.0
  9
$PLINEWID
 40
0.0
  9
$COORDS
 70
     2
  9
$SPLFRAME
 70
     0
  9
$SPLINETYPE
 70
     6
  9
$SPLINESEGS
 70
     8
  9
$ATTDIA
 70
     0
  9
$ATTREQ
 70
     1
  9
$HANDLING
 70
     0
  9
$HANDSEED
  5
0
  9
$SURFTAB1
 70
     6
  9
$SURFTAB2
 70
     6
  9
$SURFTYPE
 70
     6
  9
$SURFU
 70
     6
  9
$SURFV
 70
     6
  9
$UCSNAME
  2

  9
$UCSORG
 10
0.0
 20
0.0
 30
0.0
  9
$UCSXDIR
 10
1.0
 20
0.0
 30
0.0
  9
$UCSYDIR
 10
0.0
 20
1.0
 30
0.0
  9
$PUCSNAME
  2

  9
$PUCSORG
 10
0.0
 20
0.0
 30
0.0
  9
$PUCSXDIR
 10
1.0
 20
0.0
 30
0.0
  9
$PUCSYDIR
 10
0.0
 20
1.0
 30
0.0
  9
$USERI1
 70
     0
  9
$USERI2
 70
     0
  9
$USERI3
 70
     0
  9
$USERI4
 70
     0
  9
$USERI5
 70
     0
  9
$USERR1
 40
0.0
  9
$USERR2
 40
0.0
  9
$USERR3
 40
0.0
  9
$USERR4
 40
0.0
  9
$USERR5
 40
0.0
  9
$WORLDVIEW
 70
     1
  9
$SHADEDGE
 70
     3
  9
$SHADEDIF
 70
    70
  9
$TILEMODE
 70
     1
  9
$MAXACTVP
 70
    16
  9
$PINSBASE
 10
0.0
 20
0.0
 30
0.0
  9
$PLIMCHECK
 70
     0
  9
$PEXTMIN
 10
1.000000E+20
 20
1.000000E+20
 30
1.000000E+20
  9
$PEXTMAX
 10
-1.000000E+20
 20
-1.000000E+20
 30
-1.000000E+20
  9
$PLIMMIN
 10
0.0
 20
0.0
  9
$PLIMMAX
 10
12.0
 20
9.0
  9
$UNITMODE
 70
     0
  9
$VISRETAIN
 70
     0
  9
$PLINEGEN
 70
     0
  9
$PSLTSCALE
 70
     0
  9
$TREEDEPTH
 70
  3020
  9
$DWGCODEPAGE
  3
iso8859-1
  0
ENDSEC
  0
SECTION
  2
TABLES
  0
TABLE
  2
VPORT
 70
     2
  0
VPORT
  2
*ACTIVE
 70
     0
 10
0.0
 20
0.0
 11
1.0
 21
1.0
 12
182.79692
 22
240.497038
 13
0.0
 23
0.0
 14
1.0
 24
1.0
 15
10.0
 25
10.0
 16
0.0
 26
0.0
 36
1.0
 17
0.0
 27
0.0
 37
0.0
 40
14.85
 41
1.6368
 42
50.0
 43
0.0
 44
0.0
 50
0.0
 51
0.0
 71
     0
 72
   100
 73
     1
 74
     0
 75
     0
 76
     0
 77
     0
 78
     0
  0
ENDTAB
  0
TABLE
  2
LTYPE
 70
     1
  0
LTYPE
  2
CONTINUOUS
 70
    64
  3
Solid Line
 72
    65
 73
     0
 40
0.0
  0
ENDTAB
  0
TABLE
  2
LAYER
 70
     5
  0
LAYER
  2
0
 70
    64
 62
     7
  6
CONTINUOUS
  0
LAYER
  2
SECCIO
 70
    64
 62
     7
  6
CONTINUOUS
  0
LAYER
  2
MESURA
 70
    64
 62
     7
  6
CONTINUOUS
  0
LAYER
  2
TEXTEP
 70
    64
 62
     7
  6
CONTINUOUS
  0
LAYER
  2
TEXTEG
 70
     0
 62
     7
  6
CONTINUOUS
  0
ENDTAB
  0
TABLE
  2
STYLE
 70
     2
  0
STYLE
  2
STANDARD
 70
    64
 40
0.0
 41
1.0
 50
0.0
 71
     0
 42
0.1
  3
txt
  4

  0
STYLE
  2
ROMANC
 70
    64
 40
0.0
 41
1.0
 50
0.0
 71
     0
 42
0.1
  3
romanc
  4

  0
ENDTAB
  0
TABLE
  2
VIEW
 70
     0
  0
ENDTAB
  0
TABLE
  2
UCS
 70
     0
  0
ENDTAB
  0
TABLE
  2
APPID
 70
     1
  0
APPID
  2
ACAD
 70
    64
  0
ENDTAB
  0
TABLE
  2
DIMSTYLE
 70
     0
  0
ENDTAB
  0
ENDSEC
  0
SECTION
  2
BLOCKS
  0
ENDSEC
  0
SECTION
  2
ENTITIES
  0
TEXT
  8
0
 10
172.612367
 20
244.020728
 30
0.0
 40
0.3
  1
P = 147.8 dm
  7
ROMANC
  0
LINE
  8
0
 10
181.14368
 20
247.922038
 30
0.0
 11
181.14368
 21
233.072038
 31
0.0
  0
LINE
  8
MESURA
 10
178.342994
 20
237.675093
 30
0.0
 11
178.926967
 21
237.675093
 31
0.0
  0
LINE
  8
0
 10
170.64368
 20
233.072038
 30
0.0
 11
181.14368
 21
233.072038
 31
0.0
  0
LINE
  8
MESURA
 10
177.442994
 20
237.275093
 30
0.0
 11
178.966734
 21
237.275093
 31
0.0
  0
LINE
  8
SECCIO
 10
172.825132
 20
239.949832
 30
0.0
 11
172.825132
 21
237.216007
 31
0.0
  0
LINE
  8
SECCIO
 10
173.271168
 20
236.775093
 30
0.0
 11
178.455269
 21
236.775093
 31
0.0
  0
LINE
  8
MESURA
 10
173.342994
 20
237.275093
 30
0.0
 11
173.342994
 21
236.693944
 31
0.0
  0
LINE
  8
MESURA
 10
173.296631
 20
236.740064
 30
0.0
 11
173.380021
 21
236.800674
 31
0.0
  0
LINE
  8
MESURA
 10
173.342994
 20
237.275093
 30
0.0
 11
172.723308
 21
237.275093
 31
0.0
  0
TEXT
  8
TEXTEP
 10
177.679142
 20
236.602695
 30
0.0
 40
0.1
  1
0.9
  0
LINE
  8
MESURA
 10
178.342994
 20
237.675093
 30
0.0
 11
178.342994
 21
236.677146
 31
0.0
  0
LINE
  8
MESURA
 10
178.29317
 20
236.741649
 30
0.0
 11
178.37656
 21
236.802259
 31
0.0
  0
TEXT
  8
TEXTEP
 10
175.669088
 20
236.602695
 30
0.0
 40
0.1
  1
4.1
  0
LINE
  8
MESURA
 10
177.442994
 20
237.275093
 30
0.0
 11
177.442994
 21
236.676845
 31
0.0
  0
LINE
  8
MESURA
 10
177.404578
 20
236.741649
 30
0.0
 11
177.487968
 21
236.802259
 31
0.0
  0
TEXT
  8
TEXTEP
 10
173.501715
 20
240.177421
 30
0.0
 40
0.1
  1
0.5
  0
LINE
  8
MESURA
 10
173.825132
 20
239.875093
 30
0.0
 11
173.825132
 21
240.159405
 31
0.0
  0
LINE
  8
MESURA
 10
173.870415
 20
240.04594
 30
0.0
 11
173.787025
 21
240.10655
 31
0.0
  0
LINE
  8
SECCIO
 10
173.922448
 20
240.077274
 30
0.0
 11
173.248716
 21
240.077274
 31
0.0
  0
LINE
  8
MESURA
 10
173.325132
 20
239.575093
 30
0.0
 11
173.325132
 21
240.159405
 31
0.0
  0
LINE
  8
MESURA
 10
173.368674
 20
240.042397
 30
0.0
 11
173.285284
 21
240.103007
 31
0.0
  0
TEXT
  8
TEXTEP
 10
172.54662
 20
238.398979
 30
0.0
 40
0.1
  1
2.3
  0
TEXT
  8
TEXTEP
 10
172.510915
 20
239.660041
 30
0.0
 40
0.1
  1
0.3
  0
LINE
  8
MESURA
 10
172.865885
 20
239.843335
 30
0.0
 11
172.782495
 21
239.903945
 31
0.0
  0
LINE
  8
MESURA
 10
172.867875
 20
239.544285
 30
0.0
 11
172.784485
 21
239.604895
 31
0.0
  0
LINE
  8
MESURA
 10
173.825132
 20
239.875093
 30
0.0
 11
172.741515
 21
239.875093
 31
0.0
  0
LINE
  8
MESURA
 10
173.325132
 20
239.575093
 30
0.0
 11
172.741515
 21
239.575093
 31
0.0
  0
TEXT
  8
TEXTEP
 10
178.937727
 20
237.45013
 30
0.0
 40
0.1
  1
0.4
  0
LINE
  8
MESURA
 10
178.847556
 20
237.275093
 30
0.0
 11
178.847556
 21
237.189498
 31
0.0
  0
LINE
  8
MESURA
 10
178.847556
 20
237.675093
 30
0.0
 11
178.847556
 21
237.275093
 31
0.0
  0
LINE
  8
MESURA
 10
178.847556
 20
237.780494
 30
0.0
 11
178.847556
 21
237.675093
 31
0.0
  0
LINE
  8
MESURA
 10
178.807313
 20
237.644082
 30
0.0
 11
178.890703
 21
237.704692
 31
0.0
  0
LINE
  8
MESURA
 10
178.807313
 20
237.247431
 30
0.0
 11
178.890703
 21
237.308041
 31
0.0
  0
LINE
  8
0
 10
170.64368
 20
247.922038
 30
0.0
 11
181.14368
 21
247.922038
 31
0.0
  0
TEXT
  8
0
 10
172.615195
 20
244.694226
 30
0.0
 40
0.3
  1
S = 1249 dm
  7
ROMANC
  0
TEXT
  8
0
 10
176.123026
 20
245.000142
 30
0.0
 40
0.1
  1
2
  7
ROMANC
  0
LINE
  8
0
 10
170.64368
 20
247.922038
 30
0.0
 11
170.64368
 21
233.072038
 31
0.0
  0
LINE
  8
SECCIO
 10
172.30727
 20
239.949832
 30
0.0
 11
172.30727
 21
237.216007
 31
0.0
  0
TEXT
  8
TEXTEP
 10
172.019685
 20
238.734493
 30
0.0
 40
0.1
  1
2.6
  0
LINE
  8
MESURA
 10
172.825132
 20
237.275093
 30
0.0
 11
172.205446
 21
237.275093
 31
0.0
  0
LINE
  8
MESURA
 10
172.348024
 20
239.843335
 30
0.0
 11
172.264633
 21
239.903945
 31
0.0
  0
LINE
  8
MESURA
 10
173.30727
 20
239.875093
 30
0.0
 11
172.223653
 21
239.875093
 31
0.0
  0
LINE
  8
SECCIO
 10
173.271168
 20
236.275093
 30
0.0
 11
178.455269
 21
236.275093
 31
0.0
  0
LINE
  8
MESURA
 10
173.342994
 20
236.775093
 30
0.0
 11
173.342994
 21
236.193944
 31
0.0
  0
LINE
  8
MESURA
 10
173.296631
 20
236.240064
 30
0.0
 11
173.380021
 21
236.300674
 31
0.0
  0
LINE
  8
MESURA
 10
178.342994
 20
237.175093
 30
0.0
 11
178.342994
 21
236.177146
 31
0.0
  0
LINE
  8
MESURA
 10
178.29317
 20
236.241649
 30
0.0
 11
178.37656
 21
236.302259
 31
0.0
  0
TEXT
  8
TEXTEP
 10
175.877776
 20
236.093628
 30
0.0
 40
0.1
  1
5.0
  0
TEXT
  8
0
 10
172.635731
 20
245.468369
 30
0.0
 40
0.3
  1
ESCALA   1:50
  7
ROMANC
  0
TEXT
  8
0
 10
172.638559
 20
246.141867
 30
0.0
 40
0.3
  1
TIPUS    NT1249
  7
ROMANC
  0
LINE
  8
0
 10
178.362994
 20
237.655093
 30
0.0
 11
178.362994
 21
239.586095
 31
0.0
  0
LINE
  8
0
 10
178.362994
 20
239.586095
 30
0.0
 11
178.087894
 21
239.760436
 31
0.0
  0
LINE
  8
0
 10
178.087894
 20
239.760436
 30
0.0
 11
177.848228
 21
239.895093
 31
0.0
  0
LINE
  8
0
 10
177.848228
 20
239.895093
 30
0.0
 11
173.837455
 21
239.895093
 31
0.0
  0
LINE
  8
0
 10
173.837455
 20
239.895093
 30
0.0
 11
173.322994
 21
239.586417
 31
0.0
  0
LINE
  8
0
 10
173.322994
 20
239.586417
 30
0.0
 11
173.322994
 21
237.255093
 31
0.0
  0
LINE
  8
0
 10
173.322994
 20
237.255093
 30
0.0
 11
177.462994
 21
237.255093
 31
0.0
  0
LINE
  8
0
 10
177.462994
 20
237.255093
 30
0.0
 11
177.462994
 21
237.655093
 31
0.0
  0
LINE
  8
0
 10
177.462994
 20
237.655093
 30
0.0
 11
178.362994
 21
237.655093
 31
0.0
  0
LINE
  8
0
 10
178.352994
 20
237.665093
 30
0.0
 11
178.352994
 21
239.580594
 31
0.0
  0
LINE
  8
0
 10
178.352994
 20
239.580594
 30
0.0
 11
178.082996
 21
239.751718
 31
0.0
  0
LINE
  8
0
 10
178.082996
 20
239.751718
 30
0.0
 11
177.845611
 21
239.885093
 31
0.0
  0
LINE
  8
0
 10
177.845611
 20
239.885093
 30
0.0
 11
173.840225
 21
239.885093
 31
0.0
  0
LINE
  8
0
 10
173.840225
 20
239.885093
 30
0.0
 11
173.332994
 21
239.580755
 31
0.0
  0
LINE
  8
0
 10
173.332994
 20
239.580755
 30
0.0
 11
173.332994
 21
237.265093
 31
0.0
  0
LINE
  8
0
 10
173.332994
 20
237.265093
 30
0.0
 11
177.452994
 21
237.265093
 31
0.0
  0
LINE
  8
0
 10
177.452994
 20
237.265093
 30
0.0
 11
177.452994
 21
237.665093
 31
0.0
  0
LINE
  8
0
 10
177.452994
 20
237.665093
 30
0.0
 11
178.352994
 21
237.665093
 31
0.0
  0
LINE
  8
0
 10
178.342994
 20
237.667004
 30
0.0
 11
178.342994
 21
239.575093
 31
0.0
  0
LINE
  8
0
 10
178.342994
 20
239.575093
 30
0.0
 11
178.078097
 21
239.743
 31
0.0
  0
LINE
  8
0
 10
178.078097
 20
239.743
 30
0.0
 11
177.842994
 21
239.875093
 31
0.0
  0
LINE
  8
0
 10
177.842994
 20
239.875093
 30
0.0
 11
173.842994
 21
239.875093
 31
0.0
  0
LINE
  8
0
 10
173.842994
 20
239.875093
 30
0.0
 11
173.342994
 21
239.575093
 31
0.0
  0
LINE
  8
0
 10
173.342994
 20
239.575093
 30
0.0
 11
173.342994
 21
237.275093
 31
0.0
  0
LINE
  8
0
 10
173.342994
 20
237.275093
 30
0.0
 11
177.442994
 21
237.275093
 31
0.0
  0
LINE
  8
0
 10
177.442994
 20
237.275093
 30
0.0
 11
177.442994
 21
237.675093
 31
0.0
  0
LINE
  8
0
 10
177.442994
 20
237.675093
 30
0.0
 11
178.342994
 21
237.675093
 31
0.0
  0
LINE
  8
0
 10
178.342994
 20
237.675093
 30
0.0
 11
178.342994
 21
237.667004
 31
0.0
  0
LINE
  8
0
 10
178.332994
 20
237.667004
 30
0.0
 11
178.332994
 21
237.685093
 31
0.0
  0
LINE
  8
0
 10
178.332994
 20
237.685093
 30
0.0
 11
178.352994
 21
237.685093
 31
0.0
  0
LINE
  8
0
 10
178.352994
 20
237.685093
 30
0.0
 11
178.352994
 21
237.667004
 31
0.0
  0
ENDSEC
  0
EOF
