  0
SECTION
  2
HEADER
  9
$ACADVER
  1
AC1009
  9
$INSBASE
 10
217.410964
 20
13.227406
 30
0.0
  9
$EXTMIN
 10
22.591444
 20
-21.448265
 30
0.0
  9
$EXTMAX
 10
228.671302
 20
98.615031
 30
0.0
  9
$LIMMIN
 10
0.0
 20
0.0
  9
$LIMMAX
 10
410.0
 20
287.0
  9
$ORTHOMODE
 70
     0
  9
$REGENMODE
 70
     1
  9
$FILLMODE
 70
     1
  9
$QTEXTMODE
 70
     0
  9
$MIRRTEXT
 70
     1
  9
$DRAGMODE
 70
     2
  9
$LTSCALE
 40
25.0
  9
$OSMODE
 70
    32
  9
$ATTMODE
 70
     1
  9
$TEXTSIZE
 40
0.1
  9
$TRACEWID
 40
1.0
  9
$TEXTSTYLE
  7
ROMANC
  9
$CLAYER
  8
0
  9
$CELTYPE
  6
BYLAYER
  9
$CECOLOR
 62
   256
  9
$DIMSCALE
 40
0.0
  9
$DIMASZ
 40
0.0
  9
$DIMEXO
 40
0.1
  9
$DIMDLI
 40
7.0
  9
$DIMRND
 40
0.0
  9
$DIMDLE
 40
0.0
  9
$DIMEXE
 40
1.8
  9
$DIMTP
 40
0.0
  9
$DIMTM
 40
0.0
  9
$DIMTXT
 40
0.03
  9
$DIMCEN
 40
1.5
  9
$DIMTSZ
 40
1.0
  9
$DIMTOL
 70
     0
  9
$DIMLIM
 70
     0
  9
$DIMTIH
 70
     0
  9
$DIMTOH
 70
     0
  9
$DIMSE1
 70
     0
  9
$DIMSE2
 70
     0
  9
$DIMTAD
 70
     0
  9
$DIMZIN
 70
     0
  9
$DIMBLK
  1

  9
$DIMASO
 70
     1
  9
$DIMSHO
 70
     0
  9
$DIMPOST
  1

  9
$DIMAPOST
  1

  9
$DIMALT
 70
     0
  9
$DIMALTD
 70
     2
  9
$DIMALTF
 40
25.4
  9
$DIMLFAC
 40
1.0
  9
$DIMTOFL
 70
     1
  9
$DIMTVP
 40
0.0
  9
$DIMTIX
 70
     1
  9
$DIMSOXD
 70
     0
  9
$DIMSAH
 70
     0
  9
$DIMBLK1
  1

  9
$DIMBLK2
  1

  9
$DIMSTYLE
  2
*UNNAMED
  9
$DIMCLRD
 70
     0
  9
$DIMCLRE
 70
     0
  9
$DIMCLRT
 70
     0
  9
$DIMTFAC
 40
116.666667
  9
$DIMGAP
 40
0.09
  9
$LUNITS
 70
     2
  9
$LUPREC
 70
     2
  9
$SKETCHINC
 40
1.0
  9
$FILLETRAD
 40
0.0
  9
$AUNITS
 70
     0
  9
$AUPREC
 70
     0
  9
$MENU
  1
acad
  9
$ELEVATION
 40
0.0
  9
$PELEVATION
 40
0.0
  9
$THICKNESS
 40
0.0
  9
$LIMCHECK
 70
     0
  9
$BLIPMODE
 70
     0
  9
$CHAMFERA
 40
0.0
  9
$CHAMFERB
 40
0.0
  9
$SKPOLY
 70
     0
  9
$TDCREATE
 40
2449967.521381481
  9
$TDUPDATE
 40
2450207.417471875
  9
$TDINDWG
 40
0.0001678241
  9
$TDUSRTIMER
 40
0.0001678241
  9
$USRTIMER
 70
     1
  9
$ANGBASE
 50
0.0
  9
$ANGDIR
 70
     0
  9
$PDMODE
 70
     0
  9
$PDSIZE
 40
0.0
  9
$PLINEWID
 40
0.0
  9
$COORDS
 70
     2
  9
$SPLFRAME
 70
     0
  9
$SPLINETYPE
 70
     6
  9
$SPLINESEGS
 70
     8
  9
$ATTDIA
 70
     0
  9
$ATTREQ
 70
     1
  9
$HANDLING
 70
     0
  9
$HANDSEED
  5
0
  9
$SURFTAB1
 70
     6
  9
$SURFTAB2
 70
     6
  9
$SURFTYPE
 70
     6
  9
$SURFU
 70
     6
  9
$SURFV
 70
     6
  9
$UCSNAME
  2

  9
$UCSORG
 10
0.0
 20
0.0
 30
0.0
  9
$UCSXDIR
 10
1.0
 20
0.0
 30
0.0
  9
$UCSYDIR
 10
0.0
 20
1.0
 30
0.0
  9
$PUCSNAME
  2

  9
$PUCSORG
 10
0.0
 20
0.0
 30
0.0
  9
$PUCSXDIR
 10
1.0
 20
0.0
 30
0.0
  9
$PUCSYDIR
 10
0.0
 20
1.0
 30
0.0
  9
$USERI1
 70
     0
  9
$USERI2
 70
     0
  9
$USERI3
 70
     0
  9
$USERI4
 70
     0
  9
$USERI5
 70
     0
  9
$USERR1
 40
0.0
  9
$USERR2
 40
0.0
  9
$USERR3
 40
0.0
  9
$USERR4
 40
0.0
  9
$USERR5
 40
0.0
  9
$WORLDVIEW
 70
     1
  9
$SHADEDGE
 70
     3
  9
$SHADEDIF
 70
    70
  9
$TILEMODE
 70
     1
  9
$MAXACTVP
 70
    16
  9
$PINSBASE
 10
0.0
 20
0.0
 30
0.0
  9
$PLIMCHECK
 70
     0
  9
$PEXTMIN
 10
1.000000E+20
 20
1.000000E+20
 30
1.000000E+20
  9
$PEXTMAX
 10
-1.000000E+20
 20
-1.000000E+20
 30
-1.000000E+20
  9
$PLIMMIN
 10
0.0
 20
0.0
  9
$PLIMMAX
 10
12.0
 20
9.0
  9
$UNITMODE
 70
     0
  9
$VISRETAIN
 70
     0
  9
$PLINEGEN
 70
     0
  9
$PSLTSCALE
 70
     0
  9
$TREEDEPTH
 70
  3020
  9
$DWGCODEPAGE
  3
iso8859-1
  0
ENDSEC
  0
SECTION
  2
TABLES
  0
TABLE
  2
VPORT
 70
     1
  0
VPORT
  2
*ACTIVE
 70
     0
 10
0.0
 20
0.0
 11
1.0
 21
1.0
 12
222.895601
 22
18.747812
 13
0.0
 23
0.0
 14
1.0
 24
1.0
 15
10.0
 25
10.0
 16
0.0
 26
0.0
 36
1.0
 17
0.0
 27
0.0
 37
0.0
 40
26.372795
 41
1.65
 42
50.0
 43
0.0
 44
0.0
 50
0.0
 51
0.0
 71
     0
 72
   100
 73
     1
 74
     0
 75
     0
 76
     0
 77
     0
 78
     2
  0
ENDTAB
  0
TABLE
  2
LTYPE
 70
     1
  0
LTYPE
  2
CONTINUOUS
 70
    64
  3
Solid line
 72
    65
 73
     0
 40
0.0
  0
ENDTAB
  0
TABLE
  2
LAYER
 70
     2
  0
LAYER
  2
0
 70
    64
 62
     7
  6
CONTINUOUS
  0
LAYER
  2
MESURA
 70
    64
 62
     7
  6
CONTINUOUS
  0
ENDTAB
  0
TABLE
  2
STYLE
 70
     2
  0
STYLE
  2
STANDARD
 70
     0
 40
0.0
 41
1.0
 50
0.0
 71
     0
 42
0.1
  3
txt
  4

  0
STYLE
  2
ROMANC
 70
    64
 40
0.0
 41
1.0
 50
0.0
 71
     0
 42
0.1
  3
romanc
  4

  0
ENDTAB
  0
TABLE
  2
VIEW
 70
     0
  0
ENDTAB
  0
TABLE
  2
UCS
 70
     0
  0
ENDTAB
  0
TABLE
  2
APPID
 70
     1
  0
APPID
  2
ACAD
 70
    64
  0
ENDTAB
  0
TABLE
  2
DIMSTYLE
 70
     0
  0
ENDTAB
  0
ENDSEC
  0
SECTION
  2
BLOCKS
  0
ENDSEC
  0
SECTION
  2
ENTITIES
  0
TEXT
  8
0
 10
219.959101
 20
23.923954
 30
0.0
 40
0.3
  1
P = 42.5 dm
  7
ROMANC
  0
LINE
  8
0
 10
217.410964
 20
13.227406
 30
0.0
 11
227.910964
 21
13.227406
 31
0.0
  0
TEXT
  8
0
 10
219.940937
 20
25.187551
 30
0.0
 40
0.3
  1
ESCALA  1:50
  7
ROMANC
  0
TEXT
  8
0
 10
219.954031
 20
24.588962
 30
0.0
 40
0.3
  1
S =  123 dm
  7
ROMANC
  0
LINE
  8
0
 10
227.910964
 20
28.077406
 30
0.0
 11
217.410964
 21
28.077406
 31
0.0
  0
TEXT
  8
0
 10
219.940937
 20
25.673266
 30
0.0
 40
0.3
  1
TIPUS   NT123
  7
ROMANC
  0
LINE
  8
0
 10
217.410964
 20
28.077406
 30
0.0
 11
217.410964
 21
13.227406
 31
0.0
  0
LINE
  8
0
 10
227.910964
 20
13.227406
 30
0.0
 11
227.910964
 21
28.077406
 31
0.0
  0
LINE
  8
0
 10
223.250963
 20
18.247941
 30
0.0
 11
223.250963
 21
19.088198
 31
0.0
  0
LINE
  8
0
 10
222.250963
 20
18.247941
 30
0.0
 11
222.250963
 21
19.088198
 31
0.0
  0
LINE
  8
MESURA
  6
BYBLOCK
 62
     0
 10
223.457442
 20
18.147941
 30
0.0
 11
223.657442
 21
18.347941
 31
0.0
  0
LINE
  8
0
 10
224.105592
 20
18.787941
 30
0.0
 11
224.105592
 21
17.347941
 31
0.0
  0
TEXT
  8
0
 10
222.54395
 20
16.744432
 30
0.0
 40
0.1
  1
0.8
  7
ROMANC
  0
TEXT
  8
0
 10
223.746222
 20
17.783559
 30
0.0
 40
0.1
  1
0.9
  7
ROMANC
  0
TEXT
  8
0
 10
224.558568
 20
17.978395
 30
0.0
 40
0.1
  1
1.44
  7
ROMANC
  0
LINE
  8
MESURA
  6
BYBLOCK
 62
     0
 10
222.250963
 20
16.957995
 30
0.0
 11
222.450963
 21
17.157995
 31
0.0
  0
LINE
  8
MESURA
  6
BYBLOCK
 62
     0
 10
223.050963
 20
16.957995
 30
0.0
 11
223.250963
 21
17.157995
 31
0.0
  0
LINE
  8
MESURA
  6
BYBLOCK
 62
     0
 10
223.457442
 20
17.247941
 30
0.0
 11
223.657442
 21
17.447941
 31
0.0
  0
LINE
  8
MESURA
  6
BYBLOCK
 62
     0
 10
224.005592
 20
17.247941
 30
0.0
 11
224.205592
 21
17.447941
 31
0.0
  0
LINE
  8
0
 10
223.250963
 20
18.247941
 30
0.0
 11
223.557442
 21
18.247941
 31
0.0
  0
LINE
  8
0
 10
223.150963
 20
17.347941
 30
0.0
 11
224.105592
 21
17.347941
 31
0.0
  0
LINE
  8
0
 10
223.150963
 20
17.347941
 30
0.0
 11
223.150963
 21
17.057995
 31
0.0
  0
LINE
  8
0
 10
222.350963
 20
17.347941
 30
0.0
 11
222.350963
 21
17.057995
 31
0.0
  0
LINE
  8
0
 10
222.350963
 20
17.057995
 30
0.0
 11
223.150963
 21
17.057995
 31
0.0
  0
LINE
  8
0
 10
223.557442
 20
18.247941
 30
0.0
 11
223.557442
 21
17.347941
 31
0.0
  0
TEXT
  8
0
 10
222.668616
 20
19.251198
 30
0.0
 40
0.1
  1
1.0
  7
ROMANC
  0
LINE
  8
MESURA
  6
BYBLOCK
 62
     0
 10
222.150963
 20
18.988198
 30
0.0
 11
222.350963
 21
19.188198
 31
0.0
  0
LINE
  8
MESURA
  6
BYBLOCK
 62
     0
 10
223.150963
 20
18.988198
 30
0.0
 11
223.350963
 21
19.188198
 31
0.0
  0
LINE
  8
0
 10
222.250963
 20
19.088198
 30
0.0
 11
223.250963
 21
19.088198
 31
0.0
  0
LINE
  8
MESURA
  6
BYBLOCK
 62
     0
 10
224.005592
 20
18.687941
 30
0.0
 11
224.205592
 21
18.887941
 31
0.0
  0
LINE
  8
0
 10
222.750963
 20
18.787941
 30
0.0
 11
224.105592
 21
18.787941
 31
0.0
  0
TEXT
  8
0
 10
223.461862
 20
24.894878
 30
0.0
 40
0.1
  1
2
  7
ROMANC
  0
ARC
  8
0
 10
222.300963
 20
18.247941
 30
0.0
 40
0.0
 50
0.0
 51
0.0
  0
ARC
  8
0
 10
222.250963
 20
18.247941
 30
0.0
 40
0.0
 50
0.0
 51
0.0
  0
LINE
  8
0
 10
223.150963
 20
17.347941
 30
0.0
 11
223.250963
 21
18.247941
 31
0.0
  0
ARC
  8
0
 10
222.668602
 20
18.247941
 30
0.0
 40
0.58236
 50
0.0
 51
20.983371
  0
ARC
  8
0
 10
222.708769
 20
18.263346
 30
0.0
 40
0.539341
 50
20.983371
 51
42.797402
  0
ARC
  8
0
 10
222.734452
 20
18.287127
 30
0.0
 40
0.504339
 50
42.797402
 51
65.898614
  0
ARC
  8
0
 10
222.750963
 20
18.324035
 30
0.0
 40
0.463906
 50
65.898614
 51
90.0
  0
ARC
  8
0
 10
222.750963
 20
18.324035
 30
0.0
 40
0.463906
 50
90.0
 51
114.101386
  0
ARC
  8
0
 10
222.767474
 20
18.287127
 30
0.0
 40
0.504339
 50
114.101386
 51
137.202598
  0
ARC
  8
0
 10
222.793156
 20
18.263346
 30
0.0
 40
0.539341
 50
137.202598
 51
159.016629
  0
ARC
  8
0
 10
222.833323
 20
18.247941
 30
0.0
 40
0.58236
 50
159.016629
 51
180.0
  0
LINE
  8
0
 10
222.250963
 20
18.247941
 30
0.0
 11
222.350963
 21
17.347941
 31
0.0
  0
LINE
  8
0
 10
222.350963
 20
17.347941
 30
0.0
 11
223.150963
 21
17.347941
 31
0.0
  0
LINE
  8
0
 10
223.142012
 20
17.357941
 30
0.0
 11
223.240962
 21
18.248493
 31
0.0
  0
ARC
  8
0
 10
222.668602
 20
18.247941
 30
0.0
 40
0.57236
 50
0.055204
 51
20.983371
  0
ARC
  8
0
 10
222.708769
 20
18.263346
 30
0.0
 40
0.529341
 50
20.983371
 51
42.797402
  0
ARC
  8
0
 10
222.734452
 20
18.287127
 30
0.0
 40
0.494339
 50
42.797402
 51
65.898614
  0
ARC
  8
0
 10
222.750963
 20
18.324035
 30
0.0
 40
0.453906
 50
65.898614
 51
90.0
  0
ARC
  8
0
 10
222.750963
 20
18.324035
 30
0.0
 40
0.453906
 50
90.0
 51
114.101386
  0
ARC
  8
0
 10
222.767474
 20
18.287127
 30
0.0
 40
0.494339
 50
114.101386
 51
137.202598
  0
ARC
  8
0
 10
222.793156
 20
18.263346
 30
0.0
 40
0.529341
 50
137.202598
 51
159.016629
  0
ARC
  8
0
 10
222.833323
 20
18.247941
 30
0.0
 40
0.57236
 50
159.016629
 51
179.944796
  0
LINE
  8
0
 10
222.260963
 20
18.248493
 30
0.0
 11
222.359913
 21
17.357941
 31
0.0
  0
LINE
  8
0
 10
222.359913
 20
17.357941
 30
0.0
 11
223.142012
 21
17.357941
 31
0.0
  0
LINE
  8
0
 10
223.150963
 20
17.347941
 30
0.0
 11
223.250963
 21
18.247941
 31
0.0
  0
ARC
  8
0
 10
222.668602
 20
18.247941
 30
0.0
 40
0.58236
 50
0.0
 51
20.983371
  0
ARC
  8
0
 10
222.708769
 20
18.263346
 30
0.0
 40
0.539341
 50
20.983371
 51
42.797402
  0
ARC
  8
0
 10
222.734452
 20
18.287127
 30
0.0
 40
0.504339
 50
42.797402
 51
65.898614
  0
ARC
  8
0
 10
222.750963
 20
18.324035
 30
0.0
 40
0.463906
 50
65.898614
 51
90.0
  0
ARC
  8
0
 10
222.750963
 20
18.324035
 30
0.0
 40
0.463906
 50
90.0
 51
114.101386
  0
ARC
  8
0
 10
222.767474
 20
18.287127
 30
0.0
 40
0.504339
 50
114.101386
 51
137.202598
  0
ARC
  8
0
 10
222.793156
 20
18.263346
 30
0.0
 40
0.539341
 50
137.202598
 51
159.016629
  0
ARC
  8
0
 10
222.833323
 20
18.247941
 30
0.0
 40
0.58236
 50
159.016629
 51
180.0
  0
LINE
  8
0
 10
222.250963
 20
18.247941
 30
0.0
 11
222.350963
 21
17.347941
 31
0.0
  0
LINE
  8
0
 10
222.350963
 20
17.347941
 30
0.0
 11
223.150963
 21
17.347941
 31
0.0
  0
LINE
  8
0
 10
223.159913
 20
17.337941
 30
0.0
 11
223.260962
 21
18.247385
 31
0.0
  0
ARC
  8
0
 10
222.668602
 20
18.247941
 30
0.0
 40
0.59236
 50
359.946202
 51
20.983371
  0
ARC
  8
0
 10
222.708769
 20
18.263346
 30
0.0
 40
0.549341
 50
20.983371
 51
42.797402
  0
ARC
  8
0
 10
222.734452
 20
18.287127
 30
0.0
 40
0.514339
 50
42.797402
 51
65.898614
  0
ARC
  8
0
 10
222.750963
 20
18.324035
 30
0.0
 40
0.473906
 50
65.898614
 51
90.0
  0
ARC
  8
0
 10
222.750963
 20
18.324035
 30
0.0
 40
0.473906
 50
90.0
 51
114.101386
  0
ARC
  8
0
 10
222.767474
 20
18.287127
 30
0.0
 40
0.514339
 50
114.101386
 51
137.202598
  0
ARC
  8
0
 10
222.793156
 20
18.263346
 30
0.0
 40
0.549341
 50
137.202598
 51
159.016629
  0
ARC
  8
0
 10
222.833323
 20
18.247941
 30
0.0
 40
0.59236
 50
159.016629
 51
180.053798
  0
LINE
  8
0
 10
222.240963
 20
18.247385
 30
0.0
 11
222.342012
 21
17.337941
 31
0.0
  0
LINE
  8
0
 10
222.342012
 20
17.337941
 30
0.0
 11
223.159913
 21
17.337941
 31
0.0
  0
ENDSEC
  0
EOF
