  0
SECTION
  2
HEADER
  9
$ACADVER
  1
AC1009
  9
$INSBASE
 10
0.0
 20
0.0
 30
0.0
  9
$EXTMIN
 10
281.396000
 20
29.897000
 30
-2147483.648000
  9
$EXTMAX
 10
291.896000
 20
44.747000
 30
0.000000
  9
$LIMMIN
 10
280.396000
 20
28.897000
  9
$LIMMAX
 10
292.896000
 20
43.747000
  9
$ORTHOMODE
 70
     0
  9
$REGENMODE
 70
     1
  9
$FILLMODE
 70
     1
  9
$QTEXTMODE
 70
     0
  9
$MIRRTEXT
 70
     1
  9
$DRAGMODE
 70
     2
  9
$LTSCALE
 40
1.0
  9
$OSMODE
 70
     0
  9
$ATTMODE
 70
     1
  9
$TEXTSIZE
 40
0.2
  9
$TRACEWID
 40
0.05
  9
$TEXTSTYLE
  7
STANDARD
  9
$CLAYER
  8
0
  9
$CELTYPE
  6
BYLAYER
  9
$CECOLOR
 62
   256
  9
$DIMSCALE
 40
1.0
  9
$DIMASZ
 40
0.18
  9
$DIMEXO
 40
0.0625
  9
$DIMDLI
 40
0.38
  9
$DIMRND
 40
0.0
  9
$DIMDLE
 40
0.0
  9
$DIMEXE
 40
0.18
  9
$DIMTP
 40
0.0
  9
$DIMTM
 40
0.0
  9
$DIMTXT
 40
0.18
  9
$DIMCEN
 40
0.09
  9
$DIMTSZ
 40
0.0
  9
$DIMTOL
 70
     0
  9
$DIMLIM
 70
     0
  9
$DIMTIH
 70
     1
  9
$DIMTOH
 70
     1
  9
$DIMSE1
 70
     0
  9
$DIMSE2
 70
     0
  9
$DIMTAD
 70
     0
  9
$DIMZIN
 70
     0
  9
$DIMBLK
  1

  9
$DIMASO
 70
     1
  9
$DIMSHO
 70
     1
  9
$DIMPOST
  1

  9
$DIMAPOST
  1

  9
$DIMALT
 70
     0
  9
$DIMALTD
 70
     2
  9
$DIMALTF
 40
25.4
  9
$DIMLFAC
 40
1.0
  9
$DIMTOFL
 70
     0
  9
$DIMTVP
 40
0.0
  9
$DIMTIX
 70
     0
  9
$DIMSOXD
 70
     0
  9
$DIMSAH
 70
     0
  9
$DIMBLK1
  1

  9
$DIMBLK2
  1

  9
$DIMSTYLE
  2
*UNNAMED
  9
$DIMCLRD
 70
     0
  9
$DIMCLRE
 70
     0
  9
$DIMCLRT
 70
     0
  9
$DIMTFAC
 40
1.0
  9
$DIMGAP
 40
0.09
  9
$LUNITS
 70
     2
  9
$LUPREC
 70
     4
  9
$AXISMODE
 70
     0
  9
$AXISUNIT
 10
0.0
 20
0.0
  9
$SKETCHINC
 40
0.1
  9
$FILLETRAD
 40
0.0
  9
$AUNITS
 70
     0
  9
$AUPREC
 70
     0
  9
$MENU
  1
acad
  9
$ELEVATION
 40
0.0
  9
$PELEVATION
 40
0.0
  9
$THICKNESS
 40
0.0
  9
$LIMCHECK
 70
     0
  9
$BLIPMODE
 70
     1
  9
$CHAMFERA
 40
0.0
  9
$CHAMFERB
 40
0.0
  9
$SKPOLY
 70
     0
  9
$TDCREATE
 40
2448315.373408102
  9
$TDUPDATE
 40
2448315.373408102
  9
$TDINDWG
 40
0.0000000000
  9
$TDUSRTIMER
 40
0.0000000000
  9
$USRTIMER
 70
     1
  9
$ANGBASE
 50
0.0
  9
$ANGDIR
 70
     0
  9
$PDMODE
 70
     0
  9
$PDSIZE
 40
0.0
  9
$PLINEWID
 40
0.0
  9
$COORDS
 70
     0
  9
$SPLFRAME
 70
     0
  9
$SPLINETYPE
 70
     6
  9
$SPLINESEGS
 70
     8
  9
$ATTDIA
 70
     0
  9
$ATTREQ
 70
     1
  9
$HANDLING
 70
     0
  9
$HANDSEED
  5
0
  9
$SURFTAB1
 70
     6
  9
$SURFTAB2
 70
     6
  9
$SURFTYPE
 70
     6
  9
$SURFU
 70
     6
  9
$SURFV
 70
     6
  9
$UCSNAME
  2

  9
$UCSORG
 10
0.0
 20
0.0
 30
0.0
  9
$UCSXDIR
 10
1.0
 20
0.0
 30
0.0
  9
$UCSYDIR
 10
0.0
 20
1.0
 30
0.0
  9
$PUCSNAME
  2

  9
$PUCSORG
 10
0.0
 20
0.0
 30
0.0
  9
$PUCSXDIR
 10
1.0
 20
0.0
 30
0.0
  9
$PUCSYDIR
 10
0.0
 20
1.0
 30
0.0
  9
$USERI1
 70
     0
  9
$USERI2
 70
     0
  9
$USERI3
 70
     0
  9
$USERI4
 70
     0
  9
$USERI5
 70
     0
  9
$USERR1
 40
0.0
  9
$USERR2
 40
0.0
  9
$USERR3
 40
0.0
  9
$USERR4
 40
0.0
  9
$USERR5
 40
0.0
  9
$WORLDVIEW
 70
     1
  9
$SHADEDGE
 70
     3
  9
$SHADEDIF
 70
    70
  9
$TILEMODE
 70
     1
  9
$MAXACTVP
 70
    16
  9
$PINSBASE
 10
0.0
 20
0.0
 30
0.0
  9
$PLIMCHECK
 70
     0
  9
$PEXTMIN
 10
1.000000E+20
 20
1.000000E+20
 30
1.000000E+20
  9
$PEXTMAX
 10
-1.000000E+20
 20
-1.000000E+20
 30
-1.000000E+20
  9
$PLIMMIN
 10
0.0
 20
0.0
  9
$PLIMMAX
 10
12.0
 20
9.0
  9
$UNITMODE
 70
     0
  9
$VISRETAIN
 70
     0
  0
ENDSEC
  0
SECTION
  2
TABLES
  0
TABLE
  2
LTYPE
 70
    1
  0
LTYPE
  2
CONTINUOUS
 70
    64
  3
Solid Line
 72
    65
 73
0
 40
0.0
  0
ENDTAB
  0
TABLE
  2
LAYER
 70
    8
  0
LAYER
  2
0
 70
    64
 62
7
  6
CONTINUOUS
  0
LAYER
  2
1
 70
    64
 62
7
  6
CONTINUOUS
  0
LAYER
  2
7
 70
    64
 62
7
  6
CONTINUOUS
  0
LAYER
  2
8
 70
    64
 62
7
  6
CONTINUOUS
  0
LAYER
  2
9
 70
    64
 62
7
  6
CONTINUOUS
  0
LAYER
  2
22
 70
    64
 62
7
  6
CONTINUOUS
  0
LAYER
  2
25
 70
    64
 62
7
  6
CONTINUOUS
  0
LAYER
  2
0
 70
    64
 62
7
  6
CONTINUOUS
  0
ENDTAB
  0
TABLE
  2
STYLE
 70
    1
  0
STYLE
  2
ROMANC
70
     0
 40
0.0
 41
1.0
 50
0.0
 71
     0
 42
0.2
  3
ROMANC
  4

  0
ENDTAB
  0
ENDSEC
  0
SECTION
  2
BLOCKS
  0
ENDSEC
  0
SECTION
  2
ENTITIES
  0
TEXT
  8
0
  6
*CONTINUOUS,SOLID
 40
0.100000
 10
286.857000
 20
41.313000
  1
2
  7
ROMANC
  0
TEXT
  8
0
  6
*CONTINUOUS,SOLID
 40
0.300000
 10
283.926000
 20
41.768000
  1
ESCALA  1:50
  7
ROMANC
  0
POLYLINE
  8
0
  6
*CONTINUOUS,SOLID
 66
     1
 70
     1
  0
VERTEX
  8
0
  6
*CONTINUOUS,SOLID
 10
281.396000
 20
44.747000
  0
VERTEX
  8
0
  6
*CONTINUOUS,SOLID
 10
291.896000
 20
44.747000
  0
VERTEX
  8
0
  6
*CONTINUOUS,SOLID
 10
291.896000
 20
29.897000
  0
VERTEX
  8
0
  6
*CONTINUOUS,SOLID
 10
281.396000
 20
29.897000
  0
SEQEND
  8
0
  0
TEXT
  8
0
  6
*CONTINUOUS,SOLID
 40
0.300000
 10
283.945000
 20
41.099000
  1
S = 119 dm
  7
ROMANC
  0
TEXT
  8
0
  6
*CONTINUOUS,SOLID
 40
0.300000
 10
283.922000
 20
40.529000
  1
P = 44 dm
  7
ROMANC
  0
TEXT
  8
0
  6
*CONTINUOUS,SOLID
 40
0.300000
 10
283.926000
 20
42.381000
  1
TIPUS   NT119F
  7
ROMANC
  0
LINE
  8
1
  6
*CONTINUOUS,SOLID
 10
285.754000
 20
36.679000
 11
285.804000
 21
35.620000
  0
LINE
  8
1
  6
*CONTINUOUS,SOLID
 10
285.744000
 20
36.679000
 11
285.795000
 21
35.610000
  0
ARC
  8
1
  6
*CONTINUOUS,SOLID
 10
286.189000
 20
36.704306
 40
0.435694
 50
356.726844
 51
543.273153
  0
ARC
  8
1
  6
*CONTINUOUS,SOLID
 10
286.189000
 20
36.704306
 40
0.445694
 50
356.726844
 51
543.273153
  0
LINE
  8
1
  6
*CONTINUOUS,SOLID
 10
286.573000
 20
35.620000
 11
286.623000
 21
36.679000
  0
LINE
  8
1
  6
*CONTINUOUS,SOLID
 10
286.582000
 20
35.610000
 11
286.633000
 21
36.679000
  0
LINE
  8
1
  6
*CONTINUOUS,SOLID
 10
286.396000
 20
35.620000
 11
286.573000
 21
35.620000
  0
LINE
  8
1
  6
*CONTINUOUS,SOLID
 10
286.403000
 20
35.610000
 11
286.582000
 21
35.610000
  0
LINE
  8
1
  6
*CONTINUOUS,SOLID
 10
285.804000
 20
35.620000
 11
285.982000
 21
35.620000
  0
LINE
  8
1
  6
*CONTINUOUS,SOLID
 10
285.795000
 20
35.610000
 11
285.975000
 21
35.610000
  0
ARC
  8
1
  6
*CONTINUOUS,SOLID
 10
286.189000
 20
35.688333
 40
0.218333
 50
198.238736
 51
341.761264
  0
ARC
  8
1
  6
*CONTINUOUS,SOLID
 10
286.189000
 20
35.688333
 40
0.228333
 50
200.063764
 51
339.936236
  0
LINE
  8
1
  6
*CONTINUOUS,SOLID
 10
285.764000
 20
36.680000
 11
285.814000
 21
35.630000
  0
LINE
  8
1
  6
*CONTINUOUS,SOLID
 10
285.814000
 20
35.630000
 11
285.989000
 21
35.630000
  0
LINE
  8
1
  6
*CONTINUOUS,SOLID
 10
286.389000
 20
35.630000
 11
286.564000
 21
35.630000
  0
TEXT
  8
1
  6
*CONTINUOUS,SOLID
 40
0.075000
 10
286.067000
 20
35.154000
  1
0.40
  7
ROMANC
  0
LINE
  8
1
  6
*CONTINUOUS,SOLID
 10
285.839000
 20
35.191000
 11
285.989000
 21
35.191000
  0
LINE
  8
1
  6
*CONTINUOUS,SOLID
 10
286.539000
 20
35.191000
 11
286.389000
 21
35.191000
  0
LINE
  8
1
  6
*CONTINUOUS,SOLID
 10
286.026000
 20
35.210000
 11
285.952000
 21
35.172000
  0
LINE
  8
1
  6
*CONTINUOUS,SOLID
 10
286.352000
 20
35.172000
 11
286.426000
 21
35.210000
  0
LINE
  8
1
  6
*CONTINUOUS,SOLID
 10
285.989000
 20
35.592000
 11
285.989000
 21
35.153000
  0
LINE
  8
1
  6
*CONTINUOUS,SOLID
 10
286.389000
 20
35.592000
 11
286.389000
 21
35.153000
  0
LINE
  8
1
  6
*CONTINUOUS,SOLID
 10
286.564000
 20
35.630000
 11
286.614000
 21
36.680000
  0
TEXT
  8
1
  6
*CONTINUOUS,SOLID
 40
0.075000
 10
286.070000
 20
34.874000
  1
0.75
  7
ROMANC
  0
LINE
  8
1
  6
*CONTINUOUS,SOLID
 10
286.032000
 20
34.912000
 11
285.814000
 21
34.912000
  0
LINE
  8
1
  6
*CONTINUOUS,SOLID
 10
286.344000
 20
34.912000
 11
286.564000
 21
34.912000
  0
LINE
  8
1
  6
*CONTINUOUS,SOLID
 10
285.776000
 20
34.893000
 11
285.852000
 21
34.931000
  0
LINE
  8
1
  6
*CONTINUOUS,SOLID
 10
286.602000
 20
34.931000
 11
286.526000
 21
34.893000
  0
LINE
  8
1
  6
*CONTINUOUS,SOLID
 10
285.814000
 20
35.592000
 11
285.814000
 21
34.874000
  0
LINE
  8
1
  6
*CONTINUOUS,SOLID
 10
286.564000
 20
35.592000
 11
286.564000
 21
34.874000
  0
ARC
  8
1
  6
*CONTINUOUS,SOLID
 10
286.189000
 20
35.688333
 40
0.208333
 50
196.260206
 51
343.739794
  0
TEXT
  8
1
  6
*CONTINUOUS,SOLID
 40
0.075000
 10
286.912000
 20
35.817000
  1
0.15
 50
90.000000
  7
ROMANC
  0
LINE
  8
1
  6
*CONTINUOUS,SOLID
 10
286.874000
 20
35.703000
 11
286.874000
 21
35.630000
  0
LINE
  8
1
  6
*CONTINUOUS,SOLID
 10
286.874000
 20
35.330000
 11
286.874000
 21
35.480000
  0
LINE
  8
1
  6
*CONTINUOUS,SOLID
 10
286.893000
 20
35.592000
 11
286.855000
 21
35.668000
  0
LINE
  8
1
  6
*CONTINUOUS,SOLID
 10
286.855000
 20
35.518000
 11
286.893000
 21
35.442000
  0
LINE
  8
1
  6
*CONTINUOUS,SOLID
 10
286.602000
 20
35.630000
 11
286.912000
 21
35.630000
  0
LINE
  8
1
  6
*CONTINUOUS,SOLID
 10
286.222000
 20
35.480000
 11
286.912000
 21
35.480000
  0
TEXT
  8
1
  6
*CONTINUOUS,SOLID
 40
0.075000
 10
287.204000
 20
36.045000
  1
1.05
 50
90.000000
  7
ROMANC
  0
LINE
  8
1
  6
*CONTINUOUS,SOLID
 10
287.166000
 20
36.007000
 11
287.166000
 21
35.630000
  0
LINE
  8
1
  6
*CONTINUOUS,SOLID
 10
287.166000
 20
36.302000
 11
287.166000
 21
36.680000
  0
LINE
  8
1
  6
*CONTINUOUS,SOLID
 10
287.185000
 20
35.592000
 11
287.147000
 21
35.668000
  0
LINE
  8
1
  6
*CONTINUOUS,SOLID
 10
287.147000
 20
36.718000
 11
287.185000
 21
36.642000
  0
LINE
  8
1
  6
*CONTINUOUS,SOLID
 10
286.602000
 20
35.630000
 11
287.204000
 21
35.630000
  0
LINE
  8
1
  6
*CONTINUOUS,SOLID
 10
286.652000
 20
36.680000
 11
287.204000
 21
36.680000
  0
TEXT
  8
1
  6
*CONTINUOUS,SOLID
 40
0.075000
 10
286.070000
 20
37.412000
  1
0.85
  7
ROMANC
  0
LINE
  8
1
  6
*CONTINUOUS,SOLID
 10
286.032000
 20
37.450000
 11
285.764000
 21
37.450000
  0
LINE
  8
1
  6
*CONTINUOUS,SOLID
 10
286.344000
 20
37.450000
 11
286.614000
 21
37.450000
  0
LINE
  8
1
  6
*CONTINUOUS,SOLID
 10
285.726000
 20
37.431000
 11
285.802000
 21
37.469000
  0
LINE
  8
1
  6
*CONTINUOUS,SOLID
 10
286.652000
 20
37.469000
 11
286.576000
 21
37.431000
  0
LINE
  8
1
  6
*CONTINUOUS,SOLID
 10
285.764000
 20
36.718000
 11
285.764000
 21
37.488000
  0
LINE
  8
1
  6
*CONTINUOUS,SOLID
 10
286.614000
 20
36.718000
 11
286.614000
 21
37.488000
  0
ARC
  8
1
  6
*CONTINUOUS,SOLID
 10
286.189000
 20
36.704306
 40
0.425694
 50
356.726844
 51
543.273153
  0
TEXT
  8
1
  6
*CONTINUOUS,SOLID
 40
0.075000
 10
285.378000
 20
36.195000
  1
1.65
 50
90.000000
  7
ROMANC
  0
LINE
  8
1
  6
*CONTINUOUS,SOLID
 10
285.341000
 20
36.157000
 11
285.341000
 21
35.480000
  0
LINE
  8
1
  6
*CONTINUOUS,SOLID
 10
285.341000
 20
36.452000
 11
285.341000
 21
37.130000
  0
LINE
  8
1
  6
*CONTINUOUS,SOLID
 10
285.360000
 20
35.442000
 11
285.322000
 21
35.518000
  0
LINE
  8
1
  6
*CONTINUOUS,SOLID
 10
285.322000
 20
37.168000
 11
285.360000
 21
37.092000
  0
LINE
  8
1
  6
*CONTINUOUS,SOLID
 10
286.141000
 20
35.480000
 11
285.303000
 21
35.480000
  0
LINE
  8
1
  6
*CONTINUOUS,SOLID
 10
286.161000
 20
37.130000
 11
285.303000
 21
37.130000
  0
ENDSEC
  0
EOF
