  0
SECTION
  2
HEADER
  9
$ACADVER
  1
AC1009
  9
$INSBASE
 10
130.362884
 20
63.664599
 30
0.0
  9
$EXTMIN
 10
130.362884
 20
63.664599
 30
0.0
  9
$EXTMAX
 10
140.862884
 20
78.514599
 30
0.0
  9
$LIMMIN
 10
0.0
 20
0.0
  9
$LIMMAX
 10
410.0
 20
287.0
  9
$ORTHOMODE
 70
     1
  9
$REGENMODE
 70
     1
  9
$FILLMODE
 70
     1
  9
$QTEXTMODE
 70
     0
  9
$MIRRTEXT
 70
     1
  9
$DRAGMODE
 70
     2
  9
$LTSCALE
 40
25.0
  9
$OSMODE
 70
    32
  9
$ATTMODE
 70
     1
  9
$TEXTSIZE
 40
0.1
  9
$TRACEWID
 40
1.0
  9
$TEXTSTYLE
  7
ROMANC
  9
$CLAYER
  8
0
  9
$CELTYPE
  6
BYLAYER
  9
$CECOLOR
 62
   256
  9
$DIMSCALE
 40
0.0
  9
$DIMASZ
 40
0.0
  9
$DIMEXO
 40
0.1
  9
$DIMDLI
 40
7.0
  9
$DIMRND
 40
0.0
  9
$DIMDLE
 40
0.0
  9
$DIMEXE
 40
1.8
  9
$DIMTP
 40
0.0
  9
$DIMTM
 40
0.0
  9
$DIMTXT
 40
0.03
  9
$DIMCEN
 40
1.5
  9
$DIMTSZ
 40
1.0
  9
$DIMTOL
 70
     0
  9
$DIMLIM
 70
     0
  9
$DIMTIH
 70
     0
  9
$DIMTOH
 70
     0
  9
$DIMSE1
 70
     0
  9
$DIMSE2
 70
     0
  9
$DIMTAD
 70
     0
  9
$DIMZIN
 70
     0
  9
$DIMBLK
  1

  9
$DIMASO
 70
     1
  9
$DIMSHO
 70
     0
  9
$DIMPOST
  1

  9
$DIMAPOST
  1

  9
$DIMALT
 70
     0
  9
$DIMALTD
 70
     2
  9
$DIMALTF
 40
25.4
  9
$DIMLFAC
 40
1.0
  9
$DIMTOFL
 70
     1
  9
$DIMTVP
 40
0.0
  9
$DIMTIX
 70
     1
  9
$DIMSOXD
 70
     0
  9
$DIMSAH
 70
     0
  9
$DIMBLK1
  1

  9
$DIMBLK2
  1

  9
$DIMSTYLE
  2
*UNNAMED
  9
$DIMCLRD
 70
     0
  9
$DIMCLRE
 70
     0
  9
$DIMCLRT
 70
     0
  9
$DIMTFAC
 40
116.666667
  9
$DIMGAP
 40
0.09
  9
$LUNITS
 70
     2
  9
$LUPREC
 70
     2
  9
$SKETCHINC
 40
1.0
  9
$FILLETRAD
 40
0.0
  9
$AUNITS
 70
     0
  9
$AUPREC
 70
     0
  9
$MENU
  1
acad
  9
$ELEVATION
 40
0.0
  9
$PELEVATION
 40
0.0
  9
$THICKNESS
 40
0.0
  9
$LIMCHECK
 70
     0
  9
$BLIPMODE
 70
     0
  9
$CHAMFERA
 40
0.0
  9
$CHAMFERB
 40
0.0
  9
$SKPOLY
 70
     0
  9
$TDCREATE
 40
2449965.477643171
  9
$TDUPDATE
 40
2450723.524246643
  9
$TDINDWG
 40
0.0027545139
  9
$TDUSRTIMER
 40
0.0027545139
  9
$USRTIMER
 70
     1
  9
$ANGBASE
 50
0.0
  9
$ANGDIR
 70
     0
  9
$PDMODE
 70
     0
  9
$PDSIZE
 40
0.0
  9
$PLINEWID
 40
0.0
  9
$COORDS
 70
     2
  9
$SPLFRAME
 70
     0
  9
$SPLINETYPE
 70
     6
  9
$SPLINESEGS
 70
     8
  9
$ATTDIA
 70
     0
  9
$ATTREQ
 70
     1
  9
$HANDLING
 70
     0
  9
$HANDSEED
  5
0
  9
$SURFTAB1
 70
     6
  9
$SURFTAB2
 70
     6
  9
$SURFTYPE
 70
     6
  9
$SURFU
 70
     6
  9
$SURFV
 70
     6
  9
$UCSNAME
  2

  9
$UCSORG
 10
0.0
 20
0.0
 30
0.0
  9
$UCSXDIR
 10
1.0
 20
0.0
 30
0.0
  9
$UCSYDIR
 10
0.0
 20
1.0
 30
0.0
  9
$PUCSNAME
  2

  9
$PUCSORG
 10
0.0
 20
0.0
 30
0.0
  9
$PUCSXDIR
 10
1.0
 20
0.0
 30
0.0
  9
$PUCSYDIR
 10
0.0
 20
1.0
 30
0.0
  9
$USERI1
 70
     0
  9
$USERI2
 70
     0
  9
$USERI3
 70
     0
  9
$USERI4
 70
     0
  9
$USERI5
 70
     0
  9
$USERR1
 40
0.0
  9
$USERR2
 40
0.0
  9
$USERR3
 40
0.0
  9
$USERR4
 40
0.0
  9
$USERR5
 40
0.0
  9
$WORLDVIEW
 70
     1
  9
$SHADEDGE
 70
     3
  9
$SHADEDIF
 70
    70
  9
$TILEMODE
 70
     1
  9
$MAXACTVP
 70
    16
  9
$PINSBASE
 10
0.0
 20
0.0
 30
0.0
  9
$PLIMCHECK
 70
     0
  9
$PEXTMIN
 10
1.000000E+20
 20
1.000000E+20
 30
1.000000E+20
  9
$PEXTMAX
 10
-1.000000E+20
 20
-1.000000E+20
 30
-1.000000E+20
  9
$PLIMMIN
 10
0.0
 20
0.0
  9
$PLIMMAX
 10
12.0
 20
9.0
  9
$UNITMODE
 70
     0
  9
$VISRETAIN
 70
     0
  9
$PLINEGEN
 70
     0
  9
$PSLTSCALE
 70
     0
  9
$TREEDEPTH
 70
  3020
  9
$DWGCODEPAGE
  3
iso8859-1
  0
ENDSEC
  0
SECTION
  2
TABLES
  0
TABLE
  2
VPORT
 70
     1
  0
VPORT
  2
*ACTIVE
 70
     0
 10
0.0
 20
0.0
 11
1.0
 21
1.0
 12
142.324734
 22
71.089599
 13
0.0
 23
0.0
 14
1.0
 24
1.0
 15
10.0
 25
10.0
 16
0.0
 26
0.0
 36
1.0
 17
0.0
 27
0.0
 37
0.0
 40
14.85
 41
1.611024
 42
50.0
 43
0.0
 44
0.0
 50
0.0
 51
0.0
 71
     0
 72
   100
 73
     1
 74
     0
 75
     0
 76
     0
 77
     0
 78
     2
  0
ENDTAB
  0
TABLE
  2
LTYPE
 70
     1
  0
LTYPE
  2
CONTINUOUS
 70
    64
  3
Solid line
 72
    65
 73
     0
 40
0.0
  0
ENDTAB
  0
TABLE
  2
LAYER
 70
     2
  0
LAYER
  2
0
 70
    64
 62
     7
  6
CONTINUOUS
  0
LAYER
  2
MESURA
 70
    64
 62
     7
  6
CONTINUOUS
  0
ENDTAB
  0
TABLE
  2
STYLE
 70
     2
  0
STYLE
  2
STANDARD
 70
     0
 40
0.0
 41
1.0
 50
0.0
 71
     0
 42
0.1
  3
txt
  4

  0
STYLE
  2
ROMANC
 70
    64
 40
0.0
 41
1.0
 50
0.0
 71
     0
 42
0.1
  3
romanc
  4

  0
ENDTAB
  0
TABLE
  2
VIEW
 70
     0
  0
ENDTAB
  0
TABLE
  2
UCS
 70
     0
  0
ENDTAB
  0
TABLE
  2
APPID
 70
     1
  0
APPID
  2
ACAD
 70
    64
  0
ENDTAB
  0
TABLE
  2
DIMSTYLE
 70
     0
  0
ENDTAB
  0
ENDSEC
  0
SECTION
  2
BLOCKS
  0
ENDSEC
  0
SECTION
  2
ENTITIES
  0
LINE
  8
0
 10
140.862884
 20
63.664599
 30
0.0
 11
140.862884
 21
78.514599
 31
0.0
  0
LINE
  8
0
 10
130.362884
 20
78.514599
 30
0.0
 11
130.362884
 21
63.664599
 31
0.0
  0
LINE
  8
0
 10
130.362884
 20
63.664599
 30
0.0
 11
140.862884
 21
63.664599
 31
0.0
  0
LINE
  8
MESURA
  6
BYBLOCK
 62
     0
 10
132.683801
 20
66.451635
 30
0.0
 11
132.883801
 21
66.651635
 31
0.0
  0
LINE
  8
MESURA
  6
BYBLOCK
 62
     0
 10
137.131549
 20
66.451635
 30
0.0
 11
137.331549
 21
66.651635
 31
0.0
  0
TEXT
  8
0
 10
134.656656
 20
66.083997
 30
0.0
 40
0.1
  1
4.48
  7
ROMANC
  0
POLYLINE
  8
0
 66
     1
 10
0.0
 20
0.0
 30
0.0
 70
     1
  0
VERTEX
  8
0
 10
132.777675
 20
68.564287
 30
0.0
  0
VERTEX
  8
0
 10
132.777675
 20
67.564287
 30
0.0
 42
0.389241
  0
VERTEX
  8
0
 10
132.78466
 20
67.556674
 30
0.0
 42
0.012578
  0
VERTEX
  8
0
 10
133.424113
 20
67.517712
 30
0.0
 42
0.005227
 70
     2
 50
357.954592
  0
VERTEX
  8
0
 10
134.080107
 20
67.501148
 30
0.0
 42
0.003698
 50
357.954592
  0
VERTEX
  8
0
 10
135.007675
 20
67.494287
 30
0.0
 42
0.003698
  0
VERTEX
  8
0
 10
135.935243
 20
67.501148
 30
0.0
 42
0.005227
  0
VERTEX
  8
0
 10
136.591237
 20
67.517712
 30
0.0
 42
0.012578
 70
     2
 50
2.045408
  0
VERTEX
  8
0
 10
137.23069
 20
67.556674
 30
0.0
 42
0.389241
 50
2.045408
  0
VERTEX
  8
0
 10
137.237675
 20
67.564287
 30
0.0
  0
VERTEX
  8
0
 10
137.237675
 20
68.564287
 30
0.0
 42
0.107121
  0
VERTEX
  8
0
 10
137.071441
 20
69.331298
 30
0.0
 42
0.101657
  0
VERTEX
  8
0
 10
136.584861
 20
69.999392
 30
0.0
 42
0.094777
 70
     2
 50
137.675427
  0
VERTEX
  8
0
 10
135.870807
 20
70.436901
 30
0.0
 42
0.090426
 50
137.675427
  0
VERTEX
  8
0
 10
135.007675
 20
70.594287
 30
0.0
 42
0.090426
  0
VERTEX
  8
0
 10
134.144542
 20
70.436901
 30
0.0
 42
0.094777
  0
VERTEX
  8
0
 10
133.430489
 20
69.999392
 30
0.0
 42
0.101657
 70
     2
 50
222.324573
  0
VERTEX
  8
0
 10
132.943909
 20
69.331298
 30
0.0
 42
0.107121
 50
222.324573
  0
SEQEND
  8
0
  0
POLYLINE
  8
0
 66
     1
 10
0.0
 20
0.0
 30
0.0
 70
     1
  0
VERTEX
  8
0
 10
132.757675
 20
68.564287
 30
0.0
  0
VERTEX
  8
0
 10
132.757675
 20
67.564287
 30
0.0
 42
0.389241
  0
VERTEX
  8
0
 10
132.782942
 20
67.536748
 30
0.0
 42
0.012578
  0
VERTEX
  8
0
 10
133.423399
 20
67.497725
 30
0.0
 42
0.005227
 70
     2
 50
357.954592
  0
VERTEX
  8
0
 10
134.079811
 20
67.48115
 30
0.0
 42
0.003698
 50
357.954592
  0
VERTEX
  8
0
 10
135.007675
 20
67.474287
 30
0.0
 42
0.003698
  0
VERTEX
  8
0
 10
135.935539
 20
67.48115
 30
0.0
 42
0.005227
  0
VERTEX
  8
0
 10
136.591951
 20
67.497725
 30
0.0
 42
0.012578
 70
     2
 50
2.045408
  0
VERTEX
  8
0
 10
137.232408
 20
67.536748
 30
0.0
 42
0.389241
 50
2.045408
  0
VERTEX
  8
0
 10
137.257675
 20
67.564287
 30
0.0
  0
VERTEX
  8
0
 10
137.257675
 20
68.564287
 30
0.0
 42
0.107121
  0
VERTEX
  8
0
 10
137.089647
 20
69.339578
 30
0.0
 42
0.101657
  0
VERTEX
  8
0
 10
136.598327
 20
70.014179
 30
0.0
 42
0.094777
 70
     2
 50
137.675427
  0
VERTEX
  8
0
 10
135.877866
 20
70.455613
 30
0.0
 42
0.090426
 50
137.675427
  0
VERTEX
  8
0
 10
135.007675
 20
70.614287
 30
0.0
 42
0.090426
  0
VERTEX
  8
0
 10
134.137483
 20
70.455613
 30
0.0
 42
0.094777
  0
VERTEX
  8
0
 10
133.417022
 20
70.014179
 30
0.0
 42
0.101657
 70
     2
 50
222.324573
  0
VERTEX
  8
0
 10
132.925703
 20
69.339578
 30
0.0
 42
0.107121
 50
222.324573
  0
SEQEND
  8
0
  0
POLYLINE
  8
0
 66
     1
 10
0.0
 20
0.0
 30
0.0
 70
     1
  0
VERTEX
  8
0
 10
132.767675
 20
68.564287
 30
0.0
  0
VERTEX
  8
0
 10
132.767675
 20
67.564287
 30
0.0
 42
0.389241
  0
VERTEX
  8
0
 10
132.783801
 20
67.546711
 30
0.0
 42
0.012578
  0
VERTEX
  8
0
 10
133.423756
 20
67.507719
 30
0.0
 42
0.005227
 70
     2
 50
357.954592
  0
VERTEX
  8
0
 10
134.079959
 20
67.491149
 30
0.0
 42
0.003698
 50
357.954592
  0
VERTEX
  8
0
 10
135.007675
 20
67.484287
 30
0.0
 42
0.003698
  0
VERTEX
  8
0
 10
135.935391
 20
67.491149
 30
0.0
 42
0.005227
  0
VERTEX
  8
0
 10
136.591594
 20
67.507719
 30
0.0
 42
0.012578
 70
     2
 50
2.045408
  0
VERTEX
  8
0
 10
137.231549
 20
67.546711
 30
0.0
 42
0.389241
 50
2.045408
  0
VERTEX
  8
0
 10
137.247675
 20
67.564287
 30
0.0
  0
VERTEX
  8
0
 10
137.247675
 20
68.564287
 30
0.0
 42
0.107121
  0
VERTEX
  8
0
 10
137.080544
 20
69.335438
 30
0.0
 42
0.101657
  0
VERTEX
  8
0
 10
136.591594
 20
70.006785
 30
0.0
 42
0.094777
 70
     2
 50
137.675427
  0
VERTEX
  8
0
 10
135.874337
 20
70.446257
 30
0.0
 42
0.090426
 50
137.675427
  0
VERTEX
  8
0
 10
135.007675
 20
70.604287
 30
0.0
 42
0.090426
  0
VERTEX
  8
0
 10
134.141013
 20
70.446257
 30
0.0
 42
0.094777
  0
VERTEX
  8
0
 10
133.423756
 20
70.006785
 30
0.0
 42
0.101657
 70
     2
 50
222.324573
  0
VERTEX
  8
0
 10
132.934806
 20
69.335438
 30
0.0
 42
0.107121
 50
222.324573
  0
SEQEND
  8
0
  0
LINE
  8
0
 10
135.007675
 20
67.484287
 30
0.0
 11
137.614649
 21
67.484287
 31
0.0
  0
LINE
  8
0
 10
135.007675
 20
70.604287
 30
0.0
 11
137.614649
 21
70.604287
 31
0.0
  0
LINE
  8
0
 10
132.783801
 20
66.551635
 30
0.0
 11
137.247726
 21
66.551635
 31
0.0
  0
LINE
  8
0
 10
132.783801
 20
67.546711
 30
0.0
 11
132.783801
 21
66.551635
 31
0.0
  0
POLYLINE
  8
0
 66
     1
 10
0.0
 20
0.0
 30
0.0
  0
VERTEX
  8
0
 10
132.767675
 20
68.564287
 30
0.0
 42
0.107121
  0
VERTEX
  8
0
 10
132.767675
 20
68.564287
 30
0.0
 42
0.107121
  0
SEQEND
  8
0
  0
TEXT
  8
0
 10
137.781659
 20
67.483544
 30
0.0
 40
0.1
  1
0.08
  7
ROMANC
  0
TEXT
  8
0
 10
137.727795
 20
68.048746
 30
0.0
 40
0.1
  1
1.0
  7
ROMANC
  0
TEXT
  8
0
 10
137.727795
 20
69.529036
 30
0.0
 40
0.1
  1
3.04
  7
ROMANC
  0
LINE
  8
MESURA
  6
BYBLOCK
 62
     0
 10
137.514649
 20
67.384287
 30
0.0
 11
137.714649
 21
67.584287
 31
0.0
  0
LINE
  8
MESURA
  6
BYBLOCK
 62
     0
 10
137.514649
 20
67.464287
 30
0.0
 11
137.714649
 21
67.664287
 31
0.0
  0
LINE
  8
MESURA
  6
BYBLOCK
 62
     0
 10
137.514649
 20
68.464287
 30
0.0
 11
137.714649
 21
68.664287
 31
0.0
  0
LINE
  8
MESURA
  6
BYBLOCK
 62
     0
 10
137.514649
 20
70.504287
 30
0.0
 11
137.714649
 21
70.704287
 31
0.0
  0
LINE
  8
0
 10
137.614649
 20
67.564287
 30
0.0
 11
137.614649
 21
67.484287
 31
0.0
  0
LINE
  8
0
 10
137.614649
 20
68.564287
 30
0.0
 11
137.614649
 21
70.604287
 31
0.0
  0
LINE
  8
0
 10
137.247675
 20
68.564287
 30
0.0
 11
137.614649
 21
68.564287
 31
0.0
  0
LINE
  8
0
 10
137.247675
 20
67.564287
 30
0.0
 11
137.614649
 21
67.564287
 31
0.0
  0
LINE
  8
0
 10
137.231549
 20
67.546711
 30
0.0
 11
137.231549
 21
66.551635
 31
0.0
  0
LINE
  8
0
 10
137.614649
 20
67.564287
 30
0.0
 11
137.614649
 21
68.564287
 31
0.0
  0
TEXT
  8
0
 10
132.892856
 20
75.624744
 30
0.0
 40
0.3
  1
ESCALA  1:50
  7
ROMANC
  0
LINE
  8
0
 10
140.862884
 20
78.514599
 30
0.0
 11
130.362884
 21
78.514599
 31
0.0
  0
TEXT
  8
0
 10
132.892856
 20
76.110459
 30
0.0
 40
0.3
  1
TIPUS   NT1194
  7
ROMANC
  0
TEXT
  8
0
 10
132.926097
 20
74.433928
 30
0.0
 40
0.3
  1
P = 132.3 dm
  7
ROMANC
  0
TEXT
  8
0
 10
136.295055
 20
75.339466
 30
0.0
 40
0.1
  1
2
  7
ROMANC
  0
TEXT
  8
0
 10
132.90595
 20
75.026155
 30
0.0
 40
0.3
  1
S = 1194 dm
  7
ROMANC
  0
TEXT
  8
0
 10
138.549319
 20
68.985876
 30
0.0
 40
0.1
  1
4.12
  7
ROMANC
  0
LINE
  8
0
 10
135.829199
 20
70.604287
 30
0.0
 11
138.436173
 21
70.604287
 31
0.0
  0
LINE
  8
0
 10
135.829199
 20
67.484287
 30
0.0
 11
138.436173
 21
67.484287
 31
0.0
  0
LINE
  8
0
 10
138.436173
 20
67.564287
 30
0.0
 11
138.436173
 21
68.564287
 31
0.0
  0
LINE
  8
0
 10
138.436173
 20
68.564287
 30
0.0
 11
138.436173
 21
70.604287
 31
0.0
  0
LINE
  8
0
 10
138.436173
 20
67.564287
 30
0.0
 11
138.436173
 21
67.484287
 31
0.0
  0
LINE
  8
MESURA
  6
BYBLOCK
 62
     0
 10
138.336173
 20
70.504287
 30
0.0
 11
138.536173
 21
70.704287
 31
0.0
  0
LINE
  8
MESURA
  6
BYBLOCK
 62
     0
 10
138.336173
 20
67.384287
 30
0.0
 11
138.536173
 21
67.584287
 31
0.0
  0
ENDSEC
  0
EOF
