  0
SECTION
  2
HEADER
  9
$ACADVER
  1
AC1009
  9
$INSBASE
 10
166.963119
 20
80.862421
 30
0.0
  9
$EXTMIN
 10
22.591444
 20
-21.448265
 30
0.0
  9
$EXTMAX
 10
228.671302
 20
98.615031
 30
0.0
  9
$LIMMIN
 10
0.0
 20
0.0
  9
$LIMMAX
 10
410.0
 20
287.0
  9
$ORTHOMODE
 70
     0
  9
$REGENMODE
 70
     1
  9
$FILLMODE
 70
     1
  9
$QTEXTMODE
 70
     0
  9
$MIRRTEXT
 70
     1
  9
$DRAGMODE
 70
     2
  9
$LTSCALE
 40
25.0
  9
$OSMODE
 70
    32
  9
$ATTMODE
 70
     1
  9
$TEXTSIZE
 40
0.1
  9
$TRACEWID
 40
1.0
  9
$TEXTSTYLE
  7
ROMANC
  9
$CLAYER
  8
0
  9
$CELTYPE
  6
BYLAYER
  9
$CECOLOR
 62
   256
  9
$DIMSCALE
 40
0.0
  9
$DIMASZ
 40
0.0
  9
$DIMEXO
 40
0.1
  9
$DIMDLI
 40
7.0
  9
$DIMRND
 40
0.0
  9
$DIMDLE
 40
0.0
  9
$DIMEXE
 40
1.8
  9
$DIMTP
 40
0.0
  9
$DIMTM
 40
0.0
  9
$DIMTXT
 40
0.03
  9
$DIMCEN
 40
1.5
  9
$DIMTSZ
 40
1.0
  9
$DIMTOL
 70
     0
  9
$DIMLIM
 70
     0
  9
$DIMTIH
 70
     0
  9
$DIMTOH
 70
     0
  9
$DIMSE1
 70
     0
  9
$DIMSE2
 70
     0
  9
$DIMTAD
 70
     0
  9
$DIMZIN
 70
     0
  9
$DIMBLK
  1

  9
$DIMASO
 70
     1
  9
$DIMSHO
 70
     0
  9
$DIMPOST
  1

  9
$DIMAPOST
  1

  9
$DIMALT
 70
     0
  9
$DIMALTD
 70
     2
  9
$DIMALTF
 40
25.4
  9
$DIMLFAC
 40
1.0
  9
$DIMTOFL
 70
     1
  9
$DIMTVP
 40
0.0
  9
$DIMTIX
 70
     1
  9
$DIMSOXD
 70
     0
  9
$DIMSAH
 70
     0
  9
$DIMBLK1
  1

  9
$DIMBLK2
  1

  9
$DIMSTYLE
  2
*UNNAMED
  9
$DIMCLRD
 70
     0
  9
$DIMCLRE
 70
     0
  9
$DIMCLRT
 70
     0
  9
$DIMTFAC
 40
116.666667
  9
$DIMGAP
 40
0.09
  9
$LUNITS
 70
     2
  9
$LUPREC
 70
     2
  9
$SKETCHINC
 40
1.0
  9
$FILLETRAD
 40
0.0
  9
$AUNITS
 70
     0
  9
$AUPREC
 70
     0
  9
$MENU
  1
acad
  9
$ELEVATION
 40
0.0
  9
$PELEVATION
 40
0.0
  9
$THICKNESS
 40
0.0
  9
$LIMCHECK
 70
     0
  9
$BLIPMODE
 70
     0
  9
$CHAMFERA
 40
0.0
  9
$CHAMFERB
 40
0.0
  9
$SKPOLY
 70
     0
  9
$TDCREATE
 40
2449965.432907523
  9
$TDUPDATE
 40
2450207.416475695
  9
$TDINDWG
 40
0.0001818287
  9
$TDUSRTIMER
 40
0.0001818287
  9
$USRTIMER
 70
     1
  9
$ANGBASE
 50
0.0
  9
$ANGDIR
 70
     0
  9
$PDMODE
 70
     0
  9
$PDSIZE
 40
0.0
  9
$PLINEWID
 40
0.0
  9
$COORDS
 70
     2
  9
$SPLFRAME
 70
     0
  9
$SPLINETYPE
 70
     6
  9
$SPLINESEGS
 70
     8
  9
$ATTDIA
 70
     0
  9
$ATTREQ
 70
     1
  9
$HANDLING
 70
     0
  9
$HANDSEED
  5
0
  9
$SURFTAB1
 70
     6
  9
$SURFTAB2
 70
     6
  9
$SURFTYPE
 70
     6
  9
$SURFU
 70
     6
  9
$SURFV
 70
     6
  9
$UCSNAME
  2

  9
$UCSORG
 10
0.0
 20
0.0
 30
0.0
  9
$UCSXDIR
 10
1.0
 20
0.0
 30
0.0
  9
$UCSYDIR
 10
0.0
 20
1.0
 30
0.0
  9
$PUCSNAME
  2

  9
$PUCSORG
 10
0.0
 20
0.0
 30
0.0
  9
$PUCSXDIR
 10
1.0
 20
0.0
 30
0.0
  9
$PUCSYDIR
 10
0.0
 20
1.0
 30
0.0
  9
$USERI1
 70
     0
  9
$USERI2
 70
     0
  9
$USERI3
 70
     0
  9
$USERI4
 70
     0
  9
$USERI5
 70
     0
  9
$USERR1
 40
0.0
  9
$USERR2
 40
0.0
  9
$USERR3
 40
0.0
  9
$USERR4
 40
0.0
  9
$USERR5
 40
0.0
  9
$WORLDVIEW
 70
     1
  9
$SHADEDGE
 70
     3
  9
$SHADEDIF
 70
    70
  9
$TILEMODE
 70
     1
  9
$MAXACTVP
 70
    16
  9
$PINSBASE
 10
0.0
 20
0.0
 30
0.0
  9
$PLIMCHECK
 70
     0
  9
$PEXTMIN
 10
1.000000E+20
 20
1.000000E+20
 30
1.000000E+20
  9
$PEXTMAX
 10
-1.000000E+20
 20
-1.000000E+20
 30
-1.000000E+20
  9
$PLIMMIN
 10
0.0
 20
0.0
  9
$PLIMMAX
 10
12.0
 20
9.0
  9
$UNITMODE
 70
     0
  9
$VISRETAIN
 70
     0
  9
$PLINEGEN
 70
     0
  9
$PSLTSCALE
 70
     0
  9
$TREEDEPTH
 70
  3020
  9
$DWGCODEPAGE
  3
iso8859-1
  0
ENDSEC
  0
SECTION
  2
TABLES
  0
TABLE
  2
VPORT
 70
     1
  0
VPORT
  2
*ACTIVE
 70
     0
 10
0.0
 20
0.0
 11
1.0
 21
1.0
 12
172.953065
 22
85.301018
 13
0.0
 23
0.0
 14
1.0
 24
1.0
 15
10.0
 25
10.0
 16
0.0
 26
0.0
 36
1.0
 17
0.0
 27
0.0
 37
0.0
 40
26.097443
 41
1.65
 42
50.0
 43
0.0
 44
0.0
 50
0.0
 51
0.0
 71
     0
 72
   100
 73
     1
 74
     0
 75
     0
 76
     0
 77
     0
 78
     2
  0
ENDTAB
  0
TABLE
  2
LTYPE
 70
     1
  0
LTYPE
  2
CONTINUOUS
 70
    64
  3
Solid line
 72
    65
 73
     0
 40
0.0
  0
ENDTAB
  0
TABLE
  2
LAYER
 70
     2
  0
LAYER
  2
0
 70
    64
 62
     7
  6
CONTINUOUS
  0
LAYER
  2
MESURA
 70
    64
 62
     7
  6
CONTINUOUS
  0
ENDTAB
  0
TABLE
  2
STYLE
 70
     2
  0
STYLE
  2
STANDARD
 70
     0
 40
0.0
 41
1.0
 50
0.0
 71
     0
 42
0.1
  3
txt
  4

  0
STYLE
  2
ROMANC
 70
    64
 40
0.0
 41
1.0
 50
0.0
 71
     0
 42
0.1
  3
romanc
  4

  0
ENDTAB
  0
TABLE
  2
VIEW
 70
     0
  0
ENDTAB
  0
TABLE
  2
UCS
 70
     0
  0
ENDTAB
  0
TABLE
  2
APPID
 70
     1
  0
APPID
  2
ACAD
 70
    64
  0
ENDTAB
  0
TABLE
  2
DIMSTYLE
 70
     0
  0
ENDTAB
  0
ENDSEC
  0
SECTION
  2
BLOCKS
  0
ENDSEC
  0
SECTION
  2
ENTITIES
  0
LINE
  8
0
 10
177.463119
 20
80.862421
 30
0.0
 11
177.463119
 21
95.712421
 31
0.0
  0
LINE
  8
0
 10
166.963119
 20
95.712421
 30
0.0
 11
166.963119
 21
80.862421
 31
0.0
  0
LINE
  8
0
 10
166.963119
 20
80.862421
 30
0.0
 11
177.463119
 21
80.862421
 31
0.0
  0
TEXT
  8
0
 10
169.493091
 20
93.30828
 30
0.0
 40
0.3
  1
TIPUS   NT119
  7
ROMANC
  0
TEXT
  8
0
 10
172.89529
 20
92.537287
 30
0.0
 40
0.1
  1
2
  7
ROMANC
  0
LINE
  8
0
 10
177.463119
 20
95.712421
 30
0.0
 11
166.963119
 21
95.712421
 31
0.0
  0
TEXT
  8
0
 10
171.934052
 20
85.30329
 30
0.0
 40
0.1
  1
0.68
  7
ROMANC
  0
LINE
  8
MESURA
  6
BYBLOCK
 62
     0
 10
172.702153
 20
87.754673
 30
0.0
 11
172.902153
 21
87.954673
 31
0.0
  0
LINE
  8
0
 10
171.770213
 20
87.869779
 30
0.0
 11
172.815868
 21
87.869779
 31
0.0
  0
LINE
  8
0
 10
172.815868
 20
87.869779
 30
0.0
 11
172.815868
 21
85.985887
 31
0.0
  0
LINE
  8
0
 10
172.464114
 20
85.985887
 30
0.0
 11
172.815868
 21
85.985887
 31
0.0
  0
LINE
  8
0
 10
172.450269
 20
87.542914
 30
0.0
 11
172.815868
 21
87.550844
 31
0.0
  0
LINE
  8
MESURA
  6
BYBLOCK
 62
     0
 10
172.715868
 20
87.450844
 30
0.0
 11
172.915868
 21
87.650844
 31
0.0
  0
LINE
  8
MESURA
  6
BYBLOCK
 62
     0
 10
172.715868
 20
85.885887
 30
0.0
 11
172.915868
 21
86.085887
 31
0.0
  0
LINE
  8
MESURA
  6
BYBLOCK
 62
     0
 10
172.365772
 20
85.52268
 30
0.0
 11
172.565772
 21
85.72268
 31
0.0
  0
LINE
  8
0
 10
172.465772
 20
85.991288
 30
0.0
 11
172.465772
 21
85.62268
 31
0.0
  0
LINE
  8
0
 10
171.766124
 20
85.977995
 30
0.0
 11
171.766124
 21
85.62268
 31
0.0
  0
LINE
  8
MESURA
  6
BYBLOCK
 62
     0
 10
171.666124
 20
85.52268
 30
0.0
 11
171.866124
 21
85.72268
 31
0.0
  0
LINE
  8
0
 10
171.766124
 20
85.62268
 30
0.0
 11
172.465772
 21
85.62268
 31
0.0
  0
TEXT
  8
0
 10
169.516233
 20
91.507435
 30
0.0
 40
0.3
  1
P = 48.6 dm
  7
ROMANC
  0
TEXT
  8
0
 10
169.506185
 20
92.223976
 30
0.0
 40
0.3
  1
S =  119 dm
  7
ROMANC
  0
TEXT
  8
0
 10
169.493091
 20
92.822566
 30
0.0
 40
0.3
  1
ESCALA  1:50
  7
ROMANC
  0
TEXT
  8
0
 10
173.011141
 20
87.691141
 30
0.0
 40
0.1
  1
0.35
  7
ROMANC
  0
TEXT
  8
0
 10
173.011141
 20
86.658055
 30
0.0
 40
0.1
  1
1.52
  7
ROMANC
  0
LINE
  8
0
 10
171.779161
 20
87.85444
 30
0.0
 11
171.781454
 21
85.996538
 31
0.0
  0
LINE
  8
0
 10
171.781454
 20
85.996538
 30
0.0
 11
172.450269
 21
85.996538
 31
0.0
  0
LINE
  8
0
 10
172.450269
 20
85.996538
 30
0.0
 11
172.450269
 21
87.542914
 31
0.0
  0
LINE
  8
0
 10
172.450269
 20
87.542914
 30
0.0
 11
172.450269
 21
87.542914
 31
0.0
  0
LINE
  8
0
 10
172.450269
 20
87.542914
 30
0.0
 11
172.450269
 21
87.542914
 31
0.0
  0
LINE
  8
0
 10
172.450269
 20
87.542914
 30
0.0
 11
172.439793
 21
87.576502
 31
0.0
  0
LINE
  8
0
 10
172.439793
 20
87.576502
 30
0.0
 11
172.412154
 21
87.623774
 31
0.0
  0
ARC
  8
0
 10
172.031328
 20
87.317301
 30
0.0
 40
0.488829
 50
38.825643
 51
62.764853
  0
ARC
  8
0
 10
171.876292
 20
87.016088
 30
0.0
 40
0.8276
 50
62.764853
 51
77.964833
  0
ARC
  8
0
 10
171.774205
 20
86.537251
 30
0.0
 40
1.317198
 50
77.964833
 51
89.784398
  0
LINE
  8
0
 10
171.789174
 20
87.844363
 30
0.0
 11
171.791441
 21
86.006538
 31
0.0
  0
LINE
  8
0
 10
171.791441
 20
86.006538
 30
0.0
 11
172.440269
 21
86.006538
 31
0.0
  0
LINE
  8
0
 10
172.440269
 20
86.006538
 30
0.0
 11
172.440269
 21
87.541391
 31
0.0
  0
LINE
  8
0
 10
172.440269
 20
87.541391
 30
0.0
 11
172.430586
 21
87.572438
 31
0.0
  0
LINE
  8
0
 10
172.430586
 20
87.572438
 30
0.0
 11
172.403899
 21
87.61808
 31
0.0
  0
ARC
  8
0
 10
172.031328
 20
87.317301
 30
0.0
 40
0.478829
 50
38.914219
 51
62.764853
  0
ARC
  8
0
 10
171.876292
 20
87.016088
 30
0.0
 40
0.8176
 50
62.764853
 51
77.964833
  0
ARC
  8
0
 10
171.774205
 20
86.537251
 30
0.0
 40
1.307198
 50
77.964833
 51
89.343879
  0
LINE
  8
0
 10
171.769149
 20
87.864439
 30
0.0
 11
171.771466
 21
85.986538
 31
0.0
  0
LINE
  8
0
 10
171.771466
 20
85.986538
 30
0.0
 11
172.460269
 21
85.986538
 31
0.0
  0
LINE
  8
0
 10
172.460269
 20
85.986538
 30
0.0
 11
172.460269
 21
87.544437
 31
0.0
  0
LINE
  8
0
 10
172.460269
 20
87.544437
 30
0.0
 11
172.449001
 21
87.580567
 31
0.0
  0
LINE
  8
0
 10
172.449001
 20
87.580567
 30
0.0
 11
172.420413
 21
87.62946
 31
0.0
  0
ARC
  8
0
 10
172.031328
 20
87.317301
 30
0.0
 40
0.498829
 50
38.739748
 51
62.764853
  0
ARC
  8
0
 10
171.876292
 20
87.016088
 30
0.0
 40
0.8376
 50
62.764853
 51
77.964833
  0
ARC
  8
0
 10
171.774205
 20
86.537251
 30
0.0
 40
1.327198
 50
77.964833
 51
90.218261
  0
LINE
  8
0
 10
171.759137
 20
87.874364
 30
0.0
 11
171.761478
 21
85.976538
 31
0.0
  0
LINE
  8
0
 10
171.761478
 20
85.976538
 30
0.0
 11
172.470269
 21
85.976538
 31
0.0
  0
LINE
  8
0
 10
172.470269
 20
85.976538
 30
0.0
 11
172.470269
 21
87.54596
 31
0.0
  0
LINE
  8
0
 10
172.470269
 20
87.54596
 30
0.0
 11
172.458208
 21
87.584631
 31
0.0
  0
LINE
  8
0
 10
172.458208
 20
87.584631
 30
0.0
 11
172.428675
 21
87.63514
 31
0.0
  0
ARC
  8
0
 10
172.031328
 20
87.317301
 30
0.0
 40
0.508829
 50
38.656403
 51
62.764853
  0
ARC
  8
0
 10
171.876292
 20
87.016088
 30
0.0
 40
0.8476
 50
62.764853
 51
77.964833
  0
ARC
  8
0
 10
171.774205
 20
86.537251
 30
0.0
 40
1.337198
 50
77.964833
 51
90.645644
  0
ENDSEC
  0
EOF
