  0
SECTION
  2
HEADER
  9
$ACADVER
  1
AC1009
  9
$INSBASE
 10
0.0
 20
0.0
 30
0.0
  9
$EXTMIN
 10
281.396000
 20
29.897000
 30
-2147483.648000
  9
$EXTMAX
 10
291.896000
 20
44.747000
 30
0.000000
  9
$LIMMIN
 10
280.396000
 20
28.897000
  9
$LIMMAX
 10
292.896000
 20
43.747000
  9
$ORTHOMODE
 70
     0
  9
$REGENMODE
 70
     1
  9
$FILLMODE
 70
     1
  9
$QTEXTMODE
 70
     0
  9
$MIRRTEXT
 70
     1
  9
$DRAGMODE
 70
     2
  9
$LTSCALE
 40
1.0
  9
$OSMODE
 70
     0
  9
$ATTMODE
 70
     1
  9
$TEXTSIZE
 40
0.2
  9
$TRACEWID
 40
0.05
  9
$TEXTSTYLE
  7
STANDARD
  9
$CLAYER
  8
0
  9
$CELTYPE
  6
BYLAYER
  9
$CECOLOR
 62
   256
  9
$DIMSCALE
 40
1.0
  9
$DIMASZ
 40
0.18
  9
$DIMEXO
 40
0.0625
  9
$DIMDLI
 40
0.38
  9
$DIMRND
 40
0.0
  9
$DIMDLE
 40
0.0
  9
$DIMEXE
 40
0.18
  9
$DIMTP
 40
0.0
  9
$DIMTM
 40
0.0
  9
$DIMTXT
 40
0.18
  9
$DIMCEN
 40
0.09
  9
$DIMTSZ
 40
0.0
  9
$DIMTOL
 70
     0
  9
$DIMLIM
 70
     0
  9
$DIMTIH
 70
     1
  9
$DIMTOH
 70
     1
  9
$DIMSE1
 70
     0
  9
$DIMSE2
 70
     0
  9
$DIMTAD
 70
     0
  9
$DIMZIN
 70
     0
  9
$DIMBLK
  1

  9
$DIMASO
 70
     1
  9
$DIMSHO
 70
     1
  9
$DIMPOST
  1

  9
$DIMAPOST
  1

  9
$DIMALT
 70
     0
  9
$DIMALTD
 70
     2
  9
$DIMALTF
 40
25.4
  9
$DIMLFAC
 40
1.0
  9
$DIMTOFL
 70
     0
  9
$DIMTVP
 40
0.0
  9
$DIMTIX
 70
     0
  9
$DIMSOXD
 70
     0
  9
$DIMSAH
 70
     0
  9
$DIMBLK1
  1

  9
$DIMBLK2
  1

  9
$DIMSTYLE
  2
*UNNAMED
  9
$DIMCLRD
 70
     0
  9
$DIMCLRE
 70
     0
  9
$DIMCLRT
 70
     0
  9
$DIMTFAC
 40
1.0
  9
$DIMGAP
 40
0.09
  9
$LUNITS
 70
     2
  9
$LUPREC
 70
     4
  9
$AXISMODE
 70
     0
  9
$AXISUNIT
 10
0.0
 20
0.0
  9
$SKETCHINC
 40
0.1
  9
$FILLETRAD
 40
0.0
  9
$AUNITS
 70
     0
  9
$AUPREC
 70
     0
  9
$MENU
  1
acad
  9
$ELEVATION
 40
0.0
  9
$PELEVATION
 40
0.0
  9
$THICKNESS
 40
0.0
  9
$LIMCHECK
 70
     0
  9
$BLIPMODE
 70
     1
  9
$CHAMFERA
 40
0.0
  9
$CHAMFERB
 40
0.0
  9
$SKPOLY
 70
     0
  9
$TDCREATE
 40
2448315.373408102
  9
$TDUPDATE
 40
2448315.373408102
  9
$TDINDWG
 40
0.0000000000
  9
$TDUSRTIMER
 40
0.0000000000
  9
$USRTIMER
 70
     1
  9
$ANGBASE
 50
0.0
  9
$ANGDIR
 70
     0
  9
$PDMODE
 70
     0
  9
$PDSIZE
 40
0.0
  9
$PLINEWID
 40
0.0
  9
$COORDS
 70
     0
  9
$SPLFRAME
 70
     0
  9
$SPLINETYPE
 70
     6
  9
$SPLINESEGS
 70
     8
  9
$ATTDIA
 70
     0
  9
$ATTREQ
 70
     1
  9
$HANDLING
 70
     0
  9
$HANDSEED
  5
0
  9
$SURFTAB1
 70
     6
  9
$SURFTAB2
 70
     6
  9
$SURFTYPE
 70
     6
  9
$SURFU
 70
     6
  9
$SURFV
 70
     6
  9
$UCSNAME
  2

  9
$UCSORG
 10
0.0
 20
0.0
 30
0.0
  9
$UCSXDIR
 10
1.0
 20
0.0
 30
0.0
  9
$UCSYDIR
 10
0.0
 20
1.0
 30
0.0
  9
$PUCSNAME
  2

  9
$PUCSORG
 10
0.0
 20
0.0
 30
0.0
  9
$PUCSXDIR
 10
1.0
 20
0.0
 30
0.0
  9
$PUCSYDIR
 10
0.0
 20
1.0
 30
0.0
  9
$USERI1
 70
     0
  9
$USERI2
 70
     0
  9
$USERI3
 70
     0
  9
$USERI4
 70
     0
  9
$USERI5
 70
     0
  9
$USERR1
 40
0.0
  9
$USERR2
 40
0.0
  9
$USERR3
 40
0.0
  9
$USERR4
 40
0.0
  9
$USERR5
 40
0.0
  9
$WORLDVIEW
 70
     1
  9
$SHADEDGE
 70
     3
  9
$SHADEDIF
 70
    70
  9
$TILEMODE
 70
     1
  9
$MAXACTVP
 70
    16
  9
$PINSBASE
 10
0.0
 20
0.0
 30
0.0
  9
$PLIMCHECK
 70
     0
  9
$PEXTMIN
 10
1.000000E+20
 20
1.000000E+20
 30
1.000000E+20
  9
$PEXTMAX
 10
-1.000000E+20
 20
-1.000000E+20
 30
-1.000000E+20
  9
$PLIMMIN
 10
0.0
 20
0.0
  9
$PLIMMAX
 10
12.0
 20
9.0
  9
$UNITMODE
 70
     0
  9
$VISRETAIN
 70
     0
  0
ENDSEC
  0
SECTION
  2
TABLES
  0
TABLE
  2
LTYPE
 70
    1
  0
LTYPE
  2
CONTINUOUS
 70
    64
3
Solid line
 72
    65
 73
0
 40
0.000000
  0
ENDTAB
  0
TABLE
  2
LAYER
 70
    8
  0
LAYER
  2
0
 70
    64
 62
7
  6
CONTINUOUS
  0
LAYER
  2
1
 70
    64
 62
7
  6
CONTINUOUS
  0
LAYER
  2
7
 70
    64
 62
7
  6
CONTINUOUS
  0
LAYER
  2
8
 70
    64
 62
7
  6
CONTINUOUS
  0
LAYER
  2
9
 70
    64
 62
7
  6
CONTINUOUS
  0
LAYER
  2
22
 70
    64
 62
7
  6
CONTINUOUS
  0
LAYER
  2
25
 70
    64
 62
7
  6
CONTINUOUS
  0
LAYER
  2
0
 70
    64
 62
7
  6
CONTINUOUS
  0
ENDTAB
  0
TABLE
  2
STYLE
 70
    1
  0
STYLE
  2
ROMANC
70
     0
 40
0.0
 41
1.0
 50
0.0
 71
     0
 42
0.2
  3
ROMANC
  4

  0
ENDTAB
  0
ENDSEC
  0
SECTION
  2
BLOCKS
  0
ENDSEC
  0
SECTION
  2
ENTITIES
  0
TEXT
  8
0
  6
CONTINUOUS
 40
0.100000
 10
286.909000
 20
41.324000
  1
2
  7
ROMANC
  0
TEXT
  8
0
  6
CONTINUOUS
 40
0.300000
 10
283.926000
 20
41.768000
  1
ESCALA  1:50
  7
ROMANC
  0
POLYLINE
  8
0
  6
CONTINUOUS
 66
     1
 70
     1
  0
VERTEX
  8
0
  6
CONTINUOUS
 10
281.396000
 20
44.747000
  0
VERTEX
  8
0
  6
CONTINUOUS
 10
291.896000
 20
44.747000
  0
VERTEX
  8
0
  6
CONTINUOUS
 10
291.896000
 20
29.897000
  0
VERTEX
  8
0
  6
CONTINUOUS
 10
281.396000
 20
29.897000
  0
SEQEND
  8
0
  0
LINE
  8
1
  6
CONTINUOUS
 10
286.304000
 20
33.747000
 11
286.464000
 21
33.747000
  0
LINE
  8
1
  6
CONTINUOUS
 10
286.464000
 20
33.747000
 11
286.464000
 21
33.357000
  0
LINE
  8
1
  6
CONTINUOUS
 10
286.304000
 20
33.687000
 11
286.364000
 21
33.747000
  0
LINE
  8
1
  6
CONTINUOUS
 10
286.304000
 20
33.602000
 11
286.449000
 21
33.747000
  0
LINE
  8
1
  6
CONTINUOUS
 10
286.304000
 20
33.518000
 11
286.464000
 21
33.678000
  0
LINE
  8
1
  6
CONTINUOUS
 10
286.304000
 20
33.432000
 11
286.464000
 21
33.592000
  0
LINE
  8
1
  6
CONTINUOUS
 10
286.314000
 20
33.357000
 11
286.464000
 21
33.507000
  0
LINE
  8
1
  6
CONTINUOUS
 10
286.398000
 20
33.357000
 11
286.464000
 21
33.423000
  0
LINE
  8
1
  6
CONTINUOUS
 10
288.104000
 20
36.847000
 11
284.604000
 21
36.847000
  0
LINE
  8
1
  6
CONTINUOUS
 10
286.304000
 20
33.357000
 11
286.464000
 21
33.357000
  0
TEXT
  8
0
  6
CONTINUOUS
 40
0.300000
 10
283.922000
 20
40.529000
  1
P = 139 dm
  7
ROMANC
  0
TEXT
  8
0
  6
CONTINUOUS
 40
0.300000
 10
283.945000
 20
41.099000
  1
S =1186 dm
  7
ROMANC
  0
LINE
  8
1
  6
CONTINUOUS
 10
284.604000
 20
36.847000
 11
284.604000
 21
33.747000
  0
LINE
  8
1
  6
CONTINUOUS
 10
285.504000
 20
33.357000
 11
286.304000
 21
33.357000
  0
TEXT
  8
1
  6
CONTINUOUS
 40
0.075000
 10
284.935000
 20
33.004000
  1
0.90
  7
ROMANC
  0
LINE
  8
1
  6
CONTINUOUS
 10
284.897000
 20
33.042000
 11
284.604000
 21
33.042000
  0
LINE
  8
1
  6
CONTINUOUS
 10
285.209000
 20
33.042000
 11
285.504000
 21
33.042000
  0
LINE
  8
1
  6
CONTINUOUS
 10
284.566000
 20
33.023000
 11
284.642000
 21
33.061000
  0
LINE
  8
1
  6
CONTINUOUS
 10
285.542000
 20
33.061000
 11
285.466000
 21
33.023000
  0
LINE
  8
1
  6
CONTINUOUS
 10
284.604000
 20
33.709000
 11
284.604000
 21
33.004000
  0
LINE
  8
1
  6
CONTINUOUS
 10
285.504000
 20
33.319000
 11
285.504000
 21
33.004000
  0
TEXT
  8
1
  6
CONTINUOUS
 40
0.075000
 10
285.785000
 20
33.004000
  1
0.80
  7
ROMANC
  0
LINE
  8
1
  6
CONTINUOUS
 10
285.747000
 20
33.042000
 11
285.504000
 21
33.042000
  0
LINE
  8
1
  6
CONTINUOUS
 10
286.059000
 20
33.042000
 11
286.304000
 21
33.042000
  0
LINE
  8
1
  6
CONTINUOUS
 10
285.466000
 20
33.023000
 11
285.542000
 21
33.061000
  0
LINE
  8
1
  6
CONTINUOUS
 10
286.342000
 20
33.061000
 11
286.266000
 21
33.023000
  0
LINE
  8
1
  6
CONTINUOUS
 10
286.304000
 20
33.319000
 11
286.304000
 21
33.004000
  0
LINE
  8
1
  6
CONTINUOUS
 10
286.464000
 20
33.357000
 11
288.104000
 21
33.357000
  0
TEXT
  8
1
  6
CONTINUOUS
 40
0.075000
 10
287.171000
 20
33.004000
  1
1.64
  7
ROMANC
  0
LINE
  8
1
  6
CONTINUOUS
 10
287.133000
 20
33.042000
 11
286.464000
 21
33.042000
  0
LINE
  8
1
  6
CONTINUOUS
 10
287.435000
 20
33.042000
 11
288.104000
 21
33.042000
  0
LINE
  8
1
  6
CONTINUOUS
 10
286.426000
 20
33.023000
 11
286.502000
 21
33.061000
  0
LINE
  8
1
  6
CONTINUOUS
 10
288.142000
 20
33.061000
 11
288.066000
 21
33.023000
  0
LINE
  8
1
  6
CONTINUOUS
 10
286.464000
 20
33.319000
 11
286.464000
 21
33.004000
  0
LINE
  8
1
  6
CONTINUOUS
 10
288.104000
 20
33.319000
 11
288.104000
 21
33.004000
  0
LINE
  8
1
  6
CONTINUOUS
 10
286.304000
 20
33.357000
 11
286.304000
 21
33.747000
  0
TEXT
  8
1
  6
CONTINUOUS
 40
0.075000
 10
286.697000
 20
32.770000
  1
0.16
  7
ROMANC
  0
LINE
  8
1
  6
CONTINUOUS
 10
286.154000
 20
32.807000
 11
286.304000
 21
32.807000
  0
LINE
  8
1
  6
CONTINUOUS
 10
286.659000
 20
32.807000
 11
286.464000
 21
32.807000
  0
LINE
  8
1
  6
CONTINUOUS
 10
286.342000
 20
32.826000
 11
286.266000
 21
32.788000
  0
LINE
  8
1
  6
CONTINUOUS
 10
286.426000
 20
32.788000
 11
286.502000
 21
32.826000
  0
LINE
  8
1
  6
CONTINUOUS
 10
286.304000
 20
33.319000
 11
286.304000
 21
32.769000
  0
LINE
  8
1
  6
CONTINUOUS
 10
286.464000
 20
33.319000
 11
286.464000
 21
32.769000
  0
LINE
  8
1
  6
CONTINUOUS
 10
285.504000
 20
33.747000
 11
285.504000
 21
33.357000
  0
LINE
  8
1
  6
CONTINUOUS
 10
284.604000
 20
33.747000
 11
285.504000
 21
33.747000
  0
TEXT
  8
1
  6
CONTINUOUS
 40
0.075000
 10
284.304000
 20
33.433000
  1
0.39
 50
90.000000
  7
ROMANC
  0
LINE
  8
1
  6
CONTINUOUS
 10
284.266000
 20
33.207000
 11
284.266000
 21
33.357000
  0
LINE
  8
1
  6
CONTINUOUS
 10
284.266000
 20
33.897000
 11
284.266000
 21
33.747000
  0
LINE
  8
1
  6
CONTINUOUS
 10
284.247000
 20
33.394000
 11
284.285000
 21
33.320000
  0
LINE
  8
1
  6
CONTINUOUS
 10
284.285000
 20
33.710000
 11
284.247000
 21
33.784000
  0
LINE
  8
1
  6
CONTINUOUS
 10
285.466000
 20
33.357000
 11
284.228000
 21
33.357000
  0
LINE
  8
1
  6
CONTINUOUS
 10
284.566000
 20
33.747000
 11
284.228000
 21
33.747000
  0
TEXT
  8
1
  6
CONTINUOUS
 40
0.075000
 10
284.304000
 20
35.187000
  1
3.10
 50
90.000000
  7
ROMANC
  0
LINE
  8
1
  6
CONTINUOUS
 10
284.266000
 20
35.149000
 11
284.266000
 21
33.747000
  0
LINE
  8
1
  6
CONTINUOUS
 10
284.266000
 20
35.444000
 11
284.266000
 21
36.847000
  0
LINE
  8
1
  6
CONTINUOUS
 10
284.285000
 20
33.710000
 11
284.247000
 21
33.784000
  0
LINE
  8
1
  6
CONTINUOUS
 10
284.247000
 20
36.884000
 11
284.285000
 21
36.810000
  0
LINE
  8
1
  6
CONTINUOUS
 10
284.566000
 20
36.847000
 11
284.228000
 21
36.847000
  0
LINE
  8
1
  6
CONTINUOUS
 10
288.104000
 20
33.357000
 11
288.104000
 21
36.847000
  0
TEXT
  8
1
  6
CONTINUOUS
 40
0.075000
 10
288.500000
 20
34.980000
  1
3.49
 50
90.000000
  7
ROMANC
  0
LINE
  8
1
  6
CONTINUOUS
 10
288.463000
 20
34.942000
 11
288.463000
 21
33.357000
  0
LINE
  8
1
  6
CONTINUOUS
 10
288.463000
 20
35.261000
 11
288.463000
 21
36.847000
  0
LINE
  8
1
  6
CONTINUOUS
 10
288.482000
 20
33.320000
 11
288.444000
 21
33.394000
  0
LINE
  8
1
  6
CONTINUOUS
 10
288.444000
 20
36.884000
 11
288.482000
 21
36.810000
  0
LINE
  8
1
  6
CONTINUOUS
 10
288.142000
 20
33.357000
 11
288.501000
 21
33.357000
  0
LINE
  8
1
  6
CONTINUOUS
 10
288.142000
 20
36.847000
 11
288.501000
 21
36.847000
  0
TEXT
  8
1
  6
CONTINUOUS
 40
0.075000
 10
286.235000
 20
37.130000
  1
3.50
  7
ROMANC
  0
LINE
  8
1
  6
CONTINUOUS
 10
286.197000
 20
37.167000
 11
284.604000
 21
37.167000
  0
LINE
  8
1
  6
CONTINUOUS
 10
286.509000
 20
37.167000
 11
288.104000
 21
37.167000
  0
LINE
  8
1
  6
CONTINUOUS
 10
284.566000
 20
37.148000
 11
284.642000
 21
37.186000
  0
LINE
  8
1
  6
CONTINUOUS
 10
288.142000
 20
37.186000
 11
288.066000
 21
37.148000
  0
LINE
  8
1
  6
CONTINUOUS
 10
284.604000
 20
36.885000
 11
284.604000
 21
37.205000
  0
LINE
  8
1
  6
CONTINUOUS
 10
288.104000
 20
36.885000
 11
288.104000
 21
37.205000
  0
LINE
  8
1
  6
CONTINUOUS
 10
288.114000
 20
36.857000
 11
284.594000
 21
36.857000
  0
LINE
  8
1
  6
CONTINUOUS
 10
288.124000
 20
36.867000
 11
284.584000
 21
36.867000
  0
LINE
  8
1
  6
CONTINUOUS
 10
284.594000
 20
36.857000
 11
284.594000
 21
33.737000
  0
LINE
  8
1
  6
CONTINUOUS
 10
284.584000
 20
36.867000
 11
284.584000
 21
33.727000
  0
LINE
  8
1
  6
CONTINUOUS
 10
284.594000
 20
33.737000
 11
285.494000
 21
33.737000
  0
LINE
  8
1
  6
CONTINUOUS
 10
284.584000
 20
33.727000
 11
285.484000
 21
33.727000
  0
LINE
  8
1
  6
CONTINUOUS
 10
285.494000
 20
33.737000
 11
285.494000
 21
33.347000
  0
LINE
  8
1
  6
CONTINUOUS
 10
285.484000
 20
33.727000
 11
285.484000
 21
33.337000
  0
LINE
  8
1
  6
CONTINUOUS
 10
285.494000
 20
33.347000
 11
286.304000
 21
33.347000
  0
LINE
  8
1
  6
CONTINUOUS
 10
285.484000
 20
33.337000
 11
286.304000
 21
33.337000
  0
LINE
  8
1
  6
CONTINUOUS
 10
286.464000
 20
33.347000
 11
288.114000
 21
33.347000
  0
LINE
  8
1
  6
CONTINUOUS
 10
286.464000
 20
33.337000
 11
288.124000
 21
33.337000
  0
LINE
  8
1
  6
CONTINUOUS
 10
288.114000
 20
33.347000
 11
288.114000
 21
36.857000
  0
LINE
  8
1
  6
CONTINUOUS
 10
288.124000
 20
33.337000
 11
288.124000
 21
36.867000
  0
LINE
  8
1
  6
CONTINUOUS
 10
286.304000
 20
33.347000
 11
286.464000
 21
33.347000
  0
LINE
  8
1
  6
CONTINUOUS
 10
286.304000
 20
33.337000
 11
286.464000
 21
33.337000
  0
TEXT
  8
0
  6
CONTINUOUS
 40
0.300000
 10
283.926000
 20
42.381000
  1
TIPUS   NT1186
  7
ROMANC
  0
ENDSEC
  0
EOF
