  0
SECTION
  2
HEADER
  9
$ACADVER
  1
AC1009
  9
$INSBASE
 10
68.13693
 20
-20.421989
 30
0.0
  9
$EXTMIN
 10
-3.35
 20
-34.354564
 30
0.0
  9
$EXTMAX
 10
478.171683
 20
96.450756
 30
0.0
  9
$LIMMIN
 10
0.0
 20
0.0
  9
$LIMMAX
 10
410.0
 20
287.0
  9
$ORTHOMODE
 70
     0
  9
$REGENMODE
 70
     1
  9
$FILLMODE
 70
     1
  9
$QTEXTMODE
 70
     0
  9
$MIRRTEXT
 70
     1
  9
$DRAGMODE
 70
     2
  9
$LTSCALE
 40
25.0
  9
$OSMODE
 70
    32
  9
$ATTMODE
 70
     1
  9
$TEXTSIZE
 40
0.1
  9
$TRACEWID
 40
1.0
  9
$TEXTSTYLE
  7
ROMANC
  9
$CLAYER
  8
0
  9
$CELTYPE
  6
BYLAYER
  9
$CECOLOR
 62
   256
  9
$DIMSCALE
 40
0.0
  9
$DIMASZ
 40
0.0
  9
$DIMEXO
 40
0.1
  9
$DIMDLI
 40
7.0
  9
$DIMRND
 40
0.0
  9
$DIMDLE
 40
0.0
  9
$DIMEXE
 40
1.8
  9
$DIMTP
 40
0.0
  9
$DIMTM
 40
0.0
  9
$DIMTXT
 40
0.03
  9
$DIMCEN
 40
1.5
  9
$DIMTSZ
 40
1.0
  9
$DIMTOL
 70
     0
  9
$DIMLIM
 70
     0
  9
$DIMTIH
 70
     0
  9
$DIMTOH
 70
     0
  9
$DIMSE1
 70
     0
  9
$DIMSE2
 70
     0
  9
$DIMTAD
 70
     0
  9
$DIMZIN
 70
     0
  9
$DIMBLK
  1

  9
$DIMASO
 70
     1
  9
$DIMSHO
 70
     0
  9
$DIMPOST
  1

  9
$DIMAPOST
  1

  9
$DIMALT
 70
     0
  9
$DIMALTD
 70
     2
  9
$DIMALTF
 40
25.4
  9
$DIMLFAC
 40
1.0
  9
$DIMTOFL
 70
     1
  9
$DIMTVP
 40
0.0
  9
$DIMTIX
 70
     1
  9
$DIMSOXD
 70
     0
  9
$DIMSAH
 70
     0
  9
$DIMBLK1
  1

  9
$DIMBLK2
  1

  9
$DIMSTYLE
  2
*UNNAMED
  9
$DIMCLRD
 70
     0
  9
$DIMCLRE
 70
     0
  9
$DIMCLRT
 70
     0
  9
$DIMTFAC
 40
116.666667
  9
$DIMGAP
 40
0.09
  9
$LUNITS
 70
     2
  9
$LUPREC
 70
     2
  9
$SKETCHINC
 40
1.0
  9
$FILLETRAD
 40
0.0
  9
$AUNITS
 70
     0
  9
$AUPREC
 70
     0
  9
$MENU
  1
acad
  9
$ELEVATION
 40
0.0
  9
$PELEVATION
 40
0.0
  9
$THICKNESS
 40
0.0
  9
$LIMCHECK
 70
     0
  9
$BLIPMODE
 70
     0
  9
$CHAMFERA
 40
0.0
  9
$CHAMFERB
 40
0.0
  9
$SKPOLY
 70
     0
  9
$TDCREATE
 40
2449967.650054629
  9
$TDUPDATE
 40
2450207.415900347
  9
$TDINDWG
 40
0.0001596065
  9
$TDUSRTIMER
 40
0.0001596065
  9
$USRTIMER
 70
     1
  9
$ANGBASE
 50
0.0
  9
$ANGDIR
 70
     0
  9
$PDMODE
 70
     0
  9
$PDSIZE
 40
0.0
  9
$PLINEWID
 40
0.0
  9
$COORDS
 70
     0
  9
$SPLFRAME
 70
     0
  9
$SPLINETYPE
 70
     6
  9
$SPLINESEGS
 70
     8
  9
$ATTDIA
 70
     0
  9
$ATTREQ
 70
     1
  9
$HANDLING
 70
     0
  9
$HANDSEED
  5
0
  9
$SURFTAB1
 70
     6
  9
$SURFTAB2
 70
     6
  9
$SURFTYPE
 70
     6
  9
$SURFU
 70
     6
  9
$SURFV
 70
     6
  9
$UCSNAME
  2

  9
$UCSORG
 10
0.0
 20
0.0
 30
0.0
  9
$UCSXDIR
 10
1.0
 20
0.0
 30
0.0
  9
$UCSYDIR
 10
0.0
 20
1.0
 30
0.0
  9
$PUCSNAME
  2

  9
$PUCSORG
 10
0.0
 20
0.0
 30
0.0
  9
$PUCSXDIR
 10
1.0
 20
0.0
 30
0.0
  9
$PUCSYDIR
 10
0.0
 20
1.0
 30
0.0
  9
$USERI1
 70
     0
  9
$USERI2
 70
     0
  9
$USERI3
 70
     0
  9
$USERI4
 70
     0
  9
$USERI5
 70
     0
  9
$USERR1
 40
0.0
  9
$USERR2
 40
0.0
  9
$USERR3
 40
0.0
  9
$USERR4
 40
0.0
  9
$USERR5
 40
0.0
  9
$WORLDVIEW
 70
     1
  9
$SHADEDGE
 70
     3
  9
$SHADEDIF
 70
    70
  9
$TILEMODE
 70
     1
  9
$MAXACTVP
 70
    16
  9
$PINSBASE
 10
0.0
 20
0.0
 30
0.0
  9
$PLIMCHECK
 70
     0
  9
$PEXTMIN
 10
1.000000E+20
 20
1.000000E+20
 30
1.000000E+20
  9
$PEXTMAX
 10
-1.000000E+20
 20
-1.000000E+20
 30
-1.000000E+20
  9
$PLIMMIN
 10
0.0
 20
0.0
  9
$PLIMMAX
 10
12.0
 20
9.0
  9
$UNITMODE
 70
     0
  9
$VISRETAIN
 70
     0
  9
$PLINEGEN
 70
     0
  9
$PSLTSCALE
 70
     0
  9
$TREEDEPTH
 70
  3020
  9
$DWGCODEPAGE
  3
iso8859-1
  0
ENDSEC
  0
SECTION
  2
TABLES
  0
TABLE
  2
VPORT
 70
     1
  0
VPORT
  2
*ACTIVE
 70
     0
 10
0.0
 20
0.0
 11
1.0
 21
1.0
 12
81.035358
 22
-13.280599
 13
0.0
 23
0.0
 14
1.0
 24
1.0
 15
10.0
 25
10.0
 16
0.0
 26
0.0
 36
1.0
 17
0.0
 27
0.0
 37
0.0
 40
16.908939
 41
1.65
 42
50.0
 43
0.0
 44
0.0
 50
0.0
 51
0.0
 71
     0
 72
   100
 73
     1
 74
     0
 75
     0
 76
     0
 77
     0
 78
     1
  0
ENDTAB
  0
TABLE
  2
LTYPE
 70
     1
  0
LTYPE
  2
CONTINUOUS
 70
    64
  3
Solid line
 72
    65
 73
     0
 40
0.0
  0
ENDTAB
  0
TABLE
  2
LAYER
 70
     1
  0
LAYER
  2
0
 70
    64
 62
     7
  6
CONTINUOUS
  0
ENDTAB
  0
TABLE
  2
STYLE
 70
     2
  0
STYLE
  2
STANDARD
 70
     0
 40
0.0
 41
1.0
 50
0.0
 71
     0
 42
0.1
  3
txt
  4

  0
STYLE
  2
ROMANC
 70
    64
 40
0.0
 41
1.0
 50
0.0
 71
     0
 42
0.1
  3
romanc
  4

  0
ENDTAB
  0
TABLE
  2
VIEW
 70
     0
  0
ENDTAB
  0
TABLE
  2
UCS
 70
     0
  0
ENDTAB
  0
TABLE
  2
APPID
 70
     1
  0
APPID
  2
ACAD
 70
    64
  0
ENDTAB
  0
TABLE
  2
DIMSTYLE
 70
     0
  0
ENDTAB
  0
ENDSEC
  0
SECTION
  2
BLOCKS
  0
ENDSEC
  0
SECTION
  2
ENTITIES
  0
LINE
  8
0
 10
78.63693
 20
-20.421989
 30
0.0
 11
78.63693
 21
-5.571989
 31
0.0
  0
LINE
  8
0
 10
68.13693
 20
-5.571989
 30
0.0
 11
68.13693
 21
-20.421989
 31
0.0
  0
LINE
  8
0
 10
68.13693
 20
-20.421989
 30
0.0
 11
78.63693
 21
-20.421989
 31
0.0
  0
TEXT
  8
0
 10
72.706154
 20
-14.266923
 30
0.0
 40
0.1
  1
0.9
  7
ROMANC
  0
TEXT
  8
0
 10
72.690032
 20
-16.892977
 30
0.0
 40
0.1
  1
0.65
  7
ROMANC
  0
LINE
  8
0
 10
72.768873
 20
-16.105923
 30
0.0
 11
72.830233
 21
-16.050144
 31
0.0
  0
LINE
  8
0
 10
72.768873
 20
-15.955923
 30
0.0
 11
72.830233
 21
-15.900144
 31
0.0
  0
LINE
  8
0
 10
73.251426
 20
-14.361352
 30
0.0
 11
72.351426
 21
-14.361352
 31
0.0
  0
LINE
  8
0
 10
72.801426
 20
-14.476331
 30
0.0
 11
73.931368
 21
-14.476331
 31
0.0
  0
LINE
  8
0
 10
73.126426
 20
-16.675482
 30
0.0
 11
72.476426
 21
-16.675482
 31
0.0
  0
LINE
  8
0
 10
73.126426
 20
-16.264153
 30
0.0
 11
72.476426
 21
-16.264153
 31
0.0
  0
TEXT
  8
0
 10
72.496577
 20
-16.393544
 30
0.0
 40
0.07
  1
0.25
  7
ROMANC
  0
LINE
  8
0
 10
72.443873
 20
-16.705074
 30
0.0
 11
72.505233
 21
-16.649295
 31
0.0
  0
LINE
  8
0
 10
72.443873
 20
-16.293745
 30
0.0
 11
72.505233
 21
-16.237966
 31
0.0
  0
LINE
  8
0
 10
72.693873
 20
-16.293745
 30
0.0
 11
72.755233
 21
-16.237966
 31
0.0
  0
LINE
  8
0
 10
72.318873
 20
-14.390944
 30
0.0
 11
72.380233
 21
-14.335165
 31
0.0
  0
LINE
  8
0
 10
72.351426
 20
-14.976331
 30
0.0
 11
72.351426
 21
-14.361352
 31
0.0
  0
LINE
  8
0
 10
72.476426
 20
-15.926331
 30
0.0
 11
72.476426
 21
-16.675482
 31
0.0
  0
LINE
  8
0
 10
72.726426
 20
-16.076331
 30
0.0
 11
72.726426
 21
-16.264153
 31
0.0
  0
LINE
  8
0
 10
72.726426
 20
-15.926331
 30
0.0
 11
72.801426
 21
-15.926331
 31
0.0
  0
LINE
  8
0
 10
72.801426
 20
-15.926331
 30
0.0
 11
72.801426
 21
-16.076331
 31
0.0
  0
TEXT
  8
0
 10
72.891548
 20
-16.401599
 30
0.0
 40
0.07
  1
0.4
  7
ROMANC
  0
TEXT
  8
0
 10
72.851245
 20
-16.022996
 30
0.0
 40
0.07
  1
0.15
  7
ROMANC
  0
TEXT
  8
0
 10
73.552519
 20
-14.814689
 30
0.0
 40
0.1
  1
0.5
  7
ROMANC
  0
TEXT
  8
0
 10
73.552519
 20
-15.491341
 30
0.0
 40
0.1
  1
0.8
  7
ROMANC
  0
TEXT
  8
0
 10
74.051659
 20
-15.209403
 30
0.0
 40
0.1
  1
1.6
  7
ROMANC
  0
LINE
  8
0
 10
73.093873
 20
-16.705074
 30
0.0
 11
73.155233
 21
-16.649295
 31
0.0
  0
LINE
  8
0
 10
73.093873
 20
-16.293745
 30
0.0
 11
73.155233
 21
-16.237966
 31
0.0
  0
LINE
  8
0
 10
73.426896
 20
-16.105923
 30
0.0
 11
73.488256
 21
-16.050144
 31
0.0
  0
LINE
  8
0
 10
73.898815
 20
-16.105923
 30
0.0
 11
73.960176
 21
-16.050144
 31
0.0
  0
LINE
  8
0
 10
73.426896
 20
-15.005923
 30
0.0
 11
73.488256
 21
-14.950144
 31
0.0
  0
LINE
  8
0
 10
73.218873
 20
-14.390944
 30
0.0
 11
73.280233
 21
-14.335165
 31
0.0
  0
LINE
  8
0
 10
73.426896
 20
-14.505923
 30
0.0
 11
73.488256
 21
-14.450144
 31
0.0
  0
LINE
  8
0
 10
73.898815
 20
-14.505923
 30
0.0
 11
73.960176
 21
-14.450144
 31
0.0
  0
LINE
  8
0
 10
73.251426
 20
-14.976331
 30
0.0
 11
73.251426
 21
-14.361352
 31
0.0
  0
LINE
  8
0
 10
73.251426
 20
-14.976331
 30
0.0
 11
73.459449
 21
-14.976331
 31
0.0
  0
LINE
  8
0
 10
73.126426
 20
-16.076331
 30
0.0
 11
73.931368
 21
-16.076331
 31
0.0
  0
LINE
  8
0
 10
73.126426
 20
-16.076331
 30
0.0
 11
73.126426
 21
-16.675482
 31
0.0
  0
LINE
  8
0
 10
73.931368
 20
-16.076331
 30
0.0
 11
73.931368
 21
-14.476331
 31
0.0
  0
LINE
  8
0
 10
73.459449
 20
-16.076331
 30
0.0
 11
73.459449
 21
-14.476331
 31
0.0
  0
LINE
  8
0
 10
78.63693
 20
-5.571989
 30
0.0
 11
68.13693
 21
-5.571989
 31
0.0
  0
TEXT
  8
0
 10
70.677169
 20
-9.733932
 30
0.0
 40
0.3
  1
P = 43.6 dm
  7
ROMANC
  0
TEXT
  8
0
 10
70.666903
 20
-8.461844
 30
0.0
 40
0.3
  1
ESCALA  1:50
  7
ROMANC
  0
TEXT
  8
0
 10
70.666903
 20
-7.97613
 30
0.0
 40
0.3
  1
TIPUS   NT116
  7
ROMANC
  0
TEXT
  8
0
 10
70.679997
 20
-9.060434
 30
0.0
 40
0.3
  1
S =  116 dm
  7
ROMANC
  0
TEXT
  8
0
 10
74.187828
 20
-8.754518
 30
0.0
 40
0.1
  1
2
  7
ROMANC
  0
LINE
  8
0
 10
72.726426
 20
-15.926331
 30
0.0
 11
72.726426
 21
-16.076331
 31
0.0
  0
LINE
  8
0
 10
72.726426
 20
-16.076331
 30
0.0
 11
73.126426
 21
-16.076331
 31
0.0
  0
LINE
  8
0
 10
73.126426
 20
-16.076331
 30
0.0
 11
73.251426
 21
-14.976331
 31
0.0
  0
ARC
  8
0
 10
72.696896
 20
-14.976331
 30
0.0
 40
0.55453
 50
0.0
 51
20.445063
  0
ARC
  8
0
 10
72.747923
 20
-14.957309
 30
0.0
 40
0.500072
 50
20.445063
 51
41.987212
  0
ARC
  8
0
 10
72.780509
 20
-14.927981
 30
0.0
 40
0.456232
 50
41.987212
 51
65.286349
  0
ARC
  8
0
 10
72.801426
 20
-14.882534
 30
0.0
 40
0.406202
 50
65.286349
 51
90.0
  0
ARC
  8
0
 10
72.801426
 20
-14.882534
 30
0.0
 40
0.406202
 50
90.0
 51
114.713651
  0
ARC
  8
0
 10
72.822342
 20
-14.927981
 30
0.0
 40
0.456232
 50
114.713651
 51
138.012788
  0
ARC
  8
0
 10
72.854929
 20
-14.957309
 30
0.0
 40
0.500072
 50
138.012788
 51
159.554937
  0
ARC
  8
0
 10
72.905956
 20
-14.976331
 30
0.0
 40
0.55453
 50
159.554937
 51
180.0
  0
LINE
  8
0
 10
72.351426
 20
-14.976331
 30
0.0
 11
72.476426
 21
-15.926331
 31
0.0
  0
LINE
  8
0
 10
72.476426
 20
-15.926331
 30
0.0
 11
72.726426
 21
-15.926331
 31
0.0
  0
LINE
  8
0
 10
72.736426
 20
-15.916331
 30
0.0
 11
72.736426
 21
-16.066331
 31
0.0
  0
LINE
  8
0
 10
72.736426
 20
-16.066331
 30
0.0
 11
73.117498
 21
-16.066331
 31
0.0
  0
LINE
  8
0
 10
73.117498
 20
-16.066331
 30
0.0
 11
73.241426
 21
-14.975768
 31
0.0
  0
ARC
  8
0
 10
72.696896
 20
-14.976331
 30
0.0
 40
0.54453
 50
0.059322
 51
20.445063
  0
ARC
  8
0
 10
72.747923
 20
-14.957309
 30
0.0
 40
0.490072
 50
20.445063
 51
41.987212
  0
ARC
  8
0
 10
72.780509
 20
-14.927981
 30
0.0
 40
0.446232
 50
41.987212
 51
65.286349
  0
ARC
  8
0
 10
72.801426
 20
-14.882534
 30
0.0
 40
0.396202
 50
65.286349
 51
90.0
  0
ARC
  8
0
 10
72.801426
 20
-14.882534
 30
0.0
 40
0.396202
 50
90.0
 51
114.713651
  0
ARC
  8
0
 10
72.822342
 20
-14.927981
 30
0.0
 40
0.446232
 50
114.713651
 51
138.012788
  0
ARC
  8
0
 10
72.854929
 20
-14.957309
 30
0.0
 40
0.490072
 50
138.012788
 51
159.554937
  0
ARC
  8
0
 10
72.905956
 20
-14.976331
 30
0.0
 40
0.54453
 50
159.554937
 51
179.931385
  0
LINE
  8
0
 10
72.361426
 20
-14.975679
 30
0.0
 11
72.485196
 21
-15.916331
 31
0.0
  0
LINE
  8
0
 10
72.485196
 20
-15.916331
 30
0.0
 11
72.736426
 21
-15.916331
 31
0.0
  0
LINE
  8
0
 10
72.716426
 20
-15.936331
 30
0.0
 11
72.716426
 21
-16.086331
 31
0.0
  0
LINE
  8
0
 10
72.716426
 20
-16.086331
 30
0.0
 11
73.135354
 21
-16.086331
 31
0.0
  0
LINE
  8
0
 10
73.135354
 20
-16.086331
 30
0.0
 11
73.261426
 21
-14.976331
 31
0.0
  0
ARC
  8
0
 10
72.696896
 20
-14.976331
 30
0.0
 40
0.56453
 50
360.0
 51
20.445063
  0
ARC
  8
0
 10
72.747923
 20
-14.957309
 30
0.0
 40
0.510072
 50
20.445063
 51
41.987212
  0
ARC
  8
0
 10
72.780509
 20
-14.927981
 30
0.0
 40
0.466232
 50
41.987212
 51
65.286349
  0
ARC
  8
0
 10
72.801426
 20
-14.882534
 30
0.0
 40
0.416202
 50
65.286349
 51
90.0
  0
ARC
  8
0
 10
72.801426
 20
-14.882534
 30
0.0
 40
0.416202
 50
90.0
 51
114.713651
  0
ARC
  8
0
 10
72.822342
 20
-14.927981
 30
0.0
 40
0.466232
 50
114.713651
 51
138.012788
  0
ARC
  8
0
 10
72.854929
 20
-14.957309
 30
0.0
 40
0.510072
 50
138.012788
 51
159.554937
  0
ARC
  8
0
 10
72.909616
 20
-14.976747
 30
0.0
 40
0.568105
 50
159.644618
 51
180.089681
  0
LINE
  8
0
 10
72.341511
 20
-14.977636
 30
0.0
 11
72.467656
 21
-15.936331
 31
0.0
  0
LINE
  8
0
 10
72.467656
 20
-15.936331
 30
0.0
 11
72.716426
 21
-15.936331
 31
0.0
  0
ENDSEC
  0
EOF
