  0
SECTION
  2
HEADER
  9
$ACADVER
  1
AC1009
  9
$INSBASE
 10
0.0
 20
0.0
 30
0.0
  9
$EXTMIN
 10
249.776434
 20
-27.532393
 30
0.0
  9
$EXTMAX
 10
307.005548
 20
44.88984
 30
0.0
  9
$LIMMIN
 10
0.0
 20
0.0
  9
$LIMMAX
 10
410.0
 20
287.0
  9
$ORTHOMODE
 70
     0
  9
$REGENMODE
 70
     1
  9
$FILLMODE
 70
     1
  9
$QTEXTMODE
 70
     0
  9
$MIRRTEXT
 70
     1
  9
$DRAGMODE
 70
     2
  9
$LTSCALE
 40
25.0
  9
$OSMODE
 70
    32
  9
$ATTMODE
 70
     1
  9
$TEXTSIZE
 40
0.1
  9
$TRACEWID
 40
1.0
  9
$TEXTSTYLE
  7
ROMANC
  9
$CLAYER
  8
0
  9
$CELTYPE
  6
BYLAYER
  9
$CECOLOR
 62
   256
  9
$DIMSCALE
 40
1.5
  9
$DIMASZ
 40
0.1
  9
$DIMEXO
 40
0.01
  9
$DIMDLI
 40
7.0
  9
$DIMRND
 40
0.0
  9
$DIMDLE
 40
0.0
  9
$DIMEXE
 40
0.01
  9
$DIMTP
 40
0.0
  9
$DIMTM
 40
0.0
  9
$DIMTXT
 40
0.05
  9
$DIMCEN
 40
0.1
  9
$DIMTSZ
 40
0.0
  9
$DIMTOL
 70
     0
  9
$DIMLIM
 70
     0
  9
$DIMTIH
 70
     0
  9
$DIMTOH
 70
     0
  9
$DIMSE1
 70
     0
  9
$DIMSE2
 70
     0
  9
$DIMTAD
 70
     1
  9
$DIMZIN
 70
     0
  9
$DIMBLK
  1

  9
$DIMASO
 70
     1
  9
$DIMSHO
 70
     0
  9
$DIMPOST
  1

  9
$DIMAPOST
  1

  9
$DIMALT
 70
     0
  9
$DIMALTD
 70
     2
  9
$DIMALTF
 40
25.4
  9
$DIMLFAC
 40
1.0
  9
$DIMTOFL
 70
     1
  9
$DIMTVP
 40
0.0
  9
$DIMTIX
 70
     1
  9
$DIMSOXD
 70
     0
  9
$DIMSAH
 70
     0
  9
$DIMBLK1
  1

  9
$DIMBLK2
  1

  9
$DIMSTYLE
  2
SILVIA
  9
$DIMCLRD
 70
     0
  9
$DIMCLRE
 70
     0
  9
$DIMCLRT
 70
     0
  9
$DIMTFAC
 40
70.0
  9
$DIMGAP
 40
0.09
  9
$LUNITS
 70
     2
  9
$LUPREC
 70
     2
  9
$SKETCHINC
 40
1.0
  9
$FILLETRAD
 40
0.0
  9
$AUNITS
 70
     0
  9
$AUPREC
 70
     0
  9
$MENU
  1
acad
  9
$ELEVATION
 40
0.0
  9
$PELEVATION
 40
0.0
  9
$THICKNESS
 40
0.0
  9
$LIMCHECK
 70
     0
  9
$BLIPMODE
 70
     0
  9
$CHAMFERA
 40
0.0
  9
$CHAMFERB
 40
0.0
  9
$SKPOLY
 70
     0
  9
$TDCREATE
 40
2450128.586680439
  9
$TDUPDATE
 40
2450207.415601620
  9
$TDINDWG
 40
0.0001780093
  9
$TDUSRTIMER
 40
0.0001780093
  9
$USRTIMER
 70
     1
  9
$ANGBASE
 50
0.0
  9
$ANGDIR
 70
     0
  9
$PDMODE
 70
     0
  9
$PDSIZE
 40
0.0
  9
$PLINEWID
 40
0.0
  9
$COORDS
 70
     2
  9
$SPLFRAME
 70
     0
  9
$SPLINETYPE
 70
     6
  9
$SPLINESEGS
 70
     8
  9
$ATTDIA
 70
     0
  9
$ATTREQ
 70
     1
  9
$HANDLING
 70
     0
  9
$HANDSEED
  5
0
  9
$SURFTAB1
 70
     6
  9
$SURFTAB2
 70
     6
  9
$SURFTYPE
 70
     6
  9
$SURFU
 70
     6
  9
$SURFV
 70
     6
  9
$UCSNAME
  2

  9
$UCSORG
 10
0.0
 20
0.0
 30
0.0
  9
$UCSXDIR
 10
1.0
 20
0.0
 30
0.0
  9
$UCSYDIR
 10
0.0
 20
1.0
 30
0.0
  9
$PUCSNAME
  2

  9
$PUCSORG
 10
0.0
 20
0.0
 30
0.0
  9
$PUCSXDIR
 10
1.0
 20
0.0
 30
0.0
  9
$PUCSYDIR
 10
0.0
 20
1.0
 30
0.0
  9
$USERI1
 70
     0
  9
$USERI2
 70
     0
  9
$USERI3
 70
     0
  9
$USERI4
 70
     0
  9
$USERI5
 70
     0
  9
$USERR1
 40
0.0
  9
$USERR2
 40
0.0
  9
$USERR3
 40
0.0
  9
$USERR4
 40
0.0
  9
$USERR5
 40
0.0
  9
$WORLDVIEW
 70
     1
  9
$SHADEDGE
 70
     3
  9
$SHADEDIF
 70
    70
  9
$TILEMODE
 70
     1
  9
$MAXACTVP
 70
    16
  9
$PINSBASE
 10
0.0
 20
0.0
 30
0.0
  9
$PLIMCHECK
 70
     0
  9
$PEXTMIN
 10
1.000000E+20
 20
1.000000E+20
 30
1.000000E+20
  9
$PEXTMAX
 10
-1.000000E+20
 20
-1.000000E+20
 30
-1.000000E+20
  9
$PLIMMIN
 10
0.0
 20
0.0
  9
$PLIMMAX
 10
12.0
 20
9.0
  9
$UNITMODE
 70
     0
  9
$VISRETAIN
 70
     0
  9
$PLINEGEN
 70
     0
  9
$PSLTSCALE
 70
     0
  9
$TREEDEPTH
 70
  3020
  9
$DWGCODEPAGE
  3
iso8859-1
  0
ENDSEC
  0
SECTION
  2
TABLES
  0
TABLE
  2
VPORT
 70
     1
  0
VPORT
  2
*ACTIVE
 70
     0
 10
0.0
 20
0.0
 11
1.0
 21
1.0
 12
302.776047
 22
34.481267
 13
0.0
 23
0.0
 14
1.0
 24
1.0
 15
10.0
 25
10.0
 16
0.0
 26
0.0
 36
1.0
 17
0.0
 27
0.0
 37
0.0
 40
27.978185
 41
1.65
 42
50.0
 43
0.0
 44
0.0
 50
0.0
 51
0.0
 71
     0
 72
   100
 73
     1
 74
     0
 75
     0
 76
     0
 77
     0
 78
     1
  0
ENDTAB
  0
TABLE
  2
LTYPE
 70
     1
  0
LTYPE
  2
CONTINUOUS
 70
    64
  3
Solid line
 72
    65
 73
     0
 40
0.0
  0
ENDTAB
  0
TABLE
  2
LAYER
 70
     2
  0
LAYER
  2
0
 70
    64
 62
     7
  6
CONTINUOUS
  0
LAYER
  2
DEFPOINTS
 70
    64
 62
     7
  6
CONTINUOUS
  0
ENDTAB
  0
TABLE
  2
STYLE
 70
     2
  0
STYLE
  2
STANDARD
 70
     0
 40
0.0
 41
1.0
 50
0.0
 71
     0
 42
0.1
  3
txt
  4

  0
STYLE
  2
ROMANC
 70
    64
 40
0.0
 41
1.0
 50
0.0
 71
     0
 42
0.1
  3
romanc
  4

  0
ENDTAB
  0
TABLE
  2
VIEW
 70
     0
  0
ENDTAB
  0
TABLE
  2
UCS
 70
     0
  0
ENDTAB
  0
TABLE
  2
APPID
 70
     1
  0
APPID
  2
ACAD
 70
    64
  0
ENDTAB
  0
TABLE
  2
DIMSTYLE
 70
     1
  0
DIMSTYLE
  2
SILVIA
 70
    64
  3

  4

  5

  6

  7

 40
1.5
 41
0.1
 42
0.01
 43
7.0
 44
0.01
 45
0.0
 46
0.0
 47
0.0
 48
0.0
140
0.05
141
0.1
142
0.0
143
25.4
144
1.0
145
0.0
146
70.0
147
0.09
 71
     0
 72
     0
 73
     0
 74
     0
 75
     0
 76
     0
 77
     1
 78
     0
170
     0
171
     2
172
     1
173
     0
174
     1
175
     0
176
     0
177
     0
178
     0
  0
ENDTAB
  0
ENDSEC
  0
SECTION
  2
BLOCKS
  0
BLOCK
  8
0
  2
*D0
 70
    65
 10
0.0
 20
0.0
 30
0.0
  3
*D
  0
LINE
  8
0
  6
BYBLOCK
 62
     0
 10
299.111907
 20
33.712261
 30
0.0
 11
299.111907
 21
32.929249
 31
0.0
  0
LINE
  8
0
  6
BYBLOCK
 62
     0
 10
299.931907
 20
33.712261
 30
0.0
 11
299.931907
 21
32.929249
 31
0.0
  0
LINE
  8
0
  6
BYBLOCK
 62
     0
 10
299.261907
 20
32.944249
 30
0.0
 11
299.781907
 21
32.944249
 31
0.0
  0
SOLID
  8
0
  6
BYBLOCK
 62
     0
 10
299.261907
 20
32.969249
 30
0.0
 11
299.261907
 21
32.919249
 31
0.0
 12
299.111907
 22
32.944249
 32
0.0
 13
299.111907
 23
32.944249
 33
0.0
  0
SOLID
  8
0
  6
BYBLOCK
 62
     0
 10
299.781907
 20
32.969249
 30
0.0
 11
299.781907
 21
32.919249
 31
0.0
 12
299.931907
 22
32.944249
 32
0.0
 13
299.931907
 23
32.944249
 33
0.0
  0
TEXT
  8
0
  6
BYBLOCK
 62
     0
 10
299.396907
 20
32.981749
 30
0.0
 40
0.075
  1
0.80
  7
ROMANC
 72
     1
 11
299.521907
 21
33.019249
 31
0.0
 73
     2
  0
POINT
  8
DEFPOINTS
  6
BYBLOCK
 62
     0
 10
299.111907
 20
33.727261
 30
0.0
  0
POINT
  8
DEFPOINTS
  6
BYBLOCK
 62
     0
 10
299.931907
 20
33.727261
 30
0.0
  0
POINT
  8
DEFPOINTS
  6
BYBLOCK
 62
     0
 10
299.931907
 20
32.944249
 30
0.0
  0
ENDBLK
  8
0
  0
BLOCK
  8
0
  2
*D1
 70
    65
 10
0.0
 20
0.0
 30
0.0
  3
*D
  0
LINE
  8
0
  6
BYBLOCK
 62
     0
 10
299.309775
 20
33.712261
 30
0.0
 11
299.309775
 21
33.169825
 31
0.0
  0
LINE
  8
0
  6
BYBLOCK
 62
     0
 10
299.721907
 20
33.722261
 30
0.0
 11
299.721907
 21
33.169825
 31
0.0
  0
LINE
  8
0
  6
BYBLOCK
 62
     0
 10
299.159775
 20
33.184825
 30
0.0
 11
299.009775
 21
33.184825
 31
0.0
  0
LINE
  8
0
  6
BYBLOCK
 62
     0
 10
299.871907
 20
33.184825
 30
0.0
 11
300.021907
 21
33.184825
 31
0.0
  0
SOLID
  8
0
  6
BYBLOCK
 62
     0
 10
299.159775
 20
33.209825
 30
0.0
 11
299.159775
 21
33.159825
 31
0.0
 12
299.309775
 22
33.184825
 32
0.0
 13
299.309775
 23
33.184825
 33
0.0
  0
SOLID
  8
0
  6
BYBLOCK
 62
     0
 10
299.871907
 20
33.209825
 30
0.0
 11
299.871907
 21
33.159825
 31
0.0
 12
299.721907
 22
33.184825
 32
0.0
 13
299.721907
 23
33.184825
 33
0.0
  0
LINE
  8
0
  6
BYBLOCK
 62
     0
 10
299.309775
 20
33.184825
 30
0.0
 11
299.721907
 21
33.184825
 31
0.0
  0
TEXT
  8
0
  6
BYBLOCK
 62
     0
 10
299.390841
 20
33.222325
 30
0.0
 40
0.075
  1
0.40
  7
ROMANC
 72
     1
 11
299.515841
 21
33.259825
 31
0.0
 73
     2
  0
POINT
  8
DEFPOINTS
  6
BYBLOCK
 62
     0
 10
299.309775
 20
33.727261
 30
0.0
  0
POINT
  8
DEFPOINTS
  6
BYBLOCK
 62
     0
 10
299.721907
 20
33.737261
 30
0.0
  0
POINT
  8
DEFPOINTS
  6
BYBLOCK
 62
     0
 10
299.721907
 20
33.184825
 30
0.0
  0
ENDBLK
  8
0
  0
BLOCK
  8
0
  2
*D2
 70
    65
 10
0.0
 20
0.0
 30
0.0
  3
*D
  0
LINE
  8
0
  6
BYBLOCK
 62
     0
 10
299.946907
 20
35.014712
 30
0.0
 11
300.210643
 21
35.014712
 31
0.0
  0
LINE
  8
0
  6
BYBLOCK
 62
     0
 10
299.946907
 20
33.727261
 30
0.0
 11
300.210643
 21
33.727261
 31
0.0
  0
LINE
  8
0
  6
BYBLOCK
 62
     0
 10
300.195643
 20
34.864712
 30
0.0
 11
300.195643
 21
33.877261
 31
0.0
  0
SOLID
  8
0
  6
BYBLOCK
 62
     0
 10
300.170643
 20
34.864712
 30
0.0
 11
300.220643
 21
34.864712
 31
0.0
 12
300.195643
 22
35.014712
 32
0.0
 13
300.195643
 23
35.014712
 33
0.0
  0
SOLID
  8
0
  6
BYBLOCK
 62
     0
 10
300.170643
 20
33.877261
 30
0.0
 11
300.220643
 21
33.877261
 31
0.0
 12
300.195643
 22
33.727261
 32
0.0
 13
300.195643
 23
33.727261
 33
0.0
  0
TEXT
  8
0
  6
BYBLOCK
 62
     0
 10
300.158143
 20
34.240629
 30
0.0
 40
0.075
  1
1.27
 50
90.0
  7
ROMANC
 72
     1
 11
300.120643
 21
34.370986
 31
0.0
 73
     2
  0
POINT
  8
DEFPOINTS
  6
BYBLOCK
 62
     0
 10
299.931907
 20
35.014712
 30
0.0
  0
POINT
  8
DEFPOINTS
  6
BYBLOCK
 62
     0
 10
299.931907
 20
33.727261
 30
0.0
  0
POINT
  8
DEFPOINTS
  6
BYBLOCK
 62
     0
 10
300.195643
 20
33.727261
 30
0.0
  0
ENDBLK
  8
0
  0
BLOCK
  8
0
  2
*D3
 70
    65
 10
0.0
 20
0.0
 30
0.0
  3
*D
  0
LINE
  8
0
  6
BYBLOCK
 62
     0
 10
299.946907
 20
35.014712
 30
0.0
 11
300.210643
 21
35.014712
 31
0.0
  0
LINE
  8
0
  6
BYBLOCK
 62
     0
 10
299.471907
 20
35.107261
 30
0.0
 11
300.210643
 21
35.107261
 31
0.0
  0
LINE
  8
0
  6
BYBLOCK
 62
     0
 10
300.195643
 20
34.864712
 30
0.0
 11
300.195643
 21
34.714712
 31
0.0
  0
LINE
  8
0
  6
BYBLOCK
 62
     0
 10
300.195643
 20
35.257261
 30
0.0
 11
300.195643
 21
35.407261
 31
0.0
  0
SOLID
  8
0
  6
BYBLOCK
 62
     0
 10
300.170643
 20
34.864712
 30
0.0
 11
300.220643
 21
34.864712
 31
0.0
 12
300.195643
 22
35.014712
 32
0.0
 13
300.195643
 23
35.014712
 33
0.0
  0
SOLID
  8
0
  6
BYBLOCK
 62
     0
 10
300.170643
 20
35.257261
 30
0.0
 11
300.220643
 21
35.257261
 31
0.0
 12
300.195643
 22
35.107261
 32
0.0
 13
300.195643
 23
35.107261
 33
0.0
  0
LINE
  8
0
  6
BYBLOCK
 62
     0
 10
300.195643
 20
35.014712
 30
0.0
 11
300.195643
 21
35.107261
 31
0.0
  0
TEXT
  8
0
  6
BYBLOCK
 62
     0
 10
300.158143
 20
34.935986
 30
0.0
 40
0.075
  1
0.10
 50
90.0
  7
ROMANC
 72
     1
 11
300.120643
 21
35.060986
 31
0.0
 73
     2
  0
POINT
  8
DEFPOINTS
  6
BYBLOCK
 62
     0
 10
299.931907
 20
35.014712
 30
0.0
  0
POINT
  8
DEFPOINTS
  6
BYBLOCK
 62
     0
 10
299.456907
 20
35.107261
 30
0.0
  0
POINT
  8
DEFPOINTS
  6
BYBLOCK
 62
     0
 10
300.195643
 20
35.107261
 30
0.0
  0
ENDBLK
  8
0
  0
BLOCK
  8
0
  2
*D4
 70
    65
 10
0.0
 20
0.0
 30
0.0
  3
*D
  0
LINE
  8
0
  6
BYBLOCK
 62
     0
 10
299.456907
 20
35.122261
 30
0.0
 11
299.456907
 21
35.356106
 31
0.0
  0
LINE
  8
0
  6
BYBLOCK
 62
     0
 10
299.586907
 20
35.122261
 30
0.0
 11
299.586907
 21
35.356106
 31
0.0
  0
LINE
  8
0
  6
BYBLOCK
 62
     0
 10
299.306907
 20
35.341106
 30
0.0
 11
299.156907
 21
35.341106
 31
0.0
  0
LINE
  8
0
  6
BYBLOCK
 62
     0
 10
299.736907
 20
35.341106
 30
0.0
 11
299.886907
 21
35.341106
 31
0.0
  0
SOLID
  8
0
  6
BYBLOCK
 62
     0
 10
299.306907
 20
35.366106
 30
0.0
 11
299.306907
 21
35.316106
 31
0.0
 12
299.456907
 22
35.341106
 32
0.0
 13
299.456907
 23
35.341106
 33
0.0
  0
SOLID
  8
0
  6
BYBLOCK
 62
     0
 10
299.736907
 20
35.366106
 30
0.0
 11
299.736907
 21
35.316106
 31
0.0
 12
299.586907
 22
35.341106
 32
0.0
 13
299.586907
 23
35.341106
 33
0.0
  0
LINE
  8
0
  6
BYBLOCK
 62
     0
 10
299.456907
 20
35.341106
 30
0.0
 11
299.586907
 21
35.341106
 31
0.0
  0
TEXT
  8
0
  6
BYBLOCK
 62
     0
 10
299.396907
 20
35.378606
 30
0.0
 40
0.075
  1
0.13
  7
ROMANC
 72
     1
 11
299.521907
 21
35.416106
 31
0.0
 73
     2
  0
POINT
  8
DEFPOINTS
  6
BYBLOCK
 62
     0
 10
299.456907
 20
35.107261
 30
0.0
  0
POINT
  8
DEFPOINTS
  6
BYBLOCK
 62
     0
 10
299.586907
 20
35.107261
 30
0.0
  0
POINT
  8
DEFPOINTS
  6
BYBLOCK
 62
     0
 10
299.586907
 20
35.341106
 30
0.0
  0
ENDBLK
  8
0
  0
BLOCK
  8
0
  2
*D5
 70
    65
 10
0.0
 20
0.0
 30
0.0
  3
*D
  0
LINE
  8
0
  6
BYBLOCK
 62
     0
 10
299.946907
 20
33.727261
 30
0.0
 11
300.210643
 21
33.727261
 31
0.0
  0
LINE
  8
0
  6
BYBLOCK
 62
     0
 10
299.524136
 20
33.487774
 30
0.0
 11
300.210643
 21
33.487774
 31
0.0
  0
LINE
  8
0
  6
BYBLOCK
 62
     0
 10
300.195643
 20
33.877261
 30
0.0
 11
300.195643
 21
34.027261
 31
0.0
  0
LINE
  8
0
  6
BYBLOCK
 62
     0
 10
300.195643
 20
33.337774
 30
0.0
 11
300.195643
 21
33.187774
 31
0.0
  0
SOLID
  8
0
  6
BYBLOCK
 62
     0
 10
300.170643
 20
33.877261
 30
0.0
 11
300.220643
 21
33.877261
 31
0.0
 12
300.195643
 22
33.727261
 32
0.0
 13
300.195643
 23
33.727261
 33
0.0
  0
SOLID
  8
0
  6
BYBLOCK
 62
     0
 10
300.170643
 20
33.337774
 30
0.0
 11
300.220643
 21
33.337774
 31
0.0
 12
300.195643
 22
33.487774
 32
0.0
 13
300.195643
 23
33.487774
 33
0.0
  0
LINE
  8
0
  6
BYBLOCK
 62
     0
 10
300.195643
 20
33.727261
 30
0.0
 11
300.195643
 21
33.487774
 31
0.0
  0
TEXT
  8
0
  6
BYBLOCK
 62
     0
 10
300.158143
 20
33.482517
 30
0.0
 40
0.075
  1
0.36
 50
90.0
  7
ROMANC
 72
     1
 11
300.120643
 21
33.607517
 31
0.0
 73
     2
  0
POINT
  8
DEFPOINTS
  6
BYBLOCK
 62
     0
 10
299.931907
 20
33.727261
 30
0.0
  0
POINT
  8
DEFPOINTS
  6
BYBLOCK
 62
     0
 10
299.509136
 20
33.487774
 30
0.0
  0
POINT
  8
DEFPOINTS
  6
BYBLOCK
 62
     0
 10
300.195643
 20
33.487774
 30
0.0
  0
ENDBLK
  8
0
  0
ENDSEC
  0
SECTION
  2
ENTITIES
  0
LINE
  8
0
 10
307.005548
 20
29.897444
 30
0.0
 11
307.005548
 21
44.747444
 31
0.0
  0
LINE
  8
0
 10
296.505548
 20
44.747444
 30
0.0
 11
296.505548
 21
29.897444
 31
0.0
  0
LINE
  8
0
 10
296.505548
 20
29.897444
 30
0.0
 11
307.005548
 21
29.897444
 31
0.0
  0
TEXT
  8
0
 10
298.997598
 20
40.56142
 30
0.0
 40
0.3
  1
P = 45 dm
  7
ROMANC
  0
TEXT
  8
0
 10
299.048614
 20
41.258999
 30
0.0
 40
0.3
  1
S=  115 dm
  7
ROMANC
  0
TEXT
  8
0
 10
299.03552
 20
42.343303
 30
0.0
 40
0.3
  1
TIPUS   NT115A
  7
ROMANC
  0
LINE
  8
0
 10
307.005548
 20
44.747444
 30
0.0
 11
296.505548
 21
44.747444
 31
0.0
  0
TEXT
  8
0
 10
299.03552
 20
41.857589
 30
0.0
 40
0.3
  1
ESCALA  1:50
  7
ROMANC
  0
TEXT
  8
0
 10
302.232024
 20
41.564915
 30
0.0
 40
0.1
  1
2
  7
ROMANC
  0
LINE
  8
0
  6
BYBLOCK
 62
     0
 10
302.35414
 20
35.152901
 30
0.0
 11
302.617876
 21
35.152901
 31
0.0
  0
LINE
  8
0
  6
BYBLOCK
 62
     0
 10
301.931369
 20
34.913414
 30
0.0
 11
302.617876
 21
34.913414
 31
0.0
  0
LINE
  8
0
  6
BYBLOCK
 62
     0
 10
302.602876
 20
35.302901
 30
0.0
 11
302.602876
 21
35.452901
 31
0.0
  0
LINE
  8
0
  6
BYBLOCK
 62
     0
 10
302.602876
 20
34.763414
 30
0.0
 11
302.602876
 21
34.613414
 31
0.0
  0
SOLID
  8
0
  6
BYBLOCK
 62
     0
 10
302.577876
 20
35.302901
 30
0.0
 11
302.627876
 21
35.302901
 31
0.0
 12
302.602876
 22
35.152901
 32
0.0
 13
302.602876
 23
35.152901
 33
0.0
  0
SOLID
  8
0
  6
BYBLOCK
 62
     0
 10
302.577876
 20
34.763414
 30
0.0
 11
302.627876
 21
34.763414
 31
0.0
 12
302.602876
 22
34.913414
 32
0.0
 13
302.602876
 23
34.913414
 33
0.0
  0
LINE
  8
0
  6
BYBLOCK
 62
     0
 10
302.602876
 20
35.152901
 30
0.0
 11
302.602876
 21
34.913414
 31
0.0
  0
TEXT
  8
0
  6
BYBLOCK
 62
     0
 10
302.565376
 20
34.908157
 30
0.0
 40
0.075
  1
0.36
 50
90.0
  7
ROMANC
 72
     1
 11
302.527876
 21
35.033157
 31
0.0
 73
     2
  0
POINT
  8
DEFPOINTS
  6
BYBLOCK
 62
     0
 10
302.33914
 20
35.152901
 30
0.0
  0
POINT
  8
DEFPOINTS
  6
BYBLOCK
 62
     0
 10
301.916369
 20
34.913414
 30
0.0
  0
POINT
  8
DEFPOINTS
  6
BYBLOCK
 62
     0
 10
302.602876
 20
34.913414
 30
0.0
  0
LINE
  8
0
  6
BYBLOCK
 62
     0
 10
301.86414
 20
36.547901
 30
0.0
 11
301.86414
 21
36.781746
 31
0.0
  0
LINE
  8
0
  6
BYBLOCK
 62
     0
 10
301.99414
 20
36.547901
 30
0.0
 11
301.99414
 21
36.781746
 31
0.0
  0
LINE
  8
0
  6
BYBLOCK
 62
     0
 10
301.71414
 20
36.766746
 30
0.0
 11
301.56414
 21
36.766746
 31
0.0
  0
LINE
  8
0
  6
BYBLOCK
 62
     0
 10
302.14414
 20
36.766746
 30
0.0
 11
302.29414
 21
36.766746
 31
0.0
  0
SOLID
  8
0
  6
BYBLOCK
 62
     0
 10
301.71414
 20
36.791746
 30
0.0
 11
301.71414
 21
36.741746
 31
0.0
 12
301.86414
 22
36.766746
 32
0.0
 13
301.86414
 23
36.766746
 33
0.0
  0
SOLID
  8
0
  6
BYBLOCK
 62
     0
 10
302.14414
 20
36.791746
 30
0.0
 11
302.14414
 21
36.741746
 31
0.0
 12
301.99414
 22
36.766746
 32
0.0
 13
301.99414
 23
36.766746
 33
0.0
  0
LINE
  8
0
  6
BYBLOCK
 62
     0
 10
301.86414
 20
36.766746
 30
0.0
 11
301.99414
 21
36.766746
 31
0.0
  0
TEXT
  8
0
  6
BYBLOCK
 62
     0
 10
301.80414
 20
36.804246
 30
0.0
 40
0.075
  1
0.13
  7
ROMANC
 72
     1
 11
301.92914
 21
36.841746
 31
0.0
 73
     2
  0
POINT
  8
DEFPOINTS
  6
BYBLOCK
 62
     0
 10
301.86414
 20
36.532901
 30
0.0
  0
POINT
  8
DEFPOINTS
  6
BYBLOCK
 62
     0
 10
301.99414
 20
36.532901
 30
0.0
  0
POINT
  8
DEFPOINTS
  6
BYBLOCK
 62
     0
 10
301.99414
 20
36.766746
 30
0.0
  0
LINE
  8
0
  6
BYBLOCK
 62
     0
 10
302.35414
 20
36.440352
 30
0.0
 11
302.617876
 21
36.440352
 31
0.0
  0
LINE
  8
0
  6
BYBLOCK
 62
     0
 10
301.87914
 20
36.532901
 30
0.0
 11
302.617876
 21
36.532901
 31
0.0
  0
LINE
  8
0
  6
BYBLOCK
 62
     0
 10
302.602876
 20
36.290352
 30
0.0
 11
302.602876
 21
36.140352
 31
0.0
  0
LINE
  8
0
  6
BYBLOCK
 62
     0
 10
302.602876
 20
36.682901
 30
0.0
 11
302.602876
 21
36.832901
 31
0.0
  0
SOLID
  8
0
  6
BYBLOCK
 62
     0
 10
302.577876
 20
36.290352
 30
0.0
 11
302.627876
 21
36.290352
 31
0.0
 12
302.602876
 22
36.440352
 32
0.0
 13
302.602876
 23
36.440352
 33
0.0
  0
SOLID
  8
0
  6
BYBLOCK
 62
     0
 10
302.577876
 20
36.682901
 30
0.0
 11
302.627876
 21
36.682901
 31
0.0
 12
302.602876
 22
36.532901
 32
0.0
 13
302.602876
 23
36.532901
 33
0.0
  0
LINE
  8
0
  6
BYBLOCK
 62
     0
 10
302.602876
 20
36.440352
 30
0.0
 11
302.602876
 21
36.532901
 31
0.0
  0
TEXT
  8
0
  6
BYBLOCK
 62
     0
 10
302.565376
 20
36.361626
 30
0.0
 40
0.075
  1
0.10
 50
90.0
  7
ROMANC
 72
     1
 11
302.527876
 21
36.486626
 31
0.0
 73
     2
  0
POINT
  8
DEFPOINTS
  6
BYBLOCK
 62
     0
 10
302.33914
 20
36.440352
 30
0.0
  0
POINT
  8
DEFPOINTS
  6
BYBLOCK
 62
     0
 10
301.86414
 20
36.532901
 30
0.0
  0
POINT
  8
DEFPOINTS
  6
BYBLOCK
 62
     0
 10
302.602876
 20
36.532901
 30
0.0
  0
LINE
  8
0
  6
BYBLOCK
 62
     0
 10
302.35414
 20
36.440352
 30
0.0
 11
302.617876
 21
36.440352
 31
0.0
  0
LINE
  8
0
  6
BYBLOCK
 62
     0
 10
302.35414
 20
35.152901
 30
0.0
 11
302.617876
 21
35.152901
 31
0.0
  0
LINE
  8
0
  6
BYBLOCK
 62
     0
 10
302.602876
 20
36.290352
 30
0.0
 11
302.602876
 21
35.302901
 31
0.0
  0
SOLID
  8
0
  6
BYBLOCK
 62
     0
 10
302.577876
 20
36.290352
 30
0.0
 11
302.627876
 21
36.290352
 31
0.0
 12
302.602876
 22
36.440352
 32
0.0
 13
302.602876
 23
36.440352
 33
0.0
  0
SOLID
  8
0
  6
BYBLOCK
 62
     0
 10
302.577876
 20
35.302901
 30
0.0
 11
302.627876
 21
35.302901
 31
0.0
 12
302.602876
 22
35.152901
 32
0.0
 13
302.602876
 23
35.152901
 33
0.0
  0
TEXT
  8
0
  6
BYBLOCK
 62
     0
 10
302.565376
 20
35.666269
 30
0.0
 40
0.075
  1
1.27
 50
90.0
  7
ROMANC
 72
     1
 11
302.527876
 21
35.796626
 31
0.0
 73
     2
  0
POINT
  8
DEFPOINTS
  6
BYBLOCK
 62
     0
 10
302.33914
 20
36.440352
 30
0.0
  0
POINT
  8
DEFPOINTS
  6
BYBLOCK
 62
     0
 10
302.33914
 20
35.152901
 30
0.0
  0
POINT
  8
DEFPOINTS
  6
BYBLOCK
 62
     0
 10
302.602876
 20
35.152901
 30
0.0
  0
LINE
  8
0
  6
BYBLOCK
 62
     0
 10
301.717008
 20
35.137901
 30
0.0
 11
301.717008
 21
34.595465
 31
0.0
  0
LINE
  8
0
  6
BYBLOCK
 62
     0
 10
302.12914
 20
35.147901
 30
0.0
 11
302.12914
 21
34.595465
 31
0.0
  0
LINE
  8
0
  6
BYBLOCK
 62
     0
 10
301.567008
 20
34.610465
 30
0.0
 11
301.417008
 21
34.610465
 31
0.0
  0
LINE
  8
0
  6
BYBLOCK
 62
     0
 10
302.27914
 20
34.610465
 30
0.0
 11
302.42914
 21
34.610465
 31
0.0
  0
SOLID
  8
0
  6
BYBLOCK
 62
     0
 10
301.567008
 20
34.635465
 30
0.0
 11
301.567008
 21
34.585465
 31
0.0
 12
301.717008
 22
34.610465
 32
0.0
 13
301.717008
 23
34.610465
 33
0.0
  0
SOLID
  8
0
  6
BYBLOCK
 62
     0
 10
302.27914
 20
34.635465
 30
0.0
 11
302.27914
 21
34.585465
 31
0.0
 12
302.12914
 22
34.610465
 32
0.0
 13
302.12914
 23
34.610465
 33
0.0
  0
LINE
  8
0
  6
BYBLOCK
 62
     0
 10
301.717008
 20
34.610465
 30
0.0
 11
302.12914
 21
34.610465
 31
0.0
  0
TEXT
  8
0
  6
BYBLOCK
 62
     0
 10
301.798074
 20
34.647965
 30
0.0
 40
0.075
  1
0.40
  7
ROMANC
 72
     1
 11
301.923074
 21
34.685465
 31
0.0
 73
     2
  0
POINT
  8
DEFPOINTS
  6
BYBLOCK
 62
     0
 10
301.717008
 20
35.152901
 30
0.0
  0
POINT
  8
DEFPOINTS
  6
BYBLOCK
 62
     0
 10
302.12914
 20
35.162901
 30
0.0
  0
POINT
  8
DEFPOINTS
  6
BYBLOCK
 62
     0
 10
302.12914
 20
34.610465
 30
0.0
  0
LINE
  8
0
  6
BYBLOCK
 62
     0
 10
301.51914
 20
35.137901
 30
0.0
 11
301.51914
 21
34.354889
 31
0.0
  0
LINE
  8
0
  6
BYBLOCK
 62
     0
 10
302.33914
 20
35.137901
 30
0.0
 11
302.33914
 21
34.354889
 31
0.0
  0
LINE
  8
0
  6
BYBLOCK
 62
     0
 10
301.66914
 20
34.369889
 30
0.0
 11
302.18914
 21
34.369889
 31
0.0
  0
SOLID
  8
0
  6
BYBLOCK
 62
     0
 10
301.66914
 20
34.394889
 30
0.0
 11
301.66914
 21
34.344889
 31
0.0
 12
301.51914
 22
34.369889
 32
0.0
 13
301.51914
 23
34.369889
 33
0.0
  0
SOLID
  8
0
  6
BYBLOCK
 62
     0
 10
302.18914
 20
34.394889
 30
0.0
 11
302.18914
 21
34.344889
 31
0.0
 12
302.33914
 22
34.369889
 32
0.0
 13
302.33914
 23
34.369889
 33
0.0
  0
TEXT
  8
0
  6
BYBLOCK
 62
     0
 10
301.80414
 20
34.407389
 30
0.0
 40
0.075
  1
0.80
  7
ROMANC
 72
     1
 11
301.92914
 21
34.444889
 31
0.0
 73
     2
  0
POINT
  8
DEFPOINTS
  6
BYBLOCK
 62
     0
 10
301.51914
 20
35.152901
 30
0.0
  0
POINT
  8
DEFPOINTS
  6
BYBLOCK
 62
     0
 10
302.33914
 20
35.152901
 30
0.0
  0
POINT
  8
DEFPOINTS
  6
BYBLOCK
 62
     0
 10
302.33914
 20
34.369889
 30
0.0
  0
LINE
  8
0
 10
301.717008
 20
35.152901
 30
0.0
 11
301.51914
 21
35.152901
 31
0.0
  0
LINE
  8
0
 10
301.51914
 20
35.152901
 30
0.0
 11
301.51914
 21
36.440352
 31
0.0
  0
LINE
  8
0
 10
301.51914
 20
36.440352
 30
0.0
 11
301.862679
 21
36.542901
 31
0.0
  0
LINE
  8
0
 10
301.862679
 20
36.542901
 30
0.0
 11
301.9956
 21
36.542901
 31
0.0
  0
LINE
  8
0
 10
301.9956
 20
36.542901
 30
0.0
 11
302.33914
 21
36.440352
 31
0.0
  0
LINE
  8
0
 10
302.33914
 20
36.440352
 30
0.0
 11
302.33914
 21
35.152901
 31
0.0
  0
LINE
  8
0
 10
302.33914
 20
35.152901
 30
0.0
 11
302.141272
 21
35.152901
 31
0.0
  0
ARC
  8
0
 10
301.92914
 20
35.117901
 30
0.0
 40
0.215
 50
170.631084
 51
9.368916
  0
LINE
  8
0
 10
301.742057
 20
35.172901
 30
0.0
 11
301.53914
 21
35.172901
 31
0.0
  0
LINE
  8
0
 10
301.53914
 20
35.172901
 30
0.0
 11
301.53914
 21
36.42545
 31
0.0
  0
LINE
  8
0
 10
301.53914
 20
36.42545
 30
0.0
 11
301.8656
 21
36.522901
 31
0.0
  0
LINE
  8
0
 10
301.8656
 20
36.522901
 30
0.0
 11
301.992679
 21
36.522901
 31
0.0
  0
LINE
  8
0
 10
301.992679
 20
36.522901
 30
0.0
 11
302.31914
 21
36.42545
 31
0.0
  0
LINE
  8
0
 10
302.31914
 20
36.42545
 30
0.0
 11
302.31914
 21
35.172901
 31
0.0
  0
LINE
  8
0
 10
302.31914
 20
35.172901
 30
0.0
 11
302.116222
 21
35.172901
 31
0.0
  0
ARC
  8
0
 10
301.92914
 20
35.117901
 30
0.0
 40
0.195
 50
163.61733
 51
16.38267
  0
LINE
  8
0
 10
301.72914
 20
35.162901
 30
0.0
 11
301.52914
 21
35.162901
 31
0.0
  0
LINE
  8
0
 10
301.52914
 20
35.162901
 30
0.0
 11
301.52914
 21
36.432901
 31
0.0
  0
LINE
  8
0
 10
301.52914
 20
36.432901
 30
0.0
 11
301.86414
 21
36.532901
 31
0.0
  0
LINE
  8
0
 10
301.86414
 20
36.532901
 30
0.0
 11
301.99414
 21
36.532901
 31
0.0
  0
LINE
  8
0
 10
301.99414
 20
36.532901
 30
0.0
 11
302.32914
 21
36.432901
 31
0.0
  0
LINE
  8
0
 10
302.32914
 20
36.432901
 30
0.0
 11
302.32914
 21
35.162901
 31
0.0
  0
LINE
  8
0
 10
302.32914
 20
35.162901
 30
0.0
 11
302.12914
 21
35.162901
 31
0.0
  0
ARC
  8
0
 10
301.92914
 20
35.117901
 30
0.0
 40
0.205
 50
167.319617
 51
12.680383
  0
ENDSEC
  0
EOF
