  0
SECTION
  2
HEADER
  9
$ACADVER
  1
AC1009
  9
$INSBASE
 10
193.828156
 20
233.072038
 30
0.0
  9
$EXTMIN
 10
193.828156
 20
233.072038
 30
0.0
  9
$EXTMAX
 10
204.328156
 20
247.922038
 30
0.0
  9
$LIMMIN
 10
0.0
 20
0.0
  9
$LIMMAX
 10
410.0
 20
287.0
  9
$ORTHOMODE
 70
     0
  9
$REGENMODE
 70
     1
  9
$FILLMODE
 70
     1
  9
$QTEXTMODE
 70
     0
  9
$MIRRTEXT
 70
     1
  9
$DRAGMODE
 70
     2
  9
$LTSCALE
 40
25.0
  9
$OSMODE
 70
    32
  9
$ATTMODE
 70
     1
  9
$TEXTSIZE
 40
0.1
  9
$TRACEWID
 40
0.3
  9
$TEXTSTYLE
  7
STANDARD
  9
$CLAYER
  8
0
  9
$CELTYPE
  6
BYLAYER
  9
$CECOLOR
 62
   256
  9
$DIMSCALE
 40
1.0
  9
$DIMASZ
 40
3.5
  9
$DIMEXO
 40
0.1
  9
$DIMDLI
 40
7.0
  9
$DIMRND
 40
0.0
  9
$DIMDLE
 40
0.0
  9
$DIMEXE
 40
1.8
  9
$DIMTP
 40
0.0
  9
$DIMTM
 40
0.0
  9
$DIMTXT
 40
3.5
  9
$DIMCEN
 40
1.5
  9
$DIMTSZ
 40
0.0
  9
$DIMTOL
 70
     0
  9
$DIMLIM
 70
     0
  9
$DIMTIH
 70
     0
  9
$DIMTOH
 70
     0
  9
$DIMSE1
 70
     0
  9
$DIMSE2
 70
     0
  9
$DIMTAD
 70
     0
  9
$DIMZIN
 70
     0
  9
$DIMBLK
  1

  9
$DIMASO
 70
     1
  9
$DIMSHO
 70
     0
  9
$DIMPOST
  1

  9
$DIMAPOST
  1

  9
$DIMALT
 70
     0
  9
$DIMALTD
 70
     2
  9
$DIMALTF
 40
25.4
  9
$DIMLFAC
 40
1.0
  9
$DIMTOFL
 70
     0
  9
$DIMTVP
 40
0.0
  9
$DIMTIX
 70
     0
  9
$DIMSOXD
 70
     0
  9
$DIMSAH
 70
     0
  9
$DIMBLK1
  1

  9
$DIMBLK2
  1

  9
$DIMSTYLE
  2
*UNNAMED
  9
$DIMCLRD
 70
     0
  9
$DIMCLRE
 70
     0
  9
$DIMCLRT
 70
     0
  9
$DIMTFAC
 40
1.0
  9
$DIMGAP
 40
0.09
  9
$LUNITS
 70
     2
  9
$LUPREC
 70
     2
  9
$SKETCHINC
 40
1.0
  9
$FILLETRAD
 40
0.0
  9
$AUNITS
 70
     0
  9
$AUPREC
 70
     0
  9
$MENU
  1
acad
  9
$ELEVATION
 40
0.0
  9
$PELEVATION
 40
0.0
  9
$THICKNESS
 40
0.0
  9
$LIMCHECK
 70
     0
  9
$BLIPMODE
 70
     0
  9
$CHAMFERA
 40
0.0
  9
$CHAMFERB
 40
0.0
  9
$SKPOLY
 70
     0
  9
$TDCREATE
 40
2449960.599893750
  9
$TDUPDATE
 40
2450723.511535532
  9
$TDINDWG
 40
0.0028930556
  9
$TDUSRTIMER
 40
0.0028930556
  9
$USRTIMER
 70
     1
  9
$ANGBASE
 50
0.0
  9
$ANGDIR
 70
     0
  9
$PDMODE
 70
     0
  9
$PDSIZE
 40
0.0
  9
$PLINEWID
 40
0.0
  9
$COORDS
 70
     2
  9
$SPLFRAME
 70
     0
  9
$SPLINETYPE
 70
     6
  9
$SPLINESEGS
 70
     8
  9
$ATTDIA
 70
     0
  9
$ATTREQ
 70
     1
  9
$HANDLING
 70
     0
  9
$HANDSEED
  5
0
  9
$SURFTAB1
 70
     6
  9
$SURFTAB2
 70
     6
  9
$SURFTYPE
 70
     6
  9
$SURFU
 70
     6
  9
$SURFV
 70
     6
  9
$UCSNAME
  2

  9
$UCSORG
 10
0.0
 20
0.0
 30
0.0
  9
$UCSXDIR
 10
1.0
 20
0.0
 30
0.0
  9
$UCSYDIR
 10
0.0
 20
1.0
 30
0.0
  9
$PUCSNAME
  2

  9
$PUCSORG
 10
0.0
 20
0.0
 30
0.0
  9
$PUCSXDIR
 10
1.0
 20
0.0
 30
0.0
  9
$PUCSYDIR
 10
0.0
 20
1.0
 30
0.0
  9
$USERI1
 70
     0
  9
$USERI2
 70
     0
  9
$USERI3
 70
     0
  9
$USERI4
 70
     0
  9
$USERI5
 70
     0
  9
$USERR1
 40
0.0
  9
$USERR2
 40
0.0
  9
$USERR3
 40
0.0
  9
$USERR4
 40
0.0
  9
$USERR5
 40
0.0
  9
$WORLDVIEW
 70
     1
  9
$SHADEDGE
 70
     3
  9
$SHADEDIF
 70
    70
  9
$TILEMODE
 70
     1
  9
$MAXACTVP
 70
    16
  9
$PINSBASE
 10
0.0
 20
0.0
 30
0.0
  9
$PLIMCHECK
 70
     0
  9
$PEXTMIN
 10
1.000000E+20
 20
1.000000E+20
 30
1.000000E+20
  9
$PEXTMAX
 10
-1.000000E+20
 20
-1.000000E+20
 30
-1.000000E+20
  9
$PLIMMIN
 10
0.0
 20
0.0
  9
$PLIMMAX
 10
12.0
 20
9.0
  9
$UNITMODE
 70
     0
  9
$VISRETAIN
 70
     0
  9
$PLINEGEN
 70
     0
  9
$PSLTSCALE
 70
     0
  9
$TREEDEPTH
 70
  3020
  9
$DWGCODEPAGE
  3
iso8859-1
  0
ENDSEC
  0
SECTION
  2
TABLES
  0
TABLE
  2
VPORT
 70
     1
  0
VPORT
  2
*ACTIVE
 70
     0
 10
0.0
 20
0.0
 11
1.0
 21
1.0
 12
205.790007
 22
240.497038
 13
0.0
 23
0.0
 14
1.0
 24
1.0
 15
10.0
 25
10.0
 16
0.0
 26
0.0
 36
1.0
 17
0.0
 27
0.0
 37
0.0
 40
14.85
 41
1.611024
 42
50.0
 43
0.0
 44
0.0
 50
0.0
 51
0.0
 71
     0
 72
   100
 73
     1
 74
     0
 75
     0
 76
     0
 77
     0
 78
     0
  0
ENDTAB
  0
TABLE
  2
LTYPE
 70
     1
  0
LTYPE
  2
CONTINUOUS
 70
    64
  3
Solid Line
 72
    65
 73
     0
 40
0.0
  0
ENDTAB
  0
TABLE
  2
LAYER
 70
     5
  0
LAYER
  2
0
 70
    64
 62
     7
  6
CONTINUOUS
  0
LAYER
  2
SECCIO
 70
    64
 62
     7
  6
CONTINUOUS
  0
LAYER
  2
MESURA
 70
    64
 62
     7
  6
CONTINUOUS
  0
LAYER
  2
TEXTEP
 70
    64
 62
     7
  6
CONTINUOUS
  0
LAYER
  2
TEXTEG
 70
    64
 62
     7
  6
CONTINUOUS
  0
ENDTAB
  0
TABLE
  2
STYLE
 70
     2
  0
STYLE
  2
STANDARD
 70
    64
 40
0.0
 41
1.0
 50
0.0
 71
     0
 42
0.1
  3
txt
  4

  0
STYLE
  2
ROMANC
 70
    64
 40
0.0
 41
1.0
 50
0.0
 71
     0
 42
0.1
  3
romanc
  4

  0
ENDTAB
  0
TABLE
  2
VIEW
 70
     0
  0
ENDTAB
  0
TABLE
  2
UCS
 70
     0
  0
ENDTAB
  0
TABLE
  2
APPID
 70
     1
  0
APPID
  2
ACAD
 70
    64
  0
ENDTAB
  0
TABLE
  2
DIMSTYLE
 70
     0
  0
ENDTAB
  0
ENDSEC
  0
SECTION
  2
BLOCKS
  0
ENDSEC
  0
SECTION
  2
ENTITIES
  0
LINE
  8
0
 10
193.828156
 20
247.922038
 30
0.0
 11
204.328156
 21
247.922038
 31
0.0
  0
LINE
  8
0
 10
193.828156
 20
233.072038
 30
0.0
 11
204.328156
 21
233.072038
 31
0.0
  0
TEXT
  8
0
 10
195.784486
 20
244.199202
 30
0.0
 40
0.3
  1
P = 142.1 dm
  7
ROMANC
  0
LINE
  8
0
 10
193.828156
 20
247.922038
 30
0.0
 11
193.828156
 21
233.072038
 31
0.0
  0
LINE
  8
SECCIO
 10
196.50306
 20
240.420352
 30
0.0
 11
196.50306
 21
237.745612
 31
0.0
  0
LINE
  8
SECCIO
 10
196.949096
 20
237.245612
 30
0.0
 11
201.733197
 21
237.245612
 31
0.0
  0
LINE
  8
MESURA
 10
197.020922
 20
237.745612
 30
0.0
 11
196.401236
 21
237.745612
 31
0.0
  0
LINE
  8
MESURA
 10
197.020922
 20
237.745612
 30
0.0
 11
197.020922
 21
237.164464
 31
0.0
  0
LINE
  8
MESURA
 10
196.974558
 20
237.210584
 30
0.0
 11
197.057948
 21
237.271193
 31
0.0
  0
LINE
  8
MESURA
 10
202.125484
 20
237.745612
 30
0.0
 11
202.125484
 21
237.660017
 31
0.0
  0
LINE
  8
MESURA
 10
202.125484
 20
238.145612
 30
0.0
 11
202.125484
 21
237.745612
 31
0.0
  0
LINE
  8
MESURA
 10
202.125484
 20
238.251013
 30
0.0
 11
202.125484
 21
238.145612
 31
0.0
  0
TEXT
  8
TEXTEP
 10
202.215655
 20
237.920649
 30
0.0
 40
0.1
  1
0.4
  0
LINE
  8
MESURA
 10
202.08524
 20
238.114601
 30
0.0
 11
202.16863
 21
238.175211
 31
0.0
  0
LINE
  8
MESURA
 10
200.682506
 20
237.212168
 30
0.0
 11
200.765896
 21
237.272778
 31
0.0
  0
LINE
  8
MESURA
 10
200.720922
 20
237.745612
 30
0.0
 11
200.720922
 21
237.147365
 31
0.0
  0
LINE
  8
MESURA
 10
201.620922
 20
238.145612
 30
0.0
 11
202.204894
 21
238.145612
 31
0.0
  0
LINE
  8
MESURA
 10
202.08524
 20
237.71795
 30
0.0
 11
202.16863
 21
237.77856
 31
0.0
  0
LINE
  8
MESURA
 10
200.720922
 20
237.745612
 30
0.0
 11
202.244662
 21
237.745612
 31
0.0
  0
LINE
  8
MESURA
 10
201.571097
 20
237.212168
 30
0.0
 11
201.654487
 21
237.272778
 31
0.0
  0
LINE
  8
MESURA
 10
201.620922
 20
238.145612
 30
0.0
 11
201.620922
 21
237.147665
 31
0.0
  0
TEXT
  8
TEXTEP
 10
198.947016
 20
237.073215
 30
0.0
 40
0.1
  1
3.7
  0
TEXT
  8
TEXTEP
 10
196.23307
 20
238.837325
 30
0.0
 40
0.1
  1
2.3
  0
TEXT
  8
TEXTEP
 10
197.179643
 20
240.64794
 30
0.0
 40
0.1
  1
0.5
  0
TEXT
  8
TEXTEP
 10
196.188843
 20
240.13056
 30
0.0
 40
0.1
  1
0.3
  0
LINE
  8
MESURA
 10
197.50306
 20
240.345612
 30
0.0
 11
197.50306
 21
240.629924
 31
0.0
  0
LINE
  8
MESURA
 10
197.50306
 20
240.345612
 30
0.0
 11
196.419443
 21
240.345612
 31
0.0
  0
LINE
  8
MESURA
 10
197.00306
 20
240.045612
 30
0.0
 11
196.419443
 21
240.045612
 31
0.0
  0
LINE
  8
MESURA
 10
196.545803
 20
240.014804
 30
0.0
 11
196.462413
 21
240.075414
 31
0.0
  0
LINE
  8
MESURA
 10
196.543813
 20
240.313854
 30
0.0
 11
196.460423
 21
240.374464
 31
0.0
  0
LINE
  8
MESURA
 10
197.00306
 20
240.045612
 30
0.0
 11
197.00306
 21
240.629924
 31
0.0
  0
LINE
  8
MESURA
 10
197.046602
 20
240.512916
 30
0.0
 11
196.963212
 21
240.573526
 31
0.0
  0
LINE
  8
MESURA
 10
197.548343
 20
240.51646
 30
0.0
 11
197.464953
 21
240.57707
 31
0.0
  0
LINE
  8
SECCIO
 10
197.600375
 20
240.547793
 30
0.0
 11
196.926644
 21
240.547793
 31
0.0
  0
TEXT
  8
0
 10
195.787314
 20
244.8727
 30
0.0
 40
0.3
  1
S = 1152 dm
  7
ROMANC
  0
TEXT
  8
0
 10
199.295146
 20
245.178616
 30
0.0
 40
0.1
  1
2
  7
ROMANC
  0
LINE
  8
0
 10
204.328156
 20
247.922038
 30
0.0
 11
204.328156
 21
233.072038
 31
0.0
  0
LINE
  8
SECCIO
 10
196.949096
 20
236.745612
 30
0.0
 11
201.733197
 21
236.745612
 31
0.0
  0
LINE
  8
MESURA
 10
196.974558
 20
236.710584
 30
0.0
 11
197.057948
 21
236.771193
 31
0.0
  0
LINE
  8
MESURA
 10
197.020922
 20
237.245612
 30
0.0
 11
197.020922
 21
236.664464
 31
0.0
  0
TEXT
  8
TEXTEP
 10
198.947016
 20
236.573215
 30
0.0
 40
0.1
  1
4.6
  0
LINE
  8
MESURA
 10
201.620922
 20
237.645612
 30
0.0
 11
201.620922
 21
236.647665
 31
0.0
  0
LINE
  8
MESURA
 10
201.571097
 20
236.712168
 30
0.0
 11
201.654487
 21
236.772778
 31
0.0
  0
TEXT
  8
TEXTEP
 10
201.043071
 20
237.050181
 30
0.0
 40
0.1
  1
0.9
  0
LINE
  8
SECCIO
 10
195.985198
 20
240.420352
 30
0.0
 11
195.985198
 21
237.745612
 31
0.0
  0
LINE
  8
MESURA
 10
196.50306
 20
237.745612
 30
0.0
 11
195.883374
 21
237.745612
 31
0.0
  0
LINE
  8
MESURA
 10
196.025951
 20
240.313854
 30
0.0
 11
195.942561
 21
240.374464
 31
0.0
  0
LINE
  8
MESURA
 10
196.985198
 20
240.345612
 30
0.0
 11
195.901581
 21
240.345612
 31
0.0
  0
TEXT
  8
TEXTEP
 10
195.706686
 20
239.169499
 30
0.0
 40
0.1
  1
2.6
  0
LINE
  8
MESURA
 10
196.027941
 20
237.714546
 30
0.0
 11
195.944551
 21
237.775156
 31
0.0
  0
LINE
  8
MESURA
 10
196.545803
 20
237.714546
 30
0.0
 11
196.462413
 21
237.775156
 31
0.0
  0
TEXT
  8
0
 10
195.73776
 20
245.716891
 30
0.0
 40
0.3
  1
ESCALA   1:50
  7
ROMANC
  0
TEXT
  8
0
 10
195.740588
 20
246.390389
 30
0.0
 40
0.3
  1
TIPUS    NT1152
  7
ROMANC
  0
LINE
  8
SECCIO
 10
200.7366
 20
237.725612
 30
0.0
 11
197.000922
 21
237.725612
 31
0.0
  0
LINE
  8
SECCIO
 10
197.000922
 20
237.725612
 30
0.0
 11
197.000922
 21
240.056936
 31
0.0
  0
LINE
  8
SECCIO
 10
197.000922
 20
240.056936
 30
0.0
 11
197.515382
 21
240.365612
 31
0.0
  0
LINE
  8
SECCIO
 10
197.515382
 20
240.365612
 30
0.0
 11
201.640922
 21
240.365612
 31
0.0
  0
LINE
  8
SECCIO
 10
201.640922
 20
240.365612
 30
0.0
 11
201.640922
 21
238.125612
 31
0.0
  0
LINE
  8
SECCIO
 10
201.640922
 20
238.125612
 30
0.0
 11
200.740922
 21
238.125612
 31
0.0
  0
LINE
  8
SECCIO
 10
200.740922
 20
238.125612
 30
0.0
 11
200.740922
 21
237.755612
 31
0.0
  0
LINE
  8
SECCIO
 10
200.7366
 20
237.735612
 30
0.0
 11
197.010922
 21
237.735612
 31
0.0
  0
LINE
  8
SECCIO
 10
197.010922
 20
237.735612
 30
0.0
 11
197.010922
 21
240.051274
 31
0.0
  0
LINE
  8
SECCIO
 10
197.010922
 20
240.051274
 30
0.0
 11
197.518152
 21
240.355612
 31
0.0
  0
LINE
  8
SECCIO
 10
197.518152
 20
240.355612
 30
0.0
 11
201.630922
 21
240.355612
 31
0.0
  0
LINE
  8
SECCIO
 10
201.630922
 20
240.355612
 30
0.0
 11
201.630922
 21
238.135612
 31
0.0
  0
LINE
  8
SECCIO
 10
201.630922
 20
238.135612
 30
0.0
 11
200.730922
 21
238.135612
 31
0.0
  0
LINE
  8
SECCIO
 10
200.730922
 20
238.135612
 30
0.0
 11
200.730922
 21
237.755612
 31
0.0
  0
LINE
  8
SECCIO
 10
200.730922
 20
237.755612
 30
0.0
 11
200.7366
 21
237.755612
 31
0.0
  0
LINE
  8
SECCIO
 10
200.7366
 20
237.745612
 30
0.0
 11
197.020922
 21
237.745612
 31
0.0
  0
LINE
  8
SECCIO
 10
197.020922
 20
237.745612
 30
0.0
 11
197.020922
 21
240.045612
 31
0.0
  0
LINE
  8
SECCIO
 10
197.020922
 20
240.045612
 30
0.0
 11
197.520922
 21
240.345612
 31
0.0
  0
LINE
  8
SECCIO
 10
197.520922
 20
240.345612
 30
0.0
 11
201.620922
 21
240.345612
 31
0.0
  0
LINE
  8
SECCIO
 10
201.620922
 20
240.345612
 30
0.0
 11
201.620922
 21
238.145612
 31
0.0
  0
LINE
  8
SECCIO
 10
201.620922
 20
238.145612
 30
0.0
 11
200.720922
 21
238.145612
 31
0.0
  0
LINE
  8
SECCIO
 10
200.720922
 20
238.145612
 30
0.0
 11
200.720922
 21
237.745612
 31
0.0
  0
LINE
  8
SECCIO
 10
200.720922
 20
237.745612
 30
0.0
 11
200.7366
 21
237.745612
 31
0.0
  0
LINE
  8
SECCIO
 10
200.7366
 20
237.755612
 30
0.0
 11
200.710922
 21
237.755612
 31
0.0
  0
LINE
  8
SECCIO
 10
200.710922
 20
237.755612
 30
0.0
 11
200.710922
 21
237.735612
 31
0.0
  0
LINE
  8
SECCIO
 10
200.710922
 20
237.735612
 30
0.0
 11
200.7366
 21
237.735612
 31
0.0
  0
LINE
  8
SECCIO
 10
200.7366
 20
237.755612
 30
0.0
 11
200.710922
 21
237.755612
 31
0.0
  0
LINE
  8
SECCIO
 10
200.710922
 20
237.755612
 30
0.0
 11
200.710922
 21
237.735612
 31
0.0
  0
LINE
  8
SECCIO
 10
200.710922
 20
237.735612
 30
0.0
 11
200.7366
 21
237.735612
 31
0.0
  0
ENDSEC
  0
EOF
