  0
SECTION
  2
HEADER
  9
$ACADVER
  1
AC1009
  9
$INSBASE
 10
182.081373
 20
233.072038
 30
0.0
  9
$EXTMIN
 10
182.081373
 20
233.072038
 30
0.0
  9
$EXTMAX
 10
192.581373
 20
247.922038
 30
0.0
  9
$LIMMIN
 10
0.0
 20
0.0
  9
$LIMMAX
 10
410.0
 20
287.0
  9
$ORTHOMODE
 70
     0
  9
$REGENMODE
 70
     1
  9
$FILLMODE
 70
     1
  9
$QTEXTMODE
 70
     0
  9
$MIRRTEXT
 70
     1
  9
$DRAGMODE
 70
     2
  9
$LTSCALE
 40
25.0
  9
$OSMODE
 70
    32
  9
$ATTMODE
 70
     1
  9
$TEXTSIZE
 40
0.1
  9
$TRACEWID
 40
0.3
  9
$TEXTSTYLE
  7
STANDARD
  9
$CLAYER
  8
0
  9
$CELTYPE
  6
BYLAYER
  9
$CECOLOR
 62
   256
  9
$DIMSCALE
 40
1.0
  9
$DIMASZ
 40
3.5
  9
$DIMEXO
 40
0.1
  9
$DIMDLI
 40
7.0
  9
$DIMRND
 40
0.0
  9
$DIMDLE
 40
0.0
  9
$DIMEXE
 40
1.8
  9
$DIMTP
 40
0.0
  9
$DIMTM
 40
0.0
  9
$DIMTXT
 40
3.5
  9
$DIMCEN
 40
1.5
  9
$DIMTSZ
 40
0.0
  9
$DIMTOL
 70
     0
  9
$DIMLIM
 70
     0
  9
$DIMTIH
 70
     0
  9
$DIMTOH
 70
     0
  9
$DIMSE1
 70
     0
  9
$DIMSE2
 70
     0
  9
$DIMTAD
 70
     0
  9
$DIMZIN
 70
     0
  9
$DIMBLK
  1

  9
$DIMASO
 70
     1
  9
$DIMSHO
 70
     0
  9
$DIMPOST
  1

  9
$DIMAPOST
  1

  9
$DIMALT
 70
     0
  9
$DIMALTD
 70
     2
  9
$DIMALTF
 40
25.4
  9
$DIMLFAC
 40
1.0
  9
$DIMTOFL
 70
     0
  9
$DIMTVP
 40
0.0
  9
$DIMTIX
 70
     0
  9
$DIMSOXD
 70
     0
  9
$DIMSAH
 70
     0
  9
$DIMBLK1
  1

  9
$DIMBLK2
  1

  9
$DIMSTYLE
  2
*UNNAMED
  9
$DIMCLRD
 70
     0
  9
$DIMCLRE
 70
     0
  9
$DIMCLRT
 70
     0
  9
$DIMTFAC
 40
1.0
  9
$DIMGAP
 40
0.09
  9
$LUNITS
 70
     2
  9
$LUPREC
 70
     2
  9
$SKETCHINC
 40
1.0
  9
$FILLETRAD
 40
0.0
  9
$AUNITS
 70
     0
  9
$AUPREC
 70
     0
  9
$MENU
  1
acad
  9
$ELEVATION
 40
0.0
  9
$PELEVATION
 40
0.0
  9
$THICKNESS
 40
0.0
  9
$LIMCHECK
 70
     0
  9
$BLIPMODE
 70
     0
  9
$CHAMFERA
 40
0.0
  9
$CHAMFERB
 40
0.0
  9
$SKPOLY
 70
     0
  9
$TDCREATE
 40
2449960.597042593
  9
$TDUPDATE
 40
2450723.501453819
  9
$TDINDWG
 40
0.0054391204
  9
$TDUSRTIMER
 40
0.0054391204
  9
$USRTIMER
 70
     1
  9
$ANGBASE
 50
0.0
  9
$ANGDIR
 70
     0
  9
$PDMODE
 70
     0
  9
$PDSIZE
 40
0.0
  9
$PLINEWID
 40
0.0
  9
$COORDS
 70
     2
  9
$SPLFRAME
 70
     0
  9
$SPLINETYPE
 70
     6
  9
$SPLINESEGS
 70
     8
  9
$ATTDIA
 70
     0
  9
$ATTREQ
 70
     1
  9
$HANDLING
 70
     0
  9
$HANDSEED
  5
0
  9
$SURFTAB1
 70
     6
  9
$SURFTAB2
 70
     6
  9
$SURFTYPE
 70
     6
  9
$SURFU
 70
     6
  9
$SURFV
 70
     6
  9
$UCSNAME
  2

  9
$UCSORG
 10
0.0
 20
0.0
 30
0.0
  9
$UCSXDIR
 10
1.0
 20
0.0
 30
0.0
  9
$UCSYDIR
 10
0.0
 20
1.0
 30
0.0
  9
$PUCSNAME
  2

  9
$PUCSORG
 10
0.0
 20
0.0
 30
0.0
  9
$PUCSXDIR
 10
1.0
 20
0.0
 30
0.0
  9
$PUCSYDIR
 10
0.0
 20
1.0
 30
0.0
  9
$USERI1
 70
     0
  9
$USERI2
 70
     0
  9
$USERI3
 70
     0
  9
$USERI4
 70
     0
  9
$USERI5
 70
     0
  9
$USERR1
 40
0.0
  9
$USERR2
 40
0.0
  9
$USERR3
 40
0.0
  9
$USERR4
 40
0.0
  9
$USERR5
 40
0.0
  9
$WORLDVIEW
 70
     1
  9
$SHADEDGE
 70
     3
  9
$SHADEDIF
 70
    70
  9
$TILEMODE
 70
     1
  9
$MAXACTVP
 70
    16
  9
$PINSBASE
 10
0.0
 20
0.0
 30
0.0
  9
$PLIMCHECK
 70
     0
  9
$PEXTMIN
 10
1.000000E+20
 20
1.000000E+20
 30
1.000000E+20
  9
$PEXTMAX
 10
-1.000000E+20
 20
-1.000000E+20
 30
-1.000000E+20
  9
$PLIMMIN
 10
0.0
 20
0.0
  9
$PLIMMAX
 10
12.0
 20
9.0
  9
$UNITMODE
 70
     0
  9
$VISRETAIN
 70
     0
  9
$PLINEGEN
 70
     0
  9
$PSLTSCALE
 70
     0
  9
$TREEDEPTH
 70
  3020
  9
$DWGCODEPAGE
  3
iso8859-1
  0
ENDSEC
  0
SECTION
  2
TABLES
  0
TABLE
  2
VPORT
 70
     1
  0
VPORT
  2
*ACTIVE
 70
     0
 10
0.0
 20
0.0
 11
1.0
 21
1.0
 12
194.043223
 22
240.497038
 13
0.0
 23
0.0
 14
1.0
 24
1.0
 15
10.0
 25
10.0
 16
0.0
 26
0.0
 36
1.0
 17
0.0
 27
0.0
 37
0.0
 40
14.85
 41
1.611024
 42
50.0
 43
0.0
 44
0.0
 50
0.0
 51
0.0
 71
     0
 72
   100
 73
     1
 74
     0
 75
     0
 76
     0
 77
     0
 78
     0
  0
ENDTAB
  0
TABLE
  2
LTYPE
 70
     1
  0
LTYPE
  2
CONTINUOUS
 70
    64
  3
Solid Line
 72
    65
 73
     0
 40
0.0
  0
ENDTAB
  0
TABLE
  2
LAYER
 70
     5
  0
LAYER
  2
0
 70
    64
 62
     7
  6
CONTINUOUS
  0
LAYER
  2
SECCIO
 70
    64
 62
     7
  6
CONTINUOUS
  0
LAYER
  2
MESURA
 70
    64
 62
     7
  6
CONTINUOUS
  0
LAYER
  2
TEXTEP
 70
    64
 62
     7
  6
CONTINUOUS
  0
LAYER
  2
TEXTEG
 70
    64
 62
     7
  6
CONTINUOUS
  0
ENDTAB
  0
TABLE
  2
STYLE
 70
     2
  0
STYLE
  2
STANDARD
 70
    64
 40
0.0
 41
1.0
 50
0.0
 71
     0
 42
0.1
  3
txt
  4

  0
STYLE
  2
ROMANC
 70
    64
 40
0.0
 41
1.0
 50
0.0
 71
     0
 42
0.1
  3
romanc
  4

  0
ENDTAB
  0
TABLE
  2
VIEW
 70
     0
  0
ENDTAB
  0
TABLE
  2
UCS
 70
     0
  0
ENDTAB
  0
TABLE
  2
APPID
 70
     1
  0
APPID
  2
ACAD
 70
    64
  0
ENDTAB
  0
TABLE
  2
DIMSTYLE
 70
     0
  0
ENDTAB
  0
ENDSEC
  0
SECTION
  2
BLOCKS
  0
ENDSEC
  0
SECTION
  2
ENTITIES
  0
TEXT
  8
0
 10
183.997513
 20
243.976109
 30
0.0
 40
0.3
  1
P = 139.8 dm
  7
ROMANC
  0
TEXT
  8
0
 10
184.000341
 20
244.649607
 30
0.0
 40
0.3
  1
S = 1145 dm
  7
ROMANC
  0
LINE
  8
0
 10
182.081373
 20
247.922038
 30
0.0
 11
192.581373
 21
247.922038
 31
0.0
  0
LINE
  8
SECCIO
 10
185.202312
 20
237.545612
 30
0.0
 11
189.986413
 21
237.545612
 31
0.0
  0
LINE
  8
0
 10
182.081373
 20
233.072038
 30
0.0
 11
192.581373
 21
233.072038
 31
0.0
  0
LINE
  8
0
 10
182.081373
 20
247.922038
 30
0.0
 11
182.081373
 21
233.072038
 31
0.0
  0
LINE
  8
SECCIO
 10
184.756277
 20
240.720352
 30
0.0
 11
184.756277
 21
238.045612
 31
0.0
  0
LINE
  8
MESURA
 10
185.227775
 20
237.510584
 30
0.0
 11
185.311165
 21
237.571193
 31
0.0
  0
LINE
  8
MESURA
 10
185.274139
 20
238.045612
 30
0.0
 11
185.274139
 21
237.464464
 31
0.0
  0
LINE
  8
MESURA
 10
185.274139
 20
238.045612
 30
0.0
 11
184.654452
 21
238.045612
 31
0.0
  0
LINE
  8
MESURA
 10
185.299818
 20
240.812916
 30
0.0
 11
185.216428
 21
240.873526
 31
0.0
  0
LINE
  8
MESURA
 10
185.256277
 20
240.345612
 30
0.0
 11
185.256277
 21
240.929924
 31
0.0
  0
LINE
  8
SECCIO
 10
185.853592
 20
240.847793
 30
0.0
 11
185.179861
 21
240.847793
 31
0.0
  0
LINE
  8
MESURA
 10
185.801559
 20
240.81646
 30
0.0
 11
185.718169
 21
240.87707
 31
0.0
  0
LINE
  8
MESURA
 10
185.756277
 20
240.645612
 30
0.0
 11
185.756277
 21
240.929924
 31
0.0
  0
TEXT
  8
TEXTEP
 10
185.432859
 20
240.94794
 30
0.0
 40
0.1
  1
0.5
  0
LINE
  8
MESURA
 10
184.799019
 20
240.314804
 30
0.0
 11
184.715629
 21
240.375414
 31
0.0
  0
LINE
  8
MESURA
 10
184.79703
 20
240.613854
 30
0.0
 11
184.71364
 21
240.674464
 31
0.0
  0
TEXT
  8
TEXTEP
 10
184.442059
 20
240.43056
 30
0.0
 40
0.1
  1
0.3
  0
TEXT
  8
TEXTEP
 10
184.477764
 20
239.169499
 30
0.0
 40
0.1
  1
2.3
  0
LINE
  8
MESURA
 10
185.256277
 20
240.345612
 30
0.0
 11
184.672659
 21
240.345612
 31
0.0
  0
LINE
  8
MESURA
 10
185.756277
 20
240.645612
 30
0.0
 11
184.672659
 21
240.645612
 31
0.0
  0
LINE
  8
0
 10
192.581373
 20
247.922038
 30
0.0
 11
192.581373
 21
233.072038
 31
0.0
  0
LINE
  8
MESURA
 10
189.824314
 20
237.512168
 30
0.0
 11
189.907704
 21
237.572778
 31
0.0
  0
LINE
  8
MESURA
 10
190.338457
 20
238.01795
 30
0.0
 11
190.421847
 21
238.07856
 31
0.0
  0
LINE
  8
MESURA
 10
188.974139
 20
238.045612
 30
0.0
 11
190.497879
 21
238.045612
 31
0.0
  0
LINE
  8
MESURA
 10
189.874139
 20
238.445612
 30
0.0
 11
189.874139
 21
237.447665
 31
0.0
  0
LINE
  8
MESURA
 10
189.874139
 20
238.445612
 30
0.0
 11
190.458111
 21
238.445612
 31
0.0
  0
LINE
  8
MESURA
 10
188.974139
 20
238.045612
 30
0.0
 11
188.974139
 21
237.447365
 31
0.0
  0
LINE
  8
MESURA
 10
190.338457
 20
238.414601
 30
0.0
 11
190.421847
 21
238.475211
 31
0.0
  0
LINE
  8
MESURA
 10
190.3787
 20
238.551013
 30
0.0
 11
190.3787
 21
238.445612
 31
0.0
  0
LINE
  8
MESURA
 10
190.3787
 20
238.445612
 30
0.0
 11
190.3787
 21
238.045612
 31
0.0
  0
LINE
  8
MESURA
 10
190.3787
 20
238.045612
 30
0.0
 11
190.3787
 21
237.960017
 31
0.0
  0
TEXT
  8
TEXTEP
 10
190.468872
 20
238.220649
 30
0.0
 40
0.1
  1
0.4
  0
TEXT
  8
TEXTEP
 10
189.210286
 20
237.373215
 30
0.0
 40
0.1
  1
0.9
  0
TEXT
  8
TEXTEP
 10
187.200233
 20
237.373215
 30
0.0
 40
0.1
  1
3.7
  0
LINE
  8
MESURA
 10
188.935722
 20
237.512168
 30
0.0
 11
189.019112
 21
237.572778
 31
0.0
  0
TEXT
  8
0
 10
187.508172
 20
244.955523
 30
0.0
 40
0.1
  1
2
  7
ROMANC
  0
LINE
  8
SECCIO
 10
185.202312
 20
237.045612
 30
0.0
 11
189.986413
 21
237.045612
 31
0.0
  0
LINE
  8
MESURA
 10
185.274139
 20
237.545612
 30
0.0
 11
185.274139
 21
236.964464
 31
0.0
  0
LINE
  8
MESURA
 10
185.227775
 20
237.010584
 30
0.0
 11
185.311165
 21
237.071193
 31
0.0
  0
TEXT
  8
TEXTEP
 10
187.554168
 20
236.864587
 30
0.0
 40
0.1
  1
4.6
  0
LINE
  8
MESURA
 10
189.874139
 20
237.945612
 30
0.0
 11
189.874139
 21
236.947665
 31
0.0
  0
LINE
  8
MESURA
 10
189.824314
 20
237.012168
 30
0.0
 11
189.907704
 21
237.072778
 31
0.0
  0
LINE
  8
SECCIO
 10
184.238415
 20
240.720352
 30
0.0
 11
184.238415
 21
238.045612
 31
0.0
  0
LINE
  8
MESURA
 10
184.756277
 20
238.045612
 30
0.0
 11
184.13659
 21
238.045612
 31
0.0
  0
LINE
  8
MESURA
 10
185.238415
 20
240.645612
 30
0.0
 11
184.154797
 21
240.645612
 31
0.0
  0
TEXT
  8
TEXTEP
 10
183.959902
 20
239.411066
 30
0.0
 40
0.1
  1
2.6
  0
LINE
  8
MESURA
 10
184.279168
 20
240.613854
 30
0.0
 11
184.195778
 21
240.674464
 31
0.0
  0
LINE
  8
MESURA
 10
184.281157
 20
238.014546
 30
0.0
 11
184.197767
 21
238.075156
 31
0.0
  0
LINE
  8
MESURA
 10
184.799019
 20
238.014546
 30
0.0
 11
184.715629
 21
238.075156
 31
0.0
  0
TEXT
  8
0
 10
184.023705
 20
245.980503
 30
0.0
 40
0.3
  1
TIPUS   NT1145
  7
ROMANC
  0
TEXT
  8
0
 10
184.020877
 20
245.307005
 30
0.0
 40
0.3
  1
ESCALA   1:50
  7
ROMANC
  0
LINE
  8
SECCIO
 10
189.864139
 20
238.455612
 30
0.0
 11
188.964139
 21
238.455612
 31
0.0
  0
LINE
  8
SECCIO
 10
188.964139
 20
238.455612
 30
0.0
 11
188.964139
 21
238.055612
 31
0.0
  0
LINE
  8
SECCIO
 10
188.964139
 20
238.055612
 30
0.0
 11
185.284139
 21
238.055612
 31
0.0
  0
LINE
  8
SECCIO
 10
185.284139
 20
238.055612
 30
0.0
 11
185.284139
 21
240.33995
 31
0.0
  0
LINE
  8
SECCIO
 10
185.284139
 20
240.33995
 30
0.0
 11
185.776908
 21
240.635612
 31
0.0
  0
LINE
  8
SECCIO
 10
185.776908
 20
240.635612
 30
0.0
 11
189.371522
 21
240.635612
 31
0.0
  0
LINE
  8
SECCIO
 10
189.371522
 20
240.635612
 30
0.0
 11
189.604112
 21
240.504931
 31
0.0
  0
LINE
  8
SECCIO
 10
189.604112
 20
240.504931
 30
0.0
 11
189.864139
 21
240.340111
 31
0.0
  0
LINE
  8
SECCIO
 10
189.864139
 20
240.340111
 30
0.0
 11
189.864139
 21
238.455612
 31
0.0
  0
LINE
  8
SECCIO
 10
189.884139
 20
238.435612
 30
0.0
 11
188.984139
 21
238.435612
 31
0.0
  0
LINE
  8
SECCIO
 10
188.984139
 20
238.435612
 30
0.0
 11
188.984139
 21
238.035612
 31
0.0
  0
LINE
  8
SECCIO
 10
188.984139
 20
238.035612
 30
0.0
 11
185.264139
 21
238.035612
 31
0.0
  0
LINE
  8
SECCIO
 10
185.264139
 20
238.035612
 30
0.0
 11
185.264139
 21
240.351274
 31
0.0
  0
LINE
  8
SECCIO
 10
185.264139
 20
240.351274
 30
0.0
 11
185.771369
 21
240.655612
 31
0.0
  0
LINE
  8
SECCIO
 10
185.771369
 20
240.655612
 30
0.0
 11
189.376755
 21
240.655612
 31
0.0
  0
LINE
  8
SECCIO
 10
189.376755
 20
240.655612
 30
0.0
 11
189.614595
 21
240.521965
 31
0.0
  0
LINE
  8
SECCIO
 10
189.614595
 20
240.521965
 30
0.0
 11
189.884139
 21
240.351113
 31
0.0
  0
LINE
  8
SECCIO
 10
189.884139
 20
240.351113
 30
0.0
 11
189.884139
 21
238.435612
 31
0.0
  0
LINE
  8
SECCIO
 10
189.874139
 20
238.445612
 30
0.0
 11
188.974139
 21
238.445612
 31
0.0
  0
LINE
  8
SECCIO
 10
188.974139
 20
238.445612
 30
0.0
 11
188.974139
 21
238.045612
 31
0.0
  0
LINE
  8
SECCIO
 10
188.974139
 20
238.045612
 30
0.0
 11
185.274139
 21
238.045612
 31
0.0
  0
LINE
  8
SECCIO
 10
185.274139
 20
238.045612
 30
0.0
 11
185.274139
 21
240.345612
 31
0.0
  0
LINE
  8
SECCIO
 10
185.274139
 20
240.345612
 30
0.0
 11
185.774139
 21
240.645612
 31
0.0
  0
LINE
  8
SECCIO
 10
185.774139
 20
240.645612
 30
0.0
 11
189.374139
 21
240.645612
 31
0.0
  0
LINE
  8
SECCIO
 10
189.374139
 20
240.645612
 30
0.0
 11
189.609242
 21
240.513519
 31
0.0
  0
LINE
  8
SECCIO
 10
189.609242
 20
240.513519
 30
0.0
 11
189.874139
 21
240.345612
 31
0.0
  0
LINE
  8
SECCIO
 10
189.874139
 20
240.345612
 30
0.0
 11
189.874139
 21
238.437523
 31
0.0
  0
LINE
  8
SECCIO
 10
189.874139
 20
238.437523
 30
0.0
 11
189.874139
 21
238.445612
 31
0.0
  0
ENDSEC
  0
EOF
