  0
SECTION
  2
HEADER
  9
$ACADVER
  1
AC1009
  9
$INSBASE
 10
0.0
 20
0.0
 30
0.0
  9
$EXTMIN
 10
318.848696
 20
29.863623
 30
0.0
  9
$EXTMAX
 10
329.348696
 20
44.713623
 30
0.0
  9
$LIMMIN
 10
0.0
 20
0.0
  9
$LIMMAX
 10
410.0
 20
287.0
  9
$ORTHOMODE
 70
     1
  9
$REGENMODE
 70
     1
  9
$FILLMODE
 70
     1
  9
$QTEXTMODE
 70
     0
  9
$MIRRTEXT
 70
     1
  9
$DRAGMODE
 70
     2
  9
$LTSCALE
 40
25.0
  9
$OSMODE
 70
     0
  9
$ATTMODE
 70
     1
  9
$TEXTSIZE
 40
0.1
  9
$TRACEWID
 40
1.0
  9
$TEXTSTYLE
  7
ROMANC
  9
$CLAYER
  8
0
  9
$CELTYPE
  6
BYLAYER
  9
$CECOLOR
 62
   256
  9
$DIMSCALE
 40
1.5
  9
$DIMASZ
 40
0.1
  9
$DIMEXO
 40
0.01
  9
$DIMDLI
 40
7.0
  9
$DIMRND
 40
0.0
  9
$DIMDLE
 40
0.0
  9
$DIMEXE
 40
0.01
  9
$DIMTP
 40
0.0
  9
$DIMTM
 40
0.0
  9
$DIMTXT
 40
0.05
  9
$DIMCEN
 40
0.1
  9
$DIMTSZ
 40
0.0
  9
$DIMTOL
 70
     0
  9
$DIMLIM
 70
     0
  9
$DIMTIH
 70
     0
  9
$DIMTOH
 70
     0
  9
$DIMSE1
 70
     0
  9
$DIMSE2
 70
     0
  9
$DIMTAD
 70
     1
  9
$DIMZIN
 70
     0
  9
$DIMBLK
  1

  9
$DIMASO
 70
     1
  9
$DIMSHO
 70
     0
  9
$DIMPOST
  1

  9
$DIMAPOST
  1

  9
$DIMALT
 70
     0
  9
$DIMALTD
 70
     2
  9
$DIMALTF
 40
25.4
  9
$DIMLFAC
 40
1.0
  9
$DIMTOFL
 70
     1
  9
$DIMTVP
 40
0.0
  9
$DIMTIX
 70
     1
  9
$DIMSOXD
 70
     0
  9
$DIMSAH
 70
     0
  9
$DIMBLK1
  1

  9
$DIMBLK2
  1

  9
$DIMSTYLE
  2
SILVIA
  9
$DIMCLRD
 70
     0
  9
$DIMCLRE
 70
     0
  9
$DIMCLRT
 70
     0
  9
$DIMTFAC
 40
70.0
  9
$DIMGAP
 40
0.09
  9
$LUNITS
 70
     2
  9
$LUPREC
 70
     2
  9
$SKETCHINC
 40
1.0
  9
$FILLETRAD
 40
0.0
  9
$AUNITS
 70
     0
  9
$AUPREC
 70
     0
  9
$MENU
  1
acad
  9
$ELEVATION
 40
0.0
  9
$PELEVATION
 40
0.0
  9
$THICKNESS
 40
0.0
  9
$LIMCHECK
 70
     0
  9
$BLIPMODE
 70
     0
  9
$CHAMFERA
 40
0.0
  9
$CHAMFERB
 40
0.0
  9
$SKPOLY
 70
     0
  9
$TDCREATE
 40
2450927.461950000
  9
$TDUPDATE
 40
2450938.413084838
  9
$TDINDWG
 40
0.0063692130
  9
$TDUSRTIMER
 40
0.0063692130
  9
$USRTIMER
 70
     1
  9
$ANGBASE
 50
0.0
  9
$ANGDIR
 70
     0
  9
$PDMODE
 70
     0
  9
$PDSIZE
 40
0.0
  9
$PLINEWID
 40
0.0
  9
$COORDS
 70
     2
  9
$SPLFRAME
 70
     0
  9
$SPLINETYPE
 70
     6
  9
$SPLINESEGS
 70
     8
  9
$ATTDIA
 70
     0
  9
$ATTREQ
 70
     1
  9
$HANDLING
 70
     0
  9
$HANDSEED
  5
0
  9
$SURFTAB1
 70
     6
  9
$SURFTAB2
 70
     6
  9
$SURFTYPE
 70
     6
  9
$SURFU
 70
     6
  9
$SURFV
 70
     6
  9
$UCSNAME
  2

  9
$UCSORG
 10
0.0
 20
0.0
 30
0.0
  9
$UCSXDIR
 10
1.0
 20
0.0
 30
0.0
  9
$UCSYDIR
 10
0.0
 20
1.0
 30
0.0
  9
$PUCSNAME
  2

  9
$PUCSORG
 10
0.0
 20
0.0
 30
0.0
  9
$PUCSXDIR
 10
1.0
 20
0.0
 30
0.0
  9
$PUCSYDIR
 10
0.0
 20
1.0
 30
0.0
  9
$USERI1
 70
     0
  9
$USERI2
 70
     0
  9
$USERI3
 70
     0
  9
$USERI4
 70
     0
  9
$USERI5
 70
     0
  9
$USERR1
 40
0.0
  9
$USERR2
 40
0.0
  9
$USERR3
 40
0.0
  9
$USERR4
 40
0.0
  9
$USERR5
 40
0.0
  9
$WORLDVIEW
 70
     1
  9
$SHADEDGE
 70
     3
  9
$SHADEDIF
 70
    70
  9
$TILEMODE
 70
     1
  9
$MAXACTVP
 70
    16
  9
$PINSBASE
 10
0.0
 20
0.0
 30
0.0
  9
$PLIMCHECK
 70
     0
  9
$PEXTMIN
 10
1.000000E+20
 20
1.000000E+20
 30
1.000000E+20
  9
$PEXTMAX
 10
-1.000000E+20
 20
-1.000000E+20
 30
-1.000000E+20
  9
$PLIMMIN
 10
0.0
 20
0.0
  9
$PLIMMAX
 10
12.0
 20
9.0
  9
$UNITMODE
 70
     0
  9
$VISRETAIN
 70
     0
  9
$PLINEGEN
 70
     0
  9
$PSLTSCALE
 70
     0
  9
$TREEDEPTH
 70
  3020
  9
$DWGCODEPAGE
  3
iso8859-1
  0
ENDSEC
  0
SECTION
  2
TABLES
  0
TABLE
  2
VPORT
 70
     2
  0
VPORT
  2
*ACTIVE
 70
     0
 10
0.0
 20
0.0
 11
1.0
 21
1.0
 12
330.168133
 22
37.288623
 13
0.0
 23
0.0
 14
1.0
 24
1.0
 15
10.0
 25
10.0
 16
0.0
 26
0.0
 36
1.0
 17
0.0
 27
0.0
 37
0.0
 40
14.85
 41
1.524503
 42
50.0
 43
0.0
 44
0.0
 50
0.0
 51
0.0
 71
     0
 72
   100
 73
     1
 74
     0
 75
     0
 76
     0
 77
     0
 78
     1
  0
ENDTAB
  0
TABLE
  2
LTYPE
 70
     1
  0
LTYPE
  2
CONTINUOUS
 70
    64
  3
Solid line
 72
    65
 73
     0
 40
0.0
  0
ENDTAB
  0
TABLE
  2
LAYER
 70
     2
  0
LAYER
  2
0
 70
    64
 62
     7
  6
CONTINUOUS
  0
LAYER
  2
DEFPOINTS
 70
    64
 62
     7
  6
CONTINUOUS
  0
ENDTAB
  0
TABLE
  2
STYLE
 70
     2
  0
STYLE
  2
STANDARD
 70
     0
 40
0.0
 41
1.0
 50
0.0
 71
     0
 42
0.1
  3
txt
  4

  0
STYLE
  2
ROMANC
 70
    64
 40
0.0
 41
1.0
 50
0.0
 71
     0
 42
0.1
  3
romanc
  4

  0
ENDTAB
  0
TABLE
  2
VIEW
 70
     0
  0
ENDTAB
  0
TABLE
  2
UCS
 70
     0
  0
ENDTAB
  0
TABLE
  2
APPID
 70
     1
  0
APPID
  2
ACAD
 70
    64
  0
ENDTAB
  0
TABLE
  2
DIMSTYLE
 70
     1
  0
DIMSTYLE
  2
SILVIA
 70
     0
  3

  4

  5

  6

  7

 40
1.5
 41
0.1
 42
0.01
 43
7.0
 44
0.01
 45
0.0
 46
0.0
 47
0.0
 48
0.0
140
0.05
141
0.1
142
0.0
143
25.4
144
1.0
145
0.0
146
70.0
147
0.09
 71
     0
 72
     0
 73
     0
 74
     0
 75
     0
 76
     0
 77
     1
 78
     0
170
     0
171
     2
172
     1
173
     0
174
     1
175
     0
176
     0
177
     0
178
     0
  0
ENDTAB
  0
ENDSEC
  0
SECTION
  2
BLOCKS
  0
BLOCK
  8
0
  2
*D0
 70
    65
 10
0.0
 20
0.0
 30
0.0
  3
*D
  0
LINE
  8
0
  6
BYBLOCK
 62
     0
 10
325.780206
 20
35.605646
 30
0.0
 11
325.780206
 21
36.22528
 31
0.0
  0
LINE
  8
0
  6
BYBLOCK
 62
     0
 10
327.175016
 20
35.401449
 30
0.0
 11
327.175016
 21
36.22528
 31
0.0
  0
LINE
  8
0
  6
BYBLOCK
 62
     0
 10
325.930206
 20
36.21028
 30
0.0
 11
327.025016
 21
36.21028
 31
0.0
  0
SOLID
  8
0
  6
BYBLOCK
 62
     0
 10
325.930206
 20
36.23528
 30
0.0
 11
325.930206
 21
36.18528
 31
0.0
 12
325.780206
 22
36.21028
 32
0.0
 13
325.780206
 23
36.21028
 33
0.0
  0
SOLID
  8
0
  6
BYBLOCK
 62
     0
 10
327.025016
 20
36.23528
 30
0.0
 11
327.025016
 21
36.18528
 31
0.0
 12
327.175016
 22
36.21028
 32
0.0
 13
327.175016
 23
36.21028
 33
0.0
  0
TEXT
  8
0
  6
BYBLOCK
 62
     0
 10
326.347254
 20
36.24778
 30
0.0
 40
0.075
  1
1.39
  7
ROMANC
 72
     1
 11
326.477611
 21
36.28528
 31
0.0
 73
     2
  0
POINT
  8
DEFPOINTS
  6
BYBLOCK
 62
     0
 10
325.780206
 20
35.590646
 30
0.0
  0
POINT
  8
DEFPOINTS
  6
BYBLOCK
 62
     0
 10
327.175016
 20
35.386449
 30
0.0
  0
POINT
  8
DEFPOINTS
  6
BYBLOCK
 62
     0
 10
327.175016
 20
36.21028
 30
0.0
  0
ENDBLK
  8
0
  0
BLOCK
  8
0
  2
*D1
 70
    65
 10
0.0
 20
0.0
 30
0.0
  3
*D
  0
LINE
  8
0
  6
BYBLOCK
 62
     0
 10
322.194347
 20
34.325966
 30
0.0
 11
322.194347
 21
33.681539
 31
0.0
  0
LINE
  8
0
  6
BYBLOCK
 62
     0
 10
325.294347
 20
34.625966
 30
0.0
 11
325.294347
 21
33.681539
 31
0.0
  0
LINE
  8
0
  6
BYBLOCK
 62
     0
 10
322.344347
 20
33.696539
 30
0.0
 11
325.144347
 21
33.696539
 31
0.0
  0
SOLID
  8
0
  6
BYBLOCK
 62
     0
 10
322.344347
 20
33.721539
 30
0.0
 11
322.344347
 21
33.671539
 31
0.0
 12
322.194347
 22
33.696539
 32
0.0
 13
322.194347
 23
33.696539
 33
0.0
  0
SOLID
  8
0
  6
BYBLOCK
 62
     0
 10
325.144347
 20
33.721539
 30
0.0
 11
325.144347
 21
33.671539
 31
0.0
 12
325.294347
 22
33.696539
 32
0.0
 13
325.294347
 23
33.696539
 33
0.0
  0
TEXT
  8
0
  6
BYBLOCK
 62
     0
 10
323.619347
 20
33.734039
 30
0.0
 40
0.075
  1
3.10
  7
ROMANC
 72
     1
 11
323.744347
 21
33.771539
 31
0.0
 73
     2
  0
POINT
  8
DEFPOINTS
  6
BYBLOCK
 62
     0
 10
322.194347
 20
34.340966
 30
0.0
  0
POINT
  8
DEFPOINTS
  6
BYBLOCK
 62
     0
 10
325.294347
 20
34.640966
 30
0.0
  0
POINT
  8
DEFPOINTS
  6
BYBLOCK
 62
     0
 10
325.294347
 20
33.696539
 30
0.0
  0
ENDBLK
  8
0
  0
BLOCK
  8
0
  2
*D2
 70
    65
 10
0.0
 20
0.0
 30
0.0
  3
*D
  0
LINE
  8
0
  6
BYBLOCK
 62
     0
 10
322.194347
 20
34.325966
 30
0.0
 11
322.194347
 21
33.787159
 31
0.0
  0
LINE
  8
0
  6
BYBLOCK
 62
     0
 10
325.294347
 20
34.625966
 30
0.0
 11
325.294347
 21
33.787159
 31
0.0
  0
LINE
  8
0
  6
BYBLOCK
 62
     0
 10
322.344347
 20
33.802159
 30
0.0
 11
325.144347
 21
33.802159
 31
0.0
  0
SOLID
  8
0
  6
BYBLOCK
 62
     0
 10
322.344347
 20
33.827159
 30
0.0
 11
322.344347
 21
33.777159
 31
0.0
 12
322.194347
 22
33.802159
 32
0.0
 13
322.194347
 23
33.802159
 33
0.0
  0
SOLID
  8
0
  6
BYBLOCK
 62
     0
 10
325.144347
 20
33.827159
 30
0.0
 11
325.144347
 21
33.777159
 31
0.0
 12
325.294347
 22
33.802159
 32
0.0
 13
325.294347
 23
33.802159
 33
0.0
  0
TEXT
  8
0
  6
BYBLOCK
 62
     0
 10
323.619347
 20
33.839659
 30
0.0
 40
0.075
  1
3.10
  7
ROMANC
 72
     1
 11
323.744347
 21
33.877159
 31
0.0
 73
     2
  0
POINT
  8
DEFPOINTS
  6
BYBLOCK
 62
     0
 10
322.194347
 20
34.340966
 30
0.0
  0
POINT
  8
DEFPOINTS
  6
BYBLOCK
 62
     0
 10
325.294347
 20
34.640966
 30
0.0
  0
POINT
  8
DEFPOINTS
  6
BYBLOCK
 62
     0
 10
325.294347
 20
33.802159
 30
0.0
  0
ENDBLK
  8
0
  0
BLOCK
  8
0
  2
*D3
 70
    65
 10
0.0
 20
0.0
 30
0.0
  3
*D
  0
LINE
  8
0
  6
BYBLOCK
 62
     0
 10
322.194347
 20
34.625966
 30
0.0
 11
322.194347
 21
33.787159
 31
0.0
  0
LINE
  8
0
  6
BYBLOCK
 62
     0
 10
321.494347
 20
34.625966
 30
0.0
 11
321.494347
 21
33.787159
 31
0.0
  0
LINE
  8
0
  6
BYBLOCK
 62
     0
 10
322.344347
 20
33.802159
 30
0.0
 11
322.494347
 21
33.802159
 31
0.0
  0
LINE
  8
0
  6
BYBLOCK
 62
     0
 10
321.344347
 20
33.802159
 30
0.0
 11
321.194347
 21
33.802159
 31
0.0
  0
SOLID
  8
0
  6
BYBLOCK
 62
     0
 10
322.344347
 20
33.827159
 30
0.0
 11
322.344347
 21
33.777159
 31
0.0
 12
322.194347
 22
33.802159
 32
0.0
 13
322.194347
 23
33.802159
 33
0.0
  0
SOLID
  8
0
  6
BYBLOCK
 62
     0
 10
321.344347
 20
33.827159
 30
0.0
 11
321.344347
 21
33.777159
 31
0.0
 12
321.494347
 22
33.802159
 32
0.0
 13
321.494347
 23
33.802159
 33
0.0
  0
LINE
  8
0
  6
BYBLOCK
 62
     0
 10
322.194347
 20
33.802159
 30
0.0
 11
321.494347
 21
33.802159
 31
0.0
  0
TEXT
  8
0
  6
BYBLOCK
 62
     0
 10
321.687204
 20
33.839659
 30
0.0
 40
0.075
  1
 0.70
  7
ROMANC
 72
     1
 11
321.844347
 21
33.877159
 31
0.0
 73
     2
  0
POINT
  8
DEFPOINTS
  6
BYBLOCK
 62
     0
 10
322.194347
 20
34.640966
 30
0.0
  0
POINT
  8
DEFPOINTS
  6
BYBLOCK
 62
     0
 10
321.494347
 20
34.640966
 30
0.0
  0
POINT
  8
DEFPOINTS
  6
BYBLOCK
 62
     0
 10
321.494347
 20
33.802159
 30
0.0
  0
ENDBLK
  8
0
  0
BLOCK
  8
0
  2
*D4
 70
    65
 10
0.0
 20
0.0
 30
0.0
  3
*D
  0
LINE
  8
0
  6
BYBLOCK
 62
     0
 10
325.294347
 20
34.625966
 30
0.0
 11
325.294347
 21
33.787159
 31
0.0
  0
LINE
  8
0
  6
BYBLOCK
 62
     0
 10
325.994347
 20
34.625966
 30
0.0
 11
325.994347
 21
33.787159
 31
0.0
  0
LINE
  8
0
  6
BYBLOCK
 62
     0
 10
325.144347
 20
33.802159
 30
0.0
 11
324.994347
 21
33.802159
 31
0.0
  0
LINE
  8
0
  6
BYBLOCK
 62
     0
 10
326.144347
 20
33.802159
 30
0.0
 11
326.294347
 21
33.802159
 31
0.0
  0
SOLID
  8
0
  6
BYBLOCK
 62
     0
 10
325.144347
 20
33.827159
 30
0.0
 11
325.144347
 21
33.777159
 31
0.0
 12
325.294347
 22
33.802159
 32
0.0
 13
325.294347
 23
33.802159
 33
0.0
  0
SOLID
  8
0
  6
BYBLOCK
 62
     0
 10
326.144347
 20
33.827159
 30
0.0
 11
326.144347
 21
33.777159
 31
0.0
 12
325.994347
 22
33.802159
 32
0.0
 13
325.994347
 23
33.802159
 33
0.0
  0
LINE
  8
0
  6
BYBLOCK
 62
     0
 10
325.294347
 20
33.802159
 30
0.0
 11
325.994347
 21
33.802159
 31
0.0
  0
TEXT
  8
0
  6
BYBLOCK
 62
     0
 10
325.519347
 20
33.839659
 30
0.0
 40
0.075
  1
0.70
  7
ROMANC
 72
     1
 11
325.644347
 21
33.877159
 31
0.0
 73
     2
  0
POINT
  8
DEFPOINTS
  6
BYBLOCK
 62
     0
 10
325.294347
 20
34.640966
 30
0.0
  0
POINT
  8
DEFPOINTS
  6
BYBLOCK
 62
     0
 10
325.994347
 20
34.640966
 30
0.0
  0
POINT
  8
DEFPOINTS
  6
BYBLOCK
 62
     0
 10
325.994347
 20
33.802159
 30
0.0
  0
ENDBLK
  8
0
  0
BLOCK
  8
0
  2
*D5
 70
    65
 10
0.0
 20
0.0
 30
0.0
  3
*D
  0
LINE
  8
0
  6
BYBLOCK
 62
     0
 10
321.494347
 20
34.625966
 30
0.0
 11
321.494347
 21
33.41397
 31
0.0
  0
LINE
  8
0
  6
BYBLOCK
 62
     0
 10
325.994347
 20
34.625966
 30
0.0
 11
325.994347
 21
33.41397
 31
0.0
  0
LINE
  8
0
  6
BYBLOCK
 62
     0
 10
321.644347
 20
33.42897
 30
0.0
 11
325.844347
 21
33.42897
 31
0.0
  0
SOLID
  8
0
  6
BYBLOCK
 62
     0
 10
321.644347
 20
33.45397
 30
0.0
 11
321.644347
 21
33.40397
 31
0.0
 12
321.494347
 22
33.42897
 32
0.0
 13
321.494347
 23
33.42897
 33
0.0
  0
SOLID
  8
0
  6
BYBLOCK
 62
     0
 10
325.844347
 20
33.45397
 30
0.0
 11
325.844347
 21
33.40397
 31
0.0
 12
325.994347
 22
33.42897
 32
0.0
 13
325.994347
 23
33.42897
 33
0.0
  0
TEXT
  8
0
  6
BYBLOCK
 62
     0
 10
323.621133
 20
33.46647
 30
0.0
 40
0.075
  1
4.50
  7
ROMANC
 72
     1
 11
323.744347
 21
33.50397
 31
0.0
 73
     2
  0
POINT
  8
DEFPOINTS
  6
BYBLOCK
 62
     0
 10
321.494347
 20
34.640966
 30
0.0
  0
POINT
  8
DEFPOINTS
  6
BYBLOCK
 62
     0
 10
325.994347
 20
34.640966
 30
0.0
  0
POINT
  8
DEFPOINTS
  6
BYBLOCK
 62
     0
 10
325.994347
 20
33.42897
 30
0.0
  0
ENDBLK
  8
0
  0
BLOCK
  8
0
  2
*D6
 70
    65
 10
0.0
 20
0.0
 30
0.0
  3
*D
  0
LINE
  8
0
  6
BYBLOCK
 62
     0
 10
321.494347
 20
35.855966
 30
0.0
 11
321.494347
 21
35.855966
 31
0.0
  0
LINE
  8
0
  6
BYBLOCK
 62
     0
 10
325.994347
 20
35.855966
 30
0.0
 11
325.994347
 21
35.855966
 31
0.0
  0
LINE
  8
0
  6
BYBLOCK
 62
     0
 10
321.644347
 20
35.840966
 30
0.0
 11
325.844347
 21
35.840966
 31
0.0
  0
SOLID
  8
0
  6
BYBLOCK
 62
     0
 10
321.644347
 20
35.865966
 30
0.0
 11
321.644347
 21
35.815966
 31
0.0
 12
321.494347
 22
35.840966
 32
0.0
 13
321.494347
 23
35.840966
 33
0.0
  0
SOLID
  8
0
  6
BYBLOCK
 62
     0
 10
325.844347
 20
35.865966
 30
0.0
 11
325.844347
 21
35.815966
 31
0.0
 12
325.994347
 22
35.840966
 32
0.0
 13
325.994347
 23
35.840966
 33
0.0
  0
TEXT
  8
0
  6
BYBLOCK
 62
     0
 10
323.621133
 20
35.878466
 30
0.0
 40
0.075
  1
4.50
  7
ROMANC
 72
     1
 11
323.744347
 21
35.915966
 31
0.0
 73
     2
  0
POINT
  8
DEFPOINTS
  6
BYBLOCK
 62
     0
 10
321.494347
 20
35.840966
 30
0.0
  0
POINT
  8
DEFPOINTS
  6
BYBLOCK
 62
     0
 10
325.994347
 20
35.840966
 30
0.0
  0
POINT
  8
DEFPOINTS
  6
BYBLOCK
 62
     0
 10
325.994347
 20
35.840966
 30
0.0
  0
ENDBLK
  8
0
  0
BLOCK
  8
0
  2
*D7
 70
    65
 10
0.0
 20
0.0
 30
0.0
  3
*D
  0
LINE
  8
0
  6
BYBLOCK
 62
     0
 10
323.759347
 20
34.280966
 30
0.0
 11
326.372854
 21
34.280966
 31
0.0
  0
LINE
  8
0
  6
BYBLOCK
 62
     0
 10
325.309347
 20
34.340966
 30
0.0
 11
326.372854
 21
34.340966
 31
0.0
  0
LINE
  8
0
  6
BYBLOCK
 62
     0
 10
326.357854
 20
34.130966
 30
0.0
 11
326.357854
 21
33.980966
 31
0.0
  0
LINE
  8
0
  6
BYBLOCK
 62
     0
 10
326.357854
 20
34.490966
 30
0.0
 11
326.357854
 21
34.640966
 31
0.0
  0
SOLID
  8
0
  6
BYBLOCK
 62
     0
 10
326.332854
 20
34.130966
 30
0.0
 11
326.382854
 21
34.130966
 31
0.0
 12
326.357854
 22
34.280966
 32
0.0
 13
326.357854
 23
34.280966
 33
0.0
  0
SOLID
  8
0
  6
BYBLOCK
 62
     0
 10
326.332854
 20
34.490966
 30
0.0
 11
326.382854
 21
34.490966
 31
0.0
 12
326.357854
 22
34.340966
 32
0.0
 13
326.357854
 23
34.340966
 33
0.0
  0
LINE
  8
0
  6
BYBLOCK
 62
     0
 10
326.357854
 20
34.280966
 30
0.0
 11
326.357854
 21
34.340966
 31
0.0
  0
TEXT
  8
0
  6
BYBLOCK
 62
     0
 10
326.320354
 20
34.185966
 30
0.0
 40
0.075
  1
0.06
 50
90.0
  7
ROMANC
 72
     1
 11
326.282854
 21
34.310966
 31
0.0
 73
     2
  0
POINT
  8
DEFPOINTS
  6
BYBLOCK
 62
     0
 10
323.744347
 20
34.280966
 30
0.0
  0
POINT
  8
DEFPOINTS
  6
BYBLOCK
 62
     0
 10
325.294347
 20
34.340966
 30
0.0
  0
POINT
  8
DEFPOINTS
  6
BYBLOCK
 62
     0
 10
326.357854
 20
34.340966
 30
0.0
  0
ENDBLK
  8
0
  0
BLOCK
  8
0
  2
*D8
 70
    65
 10
0.0
 20
0.0
 30
0.0
  3
*D
  0
LINE
  8
0
  6
BYBLOCK
 62
     0
 10
323.759347
 20
34.280966
 30
0.0
 11
326.372854
 21
34.280966
 31
0.0
  0
LINE
  8
0
  6
BYBLOCK
 62
     0
 10
325.309347
 20
34.340966
 30
0.0
 11
326.372854
 21
34.340966
 31
0.0
  0
LINE
  8
0
  6
BYBLOCK
 62
     0
 10
326.357854
 20
34.130966
 30
0.0
 11
326.357854
 21
33.980966
 31
0.0
  0
LINE
  8
0
  6
BYBLOCK
 62
     0
 10
326.357854
 20
34.490966
 30
0.0
 11
326.357854
 21
34.640966
 31
0.0
  0
SOLID
  8
0
  6
BYBLOCK
 62
     0
 10
326.332854
 20
34.130966
 30
0.0
 11
326.382854
 21
34.130966
 31
0.0
 12
326.357854
 22
34.280966
 32
0.0
 13
326.357854
 23
34.280966
 33
0.0
  0
SOLID
  8
0
  6
BYBLOCK
 62
     0
 10
326.332854
 20
34.490966
 30
0.0
 11
326.382854
 21
34.490966
 31
0.0
 12
326.357854
 22
34.340966
 32
0.0
 13
326.357854
 23
34.340966
 33
0.0
  0
LINE
  8
0
  6
BYBLOCK
 62
     0
 10
326.357854
 20
34.280966
 30
0.0
 11
326.357854
 21
34.340966
 31
0.0
  0
TEXT
  8
0
  6
BYBLOCK
 62
     0
 10
326.320354
 20
34.022182
 30
0.0
 40
0.075
  1
0.06
 50
90.0
  7
ROMANC
 72
     1
 11
326.282854
 21
34.147182
 31
0.0
 73
     2
  0
POINT
  8
DEFPOINTS
  6
BYBLOCK
 62
     0
 10
323.744347
 20
34.280966
 30
0.0
  0
POINT
  8
DEFPOINTS
  6
BYBLOCK
 62
     0
 10
325.294347
 20
34.340966
 30
0.0
  0
POINT
  8
DEFPOINTS
  6
BYBLOCK
 62
     0
 10
326.357854
 20
34.340966
 30
0.0
  0
ENDBLK
  8
0
  0
BLOCK
  8
0
  2
*D9
 70
    65
 10
0.0
 20
0.0
 30
0.0
  3
*D
  0
LINE
  8
0
  6
BYBLOCK
 62
     0
 10
323.759347
 20
34.280966
 30
0.0
 11
326.372854
 21
34.280966
 31
0.0
  0
LINE
  8
0
  6
BYBLOCK
 62
     0
 10
325.309347
 20
34.340966
 30
0.0
 11
326.372854
 21
34.340966
 31
0.0
  0
LINE
  8
0
  6
BYBLOCK
 62
     0
 10
326.357854
 20
34.130966
 30
0.0
 11
326.357854
 21
33.980966
 31
0.0
  0
LINE
  8
0
  6
BYBLOCK
 62
     0
 10
326.357854
 20
34.490966
 30
0.0
 11
326.357854
 21
34.640966
 31
0.0
  0
SOLID
  8
0
  6
BYBLOCK
 62
     0
 10
326.332854
 20
34.130966
 30
0.0
 11
326.382854
 21
34.130966
 31
0.0
 12
326.357854
 22
34.280966
 32
0.0
 13
326.357854
 23
34.280966
 33
0.0
  0
SOLID
  8
0
  6
BYBLOCK
 62
     0
 10
326.332854
 20
34.490966
 30
0.0
 11
326.382854
 21
34.490966
 31
0.0
 12
326.357854
 22
34.340966
 32
0.0
 13
326.357854
 23
34.340966
 33
0.0
  0
LINE
  8
0
  6
BYBLOCK
 62
     0
 10
326.357854
 20
34.280966
 30
0.0
 11
326.357854
 21
34.340966
 31
0.0
  0
TEXT
  8
0
  6
BYBLOCK
 62
     0
 10
326.320354
 20
33.986975
 30
0.0
 40
0.075
  1
0.06
 50
90.0
  7
ROMANC
 72
     1
 11
326.282854
 21
34.111975
 31
0.0
 73
     2
  0
POINT
  8
DEFPOINTS
  6
BYBLOCK
 62
     0
 10
323.744347
 20
34.280966
 30
0.0
  0
POINT
  8
DEFPOINTS
  6
BYBLOCK
 62
     0
 10
325.294347
 20
34.340966
 30
0.0
  0
POINT
  8
DEFPOINTS
  6
BYBLOCK
 62
     0
 10
326.357854
 20
34.340966
 30
0.0
  0
ENDBLK
  8
0
  0
BLOCK
  8
0
  2
*D10
 70
    65
 10
0.0
 20
0.0
 30
0.0
  3
*D
  0
LINE
  8
0
  6
BYBLOCK
 62
     0
 10
325.309347
 20
34.340966
 30
0.0
 11
326.357083
 21
34.340966
 31
0.0
  0
LINE
  8
0
  6
BYBLOCK
 62
     0
 10
325.309347
 20
34.625966
 30
0.0
 11
326.357083
 21
34.625966
 31
0.0
  0
LINE
  8
0
  6
BYBLOCK
 62
     0
 10
326.342083
 20
34.190966
 30
0.0
 11
326.342083
 21
34.040966
 31
0.0
  0
LINE
  8
0
  6
BYBLOCK
 62
     0
 10
326.342083
 20
34.775966
 30
0.0
 11
326.342083
 21
34.925966
 31
0.0
  0
SOLID
  8
0
  6
BYBLOCK
 62
     0
 10
326.317083
 20
34.190966
 30
0.0
 11
326.367083
 21
34.190966
 31
0.0
 12
326.342083
 22
34.340966
 32
0.0
 13
326.342083
 23
34.340966
 33
0.0
  0
SOLID
  8
0
  6
BYBLOCK
 62
     0
 10
326.317083
 20
34.775966
 30
0.0
 11
326.367083
 21
34.775966
 31
0.0
 12
326.342083
 22
34.625966
 32
0.0
 13
326.342083
 23
34.625966
 33
0.0
  0
LINE
  8
0
  6
BYBLOCK
 62
     0
 10
326.342083
 20
34.340966
 30
0.0
 11
326.342083
 21
34.625966
 31
0.0
  0
TEXT
  8
0
  6
BYBLOCK
 62
     0
 10
326.304583
 20
34.358466
 30
0.0
 40
0.075
  1
0.28
 50
90.0
  7
ROMANC
 72
     1
 11
326.267083
 21
34.483466
 31
0.0
 73
     2
  0
POINT
  8
DEFPOINTS
  6
BYBLOCK
 62
     0
 10
325.294347
 20
34.340966
 30
0.0
  0
POINT
  8
DEFPOINTS
  6
BYBLOCK
 62
     0
 10
325.294347
 20
34.625966
 30
0.0
  0
POINT
  8
DEFPOINTS
  6
BYBLOCK
 62
     0
 10
326.342083
 20
34.625966
 30
0.0
  0
ENDBLK
  8
0
  0
BLOCK
  8
0
  2
*D11
 70
    65
 10
0.0
 20
0.0
 30
0.0
  3
*D
  0
LINE
  8
0
  6
BYBLOCK
 62
     0
 10
325.309347
 20
34.640966
 30
0.0
 11
326.372854
 21
34.640966
 31
0.0
  0
LINE
  8
0
  6
BYBLOCK
 62
     0
 10
325.309347
 20
34.340966
 30
0.0
 11
326.372854
 21
34.340966
 31
0.0
  0
LINE
  8
0
  6
BYBLOCK
 62
     0
 10
326.357854
 20
34.790966
 30
0.0
 11
326.357854
 21
34.940966
 31
0.0
  0
LINE
  8
0
  6
BYBLOCK
 62
     0
 10
326.357854
 20
34.190966
 30
0.0
 11
326.357854
 21
34.040966
 31
0.0
  0
SOLID
  8
0
  6
BYBLOCK
 62
     0
 10
326.332854
 20
34.790966
 30
0.0
 11
326.382854
 21
34.790966
 31
0.0
 12
326.357854
 22
34.640966
 32
0.0
 13
326.357854
 23
34.640966
 33
0.0
  0
SOLID
  8
0
  6
BYBLOCK
 62
     0
 10
326.332854
 20
34.190966
 30
0.0
 11
326.382854
 21
34.190966
 31
0.0
 12
326.357854
 22
34.340966
 32
0.0
 13
326.357854
 23
34.340966
 33
0.0
  0
LINE
  8
0
  6
BYBLOCK
 62
     0
 10
326.357854
 20
34.640966
 30
0.0
 11
326.357854
 21
34.340966
 31
0.0
  0
TEXT
  8
0
  6
BYBLOCK
 62
     0
 10
326.320354
 20
34.365966
 30
0.0
 40
0.075
  1
0.30
 50
90.0
  7
ROMANC
 72
     1
 11
326.282854
 21
34.490966
 31
0.0
 73
     2
  0
POINT
  8
DEFPOINTS
  6
BYBLOCK
 62
     0
 10
325.294347
 20
34.640966
 30
0.0
  0
POINT
  8
DEFPOINTS
  6
BYBLOCK
 62
     0
 10
325.294347
 20
34.340966
 30
0.0
  0
POINT
  8
DEFPOINTS
  6
BYBLOCK
 62
     0
 10
326.357854
 20
34.340966
 30
0.0
  0
ENDBLK
  8
0
  0
BLOCK
  8
0
  2
*D12
 70
    65
 10
0.0
 20
0.0
 30
0.0
  3
*D
  0
LINE
  8
0
  6
BYBLOCK
 62
     0
 10
325.309347
 20
34.640966
 30
0.0
 11
326.626456
 21
34.640966
 31
0.0
  0
LINE
  8
0
  6
BYBLOCK
 62
     0
 10
325.309347
 20
34.340966
 30
0.0
 11
326.626456
 21
34.340966
 31
0.0
  0
LINE
  8
0
  6
BYBLOCK
 62
     0
 10
326.611456
 20
34.790966
 30
0.0
 11
326.611456
 21
34.940966
 31
0.0
  0
LINE
  8
0
  6
BYBLOCK
 62
     0
 10
326.611456
 20
34.190966
 30
0.0
 11
326.611456
 21
34.040966
 31
0.0
  0
SOLID
  8
0
  6
BYBLOCK
 62
     0
 10
326.586456
 20
34.790966
 30
0.0
 11
326.636456
 21
34.790966
 31
0.0
 12
326.611456
 22
34.640966
 32
0.0
 13
326.611456
 23
34.640966
 33
0.0
  0
SOLID
  8
0
  6
BYBLOCK
 62
     0
 10
326.586456
 20
34.190966
 30
0.0
 11
326.636456
 21
34.190966
 31
0.0
 12
326.611456
 22
34.340966
 32
0.0
 13
326.611456
 23
34.340966
 33
0.0
  0
LINE
  8
0
  6
BYBLOCK
 62
     0
 10
326.611456
 20
34.640966
 30
0.0
 11
326.611456
 21
34.340966
 31
0.0
  0
TEXT
  8
0
  6
BYBLOCK
 62
     0
 10
326.573956
 20
34.365966
 30
0.0
 40
0.075
  1
0.30
 50
90.0
  7
ROMANC
 72
     1
 11
326.536456
 21
34.490966
 31
0.0
 73
     2
  0
POINT
  8
DEFPOINTS
  6
BYBLOCK
 62
     0
 10
325.294347
 20
34.640966
 30
0.0
  0
POINT
  8
DEFPOINTS
  6
BYBLOCK
 62
     0
 10
325.294347
 20
34.340966
 30
0.0
  0
POINT
  8
DEFPOINTS
  6
BYBLOCK
 62
     0
 10
326.611456
 20
34.340966
 30
0.0
  0
ENDBLK
  8
0
  0
BLOCK
  8
0
  2
*D13
 70
    65
 10
0.0
 20
0.0
 30
0.0
  3
*D
  0
LINE
  8
0
  6
BYBLOCK
 62
     0
 10
326.009347
 20
34.640966
 30
0.0
 11
326.626456
 21
34.640966
 31
0.0
  0
LINE
  8
0
  6
BYBLOCK
 62
     0
 10
326.009347
 20
35.840966
 30
0.0
 11
326.626456
 21
35.840966
 31
0.0
  0
LINE
  8
0
  6
BYBLOCK
 62
     0
 10
326.611456
 20
34.790966
 30
0.0
 11
326.611456
 21
35.690966
 31
0.0
  0
SOLID
  8
0
  6
BYBLOCK
 62
     0
 10
326.586456
 20
34.790966
 30
0.0
 11
326.636456
 21
34.790966
 31
0.0
 12
326.611456
 22
34.640966
 32
0.0
 13
326.611456
 23
34.640966
 33
0.0
  0
SOLID
  8
0
  6
BYBLOCK
 62
     0
 10
326.586456
 20
35.690966
 30
0.0
 11
326.636456
 21
35.690966
 31
0.0
 12
326.611456
 22
35.840966
 32
0.0
 13
326.611456
 23
35.840966
 33
0.0
  0
TEXT
  8
0
  6
BYBLOCK
 62
     0
 10
326.573956
 20
35.110609
 30
0.0
 40
0.075
  1
1.20
 50
90.0
  7
ROMANC
 72
     1
 11
326.536456
 21
35.240966
 31
0.0
 73
     2
  0
POINT
  8
DEFPOINTS
  6
BYBLOCK
 62
     0
 10
325.994347
 20
34.640966
 30
0.0
  0
POINT
  8
DEFPOINTS
  6
BYBLOCK
 62
     0
 10
325.994347
 20
35.840966
 30
0.0
  0
POINT
  8
DEFPOINTS
  6
BYBLOCK
 62
     0
 10
326.611456
 20
35.840966
 30
0.0
  0
ENDBLK
  8
0
  0
BLOCK
  8
0
  2
*D14
 70
    65
 10
0.0
 20
0.0
 30
0.0
  3
*D
  0
LINE
  8
0
  6
BYBLOCK
 62
     0
 10
323.759347
 20
34.280966
 30
0.0
 11
327.119571
 21
34.280966
 31
0.0
  0
LINE
  8
0
  6
BYBLOCK
 62
     0
 10
323.759347
 20
37.240966
 30
0.0
 11
327.119571
 21
37.240966
 31
0.0
  0
LINE
  8
0
  6
BYBLOCK
 62
     0
 10
327.104571
 20
34.430966
 30
0.0
 11
327.104571
 21
37.090966
 31
0.0
  0
SOLID
  8
0
  6
BYBLOCK
 62
     0
 10
327.079571
 20
34.430966
 30
0.0
 11
327.129571
 21
34.430966
 31
0.0
 12
327.104571
 22
34.280966
 32
0.0
 13
327.104571
 23
34.280966
 33
0.0
  0
SOLID
  8
0
  6
BYBLOCK
 62
     0
 10
327.079571
 20
37.090966
 30
0.0
 11
327.129571
 21
37.090966
 31
0.0
 12
327.104571
 22
37.240966
 32
0.0
 13
327.104571
 23
37.240966
 33
0.0
  0
TEXT
  8
0
  6
BYBLOCK
 62
     0
 10
327.067071
 20
35.635966
 30
0.0
 40
0.075
  1
2.96
 50
90.0
  7
ROMANC
 72
     1
 11
327.029571
 21
35.760966
 31
0.0
 73
     2
  0
POINT
  8
DEFPOINTS
  6
BYBLOCK
 62
     0
 10
323.744347
 20
34.280966
 30
0.0
  0
POINT
  8
DEFPOINTS
  6
BYBLOCK
 62
     0
 10
323.744347
 20
37.240966
 30
0.0
  0
POINT
  8
DEFPOINTS
  6
BYBLOCK
 62
     0
 10
327.104571
 20
37.240966
 30
0.0
  0
ENDBLK
  8
0
  0
ENDSEC
  0
SECTION
  2
ENTITIES
  0
LINE
  8
0
 10
329.348696
 20
29.863623
 30
0.0
 11
329.348696
 21
44.713623
 31
0.0
  0
LINE
  8
0
 10
318.848696
 20
44.713623
 30
0.0
 11
318.848696
 21
29.863623
 31
0.0
  0
LINE
  8
0
 10
318.848696
 20
29.863623
 30
0.0
 11
329.348696
 21
29.863623
 31
0.0
  0
TEXT
  8
0
 10
321.378668
 20
42.309482
 30
0.0
 40
0.3
  1
TIPUS   NT1142
  7
ROMANC
  0
TEXT
  8
0
 10
321.340746
 20
40.527599
 30
0.0
 40
0.3
  1
P = 133.3 dm
  7
ROMANC
  0
TEXT
  8
0
 10
321.391762
 20
41.225178
 30
0.0
 40
0.3
  1
S = 1142 dm
  7
ROMANC
  0
TEXT
  8
0
 10
321.378668
 20
41.823768
 30
0.0
 40
0.3
  1
ESCALA  1:50
  7
ROMANC
  0
TEXT
  8
0
 10
324.850292
 20
41.531094
 30
0.0
 40
0.1
  1
2
  7
ROMANC
  0
LINE
  8
0
 10
329.348696
 20
44.713623
 30
0.0
 11
318.848696
 21
44.713623
 31
0.0
  0
LINE
  8
0
 10
325.309347
 20
34.340966
 30
0.0
 11
325.309347
 21
34.625966
 31
0.0
  0
LINE
  8
0
 10
325.309347
 20
34.625966
 30
0.0
 11
326.009347
 21
34.625966
 31
0.0
  0
LINE
  8
0
 10
326.009347
 20
34.625966
 30
0.0
 11
326.009347
 21
35.840966
 31
0.0
  0
ARC
  8
0
 10
325.098394
 20
35.840966
 30
0.0
 40
0.910953
 50
0.0
 51
33.651721
  0
ARC
  8
0
 10
324.451357
 20
35.410234
 30
0.0
 40
1.688247
 50
33.651721
 51
58.109208
  0
ARC
  8
0
 10
324.024477
 20
34.724176
 30
0.0
 40
2.496271
 50
58.109208
 51
75.547522
  0
ARC
  8
0
 10
323.744347
 20
33.637276
 30
0.0
 40
3.618691
 50
75.547522
 51
90.0
  0
ARC
  8
0
 10
323.744347
 20
33.637276
 30
0.0
 40
3.618691
 50
90.0
 51
104.452478
  0
ARC
  8
0
 10
323.464217
 20
34.724176
 30
0.0
 40
2.496271
 50
104.452478
 51
121.890792
  0
ARC
  8
0
 10
323.037336
 20
35.410234
 30
0.0
 40
1.688247
 50
121.890792
 51
146.348279
  0
ARC
  8
0
 10
322.3903
 20
35.840966
 30
0.0
 40
0.910953
 50
146.348279
 51
180.0
  0
LINE
  8
0
 10
321.479347
 20
35.840966
 30
0.0
 11
321.479347
 21
34.625966
 31
0.0
  0
LINE
  8
0
 10
321.479347
 20
34.625966
 30
0.0
 11
322.179347
 21
34.625966
 31
0.0
  0
LINE
  8
0
 10
322.179347
 20
34.625966
 30
0.0
 11
322.179347
 21
34.340966
 31
0.0
  0
ARC
  8
0
 10
322.20765
 20
34.340966
 30
0.0
 40
0.028303
 50
180.0
 51
264.66102
  0
ARC
  8
0
 10
322.962744
 20
42.420859
 30
0.0
 40
8.143402
 50
264.66102
 51
267.783206
  0
ARC
  8
0
 10
323.423841
 20
54.332552
 30
0.0
 40
20.064016
 50
267.783206
 51
269.081394
  0
ARC
  8
0
 10
323.744347
 20
74.32157
 30
0.0
 40
40.055603
 50
269.081394
 51
270.0
  0
ARC
  8
0
 10
323.744347
 20
74.32157
 30
0.0
 40
40.055603
 50
270.0
 51
270.918606
  0
ARC
  8
0
 10
324.064852
 20
54.332552
 30
0.0
 40
20.064016
 50
270.918606
 51
272.216794
  0
ARC
  8
0
 10
324.52595
 20
42.420859
 30
0.0
 40
8.143402
 50
272.216794
 51
275.33898
  0
ARC
  8
0
 10
325.281044
 20
34.340966
 30
0.0
 40
0.028303
 50
275.33898
 51
0.0
  0
LINE
  8
0
 10
325.301847
 20
34.340966
 30
0.0
 11
325.301847
 21
34.633466
 31
0.0
  0
LINE
  8
0
 10
325.301847
 20
34.633466
 30
0.0
 11
326.001847
 21
34.633466
 31
0.0
  0
LINE
  8
0
 10
326.001847
 20
34.633466
 30
0.0
 11
326.001847
 21
35.840966
 31
0.0
  0
ARC
  8
0
 10
325.098394
 20
35.840966
 30
0.0
 40
0.903453
 50
360.0
 51
33.651721
  0
ARC
  8
0
 10
324.451357
 20
35.410234
 30
0.0
 40
1.680747
 50
33.651721
 51
58.109208
  0
ARC
  8
0
 10
324.024477
 20
34.724176
 30
0.0
 40
2.488771
 50
58.109208
 51
75.547522
  0
ARC
  8
0
 10
323.744347
 20
33.637276
 30
0.0
 40
3.611191
 50
75.547522
 51
90.0
  0
ARC
  8
0
 10
323.744347
 20
33.637276
 30
0.0
 40
3.611191
 50
90.0
 51
104.452478
  0
ARC
  8
0
 10
323.464217
 20
34.724176
 30
0.0
 40
2.488771
 50
104.452478
 51
121.890792
  0
ARC
  8
0
 10
323.037336
 20
35.410234
 30
0.0
 40
1.680747
 50
121.890792
 51
146.348279
  0
ARC
  8
0
 10
322.3903
 20
35.840966
 30
0.0
 40
0.903453
 50
146.348279
 51
180.0
  0
LINE
  8
0
 10
321.486847
 20
35.840966
 30
0.0
 11
321.486847
 21
34.633466
 31
0.0
  0
LINE
  8
0
 10
321.486847
 20
34.633466
 30
0.0
 11
322.186847
 21
34.633466
 31
0.0
  0
LINE
  8
0
 10
322.186847
 20
34.633466
 30
0.0
 11
322.186847
 21
34.340966
 31
0.0
  0
ARC
  8
0
 10
322.20765
 20
34.340966
 30
0.0
 40
0.020803
 50
180.0
 51
264.66102
  0
ARC
  8
0
 10
322.962744
 20
42.420859
 30
0.0
 40
8.135902
 50
264.66102
 51
267.783206
  0
ARC
  8
0
 10
323.423841
 20
54.332552
 30
0.0
 40
20.056516
 50
267.783206
 51
269.081394
  0
ARC
  8
0
 10
323.744347
 20
74.32157
 30
0.0
 40
40.048103
 50
269.081394
 51
270.0
  0
ARC
  8
0
 10
323.744347
 20
74.32157
 30
0.0
 40
40.048103
 50
270.0
 51
270.918606
  0
ARC
  8
0
 10
324.064852
 20
54.332552
 30
0.0
 40
20.056516
 50
270.918606
 51
272.216794
  0
ARC
  8
0
 10
324.52595
 20
42.420859
 30
0.0
 40
8.135902
 50
272.216794
 51
275.33898
  0
ARC
  8
0
 10
325.281044
 20
34.340966
 30
0.0
 40
0.020803
 50
275.33898
 51
0.0
  0
LINE
  8
0
 10
325.294347
 20
34.340966
 30
0.0
 11
325.294347
 21
34.640966
 31
0.0
  0
LINE
  8
0
 10
325.294347
 20
34.640966
 30
0.0
 11
325.994347
 21
34.640966
 31
0.0
  0
LINE
  8
0
 10
325.994347
 20
34.640966
 30
0.0
 11
325.994347
 21
35.840966
 31
0.0
  0
ARC
  8
0
 10
325.098394
 20
35.840966
 30
0.0
 40
0.895953
 50
0.0
 51
33.651721
  0
ARC
  8
0
 10
324.451357
 20
35.410234
 30
0.0
 40
1.673247
 50
33.651721
 51
58.109208
  0
ARC
  8
0
 10
324.024477
 20
34.724176
 30
0.0
 40
2.481271
 50
58.109208
 51
75.547522
  0
ARC
  8
0
 10
323.744347
 20
33.637276
 30
0.0
 40
3.603691
 50
75.547522
 51
90.0
  0
ARC
  8
0
 10
323.744347
 20
33.637276
 30
0.0
 40
3.603691
 50
90.0
 51
104.452478
  0
ARC
  8
0
 10
323.464217
 20
34.724176
 30
0.0
 40
2.481271
 50
104.452478
 51
121.890792
  0
ARC
  8
0
 10
323.037336
 20
35.410234
 30
0.0
 40
1.673247
 50
121.890792
 51
146.348279
  0
ARC
  8
0
 10
322.3903
 20
35.840966
 30
0.0
 40
0.895953
 50
146.348279
 51
180.0
  0
LINE
  8
0
 10
321.494347
 20
35.840966
 30
0.0
 11
321.494347
 21
34.640966
 31
0.0
  0
LINE
  8
0
 10
321.494347
 20
34.640966
 30
0.0
 11
322.194347
 21
34.640966
 31
0.0
  0
LINE
  8
0
 10
322.194347
 20
34.640966
 30
0.0
 11
322.194347
 21
34.340966
 31
0.0
  0
ARC
  8
0
 10
322.20765
 20
34.340966
 30
0.0
 40
0.013303
 50
180.0
 51
264.66102
  0
ARC
  8
0
 10
322.962744
 20
42.420859
 30
0.0
 40
8.128402
 50
264.66102
 51
267.783206
  0
ARC
  8
0
 10
323.423841
 20
54.332552
 30
0.0
 40
20.049016
 50
267.783206
 51
269.081394
  0
ARC
  8
0
 10
323.744347
 20
74.32157
 30
0.0
 40
40.040603
 50
269.081394
 51
270.0
  0
ARC
  8
0
 10
323.744347
 20
74.32157
 30
0.0
 40
40.040603
 50
270.0
 51
270.918606
  0
ARC
  8
0
 10
324.064852
 20
54.332552
 30
0.0
 40
20.049016
 50
270.918606
 51
272.216794
  0
ARC
  8
0
 10
324.52595
 20
42.420859
 30
0.0
 40
8.128402
 50
272.216794
 51
275.33898
  0
ARC
  8
0
 10
325.281044
 20
34.340966
 30
0.0
 40
0.013303
 50
275.33898
 51
0.0
  0
LINE
  8
0
  6
BYBLOCK
 62
     0
 10
323.759347
 20
34.280966
 30
0.0
 11
327.119571
 21
34.280966
 31
0.0
  0
LINE
  8
0
  6
BYBLOCK
 62
     0
 10
323.759347
 20
37.240966
 30
0.0
 11
327.119571
 21
37.240966
 31
0.0
  0
LINE
  8
0
  6
BYBLOCK
 62
     0
 10
327.104571
 20
34.430966
 30
0.0
 11
327.104571
 21
37.090966
 31
0.0
  0
SOLID
  8
0
  6
BYBLOCK
 62
     0
 10
327.079571
 20
34.430966
 30
0.0
 11
327.129571
 21
34.430966
 31
0.0
 12
327.104571
 22
34.280966
 32
0.0
 13
327.104571
 23
34.280966
 33
0.0
  0
SOLID
  8
0
  6
BYBLOCK
 62
     0
 10
327.079571
 20
37.090966
 30
0.0
 11
327.129571
 21
37.090966
 31
0.0
 12
327.104571
 22
37.240966
 32
0.0
 13
327.104571
 23
37.240966
 33
0.0
  0
TEXT
  8
0
  6
BYBLOCK
 62
     0
 10
327.067071
 20
35.635966
 30
0.0
 40
0.075
  1
2.96
 50
90.0
  7
ROMANC
 72
     1
 11
327.029571
 21
35.760966
 31
0.0
 73
     2
  0
POINT
  8
DEFPOINTS
  6
BYBLOCK
 62
     0
 10
323.744347
 20
34.280966
 30
0.0
  0
POINT
  8
DEFPOINTS
  6
BYBLOCK
 62
     0
 10
323.744347
 20
37.240966
 30
0.0
  0
POINT
  8
DEFPOINTS
  6
BYBLOCK
 62
     0
 10
327.104571
 20
37.240966
 30
0.0
  0
LINE
  8
0
  6
BYBLOCK
 62
     0
 10
326.009347
 20
34.640966
 30
0.0
 11
326.626456
 21
34.640966
 31
0.0
  0
LINE
  8
0
  6
BYBLOCK
 62
     0
 10
326.009347
 20
35.840966
 30
0.0
 11
326.626456
 21
35.840966
 31
0.0
  0
LINE
  8
0
  6
BYBLOCK
 62
     0
 10
326.611456
 20
34.790966
 30
0.0
 11
326.611456
 21
35.690966
 31
0.0
  0
SOLID
  8
0
  6
BYBLOCK
 62
     0
 10
326.586456
 20
34.790966
 30
0.0
 11
326.636456
 21
34.790966
 31
0.0
 12
326.611456
 22
34.640966
 32
0.0
 13
326.611456
 23
34.640966
 33
0.0
  0
SOLID
  8
0
  6
BYBLOCK
 62
     0
 10
326.586456
 20
35.690966
 30
0.0
 11
326.636456
 21
35.690966
 31
0.0
 12
326.611456
 22
35.840966
 32
0.0
 13
326.611456
 23
35.840966
 33
0.0
  0
TEXT
  8
0
  6
BYBLOCK
 62
     0
 10
326.573956
 20
35.110609
 30
0.0
 40
0.075
  1
1.20
 50
90.0
  7
ROMANC
 72
     1
 11
326.536456
 21
35.240966
 31
0.0
 73
     2
  0
POINT
  8
DEFPOINTS
  6
BYBLOCK
 62
     0
 10
325.994347
 20
34.640966
 30
0.0
  0
POINT
  8
DEFPOINTS
  6
BYBLOCK
 62
     0
 10
325.994347
 20
35.840966
 30
0.0
  0
POINT
  8
DEFPOINTS
  6
BYBLOCK
 62
     0
 10
326.611456
 20
35.840966
 30
0.0
  0
LINE
  8
0
  6
BYBLOCK
 62
     0
 10
325.309347
 20
34.640966
 30
0.0
 11
326.626456
 21
34.640966
 31
0.0
  0
LINE
  8
0
  6
BYBLOCK
 62
     0
 10
325.309347
 20
34.340966
 30
0.0
 11
326.626456
 21
34.340966
 31
0.0
  0
LINE
  8
0
  6
BYBLOCK
 62
     0
 10
326.611456
 20
34.790966
 30
0.0
 11
326.611456
 21
34.940966
 31
0.0
  0
LINE
  8
0
  6
BYBLOCK
 62
     0
 10
326.611456
 20
34.190966
 30
0.0
 11
326.611456
 21
34.040966
 31
0.0
  0
SOLID
  8
0
  6
BYBLOCK
 62
     0
 10
326.586456
 20
34.790966
 30
0.0
 11
326.636456
 21
34.790966
 31
0.0
 12
326.611456
 22
34.640966
 32
0.0
 13
326.611456
 23
34.640966
 33
0.0
  0
SOLID
  8
0
  6
BYBLOCK
 62
     0
 10
326.586456
 20
34.190966
 30
0.0
 11
326.636456
 21
34.190966
 31
0.0
 12
326.611456
 22
34.340966
 32
0.0
 13
326.611456
 23
34.340966
 33
0.0
  0
LINE
  8
0
  6
BYBLOCK
 62
     0
 10
326.611456
 20
34.640966
 30
0.0
 11
326.611456
 21
34.340966
 31
0.0
  0
TEXT
  8
0
  6
BYBLOCK
 62
     0
 10
326.573956
 20
34.365966
 30
0.0
 40
0.075
  1
0.30
 50
90.0
  7
ROMANC
 72
     1
 11
326.536456
 21
34.490966
 31
0.0
 73
     2
  0
POINT
  8
DEFPOINTS
  6
BYBLOCK
 62
     0
 10
325.294347
 20
34.640966
 30
0.0
  0
POINT
  8
DEFPOINTS
  6
BYBLOCK
 62
     0
 10
325.294347
 20
34.340966
 30
0.0
  0
POINT
  8
DEFPOINTS
  6
BYBLOCK
 62
     0
 10
326.611456
 20
34.340966
 30
0.0
  0
LINE
  8
0
  6
BYBLOCK
 62
     0
 10
323.759347
 20
34.280966
 30
0.0
 11
326.372854
 21
34.280966
 31
0.0
  0
LINE
  8
0
  6
BYBLOCK
 62
     0
 10
325.309347
 20
34.340966
 30
0.0
 11
326.372854
 21
34.340966
 31
0.0
  0
LINE
  8
0
  6
BYBLOCK
 62
     0
 10
326.357854
 20
34.130966
 30
0.0
 11
326.357854
 21
33.980966
 31
0.0
  0
LINE
  8
0
  6
BYBLOCK
 62
     0
 10
326.357854
 20
34.490966
 30
0.0
 11
326.357854
 21
34.640966
 31
0.0
  0
SOLID
  8
0
  6
BYBLOCK
 62
     0
 10
326.332854
 20
34.130966
 30
0.0
 11
326.382854
 21
34.130966
 31
0.0
 12
326.357854
 22
34.280966
 32
0.0
 13
326.357854
 23
34.280966
 33
0.0
  0
SOLID
  8
0
  6
BYBLOCK
 62
     0
 10
326.332854
 20
34.490966
 30
0.0
 11
326.382854
 21
34.490966
 31
0.0
 12
326.357854
 22
34.340966
 32
0.0
 13
326.357854
 23
34.340966
 33
0.0
  0
LINE
  8
0
  6
BYBLOCK
 62
     0
 10
326.357854
 20
34.280966
 30
0.0
 11
326.357854
 21
34.340966
 31
0.0
  0
TEXT
  8
0
  6
BYBLOCK
 62
     0
 10
326.320354
 20
33.986975
 30
0.0
 40
0.075
  1
0.06
 50
90.0
  7
ROMANC
 72
     1
 11
326.282854
 21
34.111975
 31
0.0
 73
     2
  0
POINT
  8
DEFPOINTS
  6
BYBLOCK
 62
     0
 10
323.744347
 20
34.280966
 30
0.0
  0
POINT
  8
DEFPOINTS
  6
BYBLOCK
 62
     0
 10
325.294347
 20
34.340966
 30
0.0
  0
POINT
  8
DEFPOINTS
  6
BYBLOCK
 62
     0
 10
326.357854
 20
34.340966
 30
0.0
  0
LINE
  8
0
  6
BYBLOCK
 62
     0
 10
321.494347
 20
35.855966
 30
0.0
 11
321.494347
 21
35.855966
 31
0.0
  0
LINE
  8
0
  6
BYBLOCK
 62
     0
 10
325.994347
 20
35.855966
 30
0.0
 11
325.994347
 21
35.855966
 31
0.0
  0
LINE
  8
0
  6
BYBLOCK
 62
     0
 10
321.644347
 20
35.840966
 30
0.0
 11
325.844347
 21
35.840966
 31
0.0
  0
SOLID
  8
0
  6
BYBLOCK
 62
     0
 10
321.644347
 20
35.865966
 30
0.0
 11
321.644347
 21
35.815966
 31
0.0
 12
321.494347
 22
35.840966
 32
0.0
 13
321.494347
 23
35.840966
 33
0.0
  0
SOLID
  8
0
  6
BYBLOCK
 62
     0
 10
325.844347
 20
35.865966
 30
0.0
 11
325.844347
 21
35.815966
 31
0.0
 12
325.994347
 22
35.840966
 32
0.0
 13
325.994347
 23
35.840966
 33
0.0
  0
TEXT
  8
0
  6
BYBLOCK
 62
     0
 10
323.621133
 20
35.878466
 30
0.0
 40
0.075
  1
4.50
  7
ROMANC
 72
     1
 11
323.744347
 21
35.915966
 31
0.0
 73
     2
  0
POINT
  8
DEFPOINTS
  6
BYBLOCK
 62
     0
 10
321.494347
 20
35.840966
 30
0.0
  0
POINT
  8
DEFPOINTS
  6
BYBLOCK
 62
     0
 10
325.994347
 20
35.840966
 30
0.0
  0
POINT
  8
DEFPOINTS
  6
BYBLOCK
 62
     0
 10
325.994347
 20
35.840966
 30
0.0
  0
LINE
  8
0
  6
BYBLOCK
 62
     0
 10
321.494347
 20
34.625966
 30
0.0
 11
321.494347
 21
33.41397
 31
0.0
  0
LINE
  8
0
  6
BYBLOCK
 62
     0
 10
325.994347
 20
34.625966
 30
0.0
 11
325.994347
 21
33.41397
 31
0.0
  0
LINE
  8
0
  6
BYBLOCK
 62
     0
 10
321.644347
 20
33.42897
 30
0.0
 11
325.844347
 21
33.42897
 31
0.0
  0
SOLID
  8
0
  6
BYBLOCK
 62
     0
 10
321.644347
 20
33.45397
 30
0.0
 11
321.644347
 21
33.40397
 31
0.0
 12
321.494347
 22
33.42897
 32
0.0
 13
321.494347
 23
33.42897
 33
0.0
  0
SOLID
  8
0
  6
BYBLOCK
 62
     0
 10
325.844347
 20
33.45397
 30
0.0
 11
325.844347
 21
33.40397
 31
0.0
 12
325.994347
 22
33.42897
 32
0.0
 13
325.994347
 23
33.42897
 33
0.0
  0
TEXT
  8
0
  6
BYBLOCK
 62
     0
 10
323.621133
 20
33.46647
 30
0.0
 40
0.075
  1
4.50
  7
ROMANC
 72
     1
 11
323.744347
 21
33.50397
 31
0.0
 73
     2
  0
POINT
  8
DEFPOINTS
  6
BYBLOCK
 62
     0
 10
321.494347
 20
34.640966
 30
0.0
  0
POINT
  8
DEFPOINTS
  6
BYBLOCK
 62
     0
 10
325.994347
 20
34.640966
 30
0.0
  0
POINT
  8
DEFPOINTS
  6
BYBLOCK
 62
     0
 10
325.994347
 20
33.42897
 30
0.0
  0
LINE
  8
0
  6
BYBLOCK
 62
     0
 10
325.294347
 20
34.625966
 30
0.0
 11
325.294347
 21
33.787159
 31
0.0
  0
LINE
  8
0
  6
BYBLOCK
 62
     0
 10
325.994347
 20
34.625966
 30
0.0
 11
325.994347
 21
33.787159
 31
0.0
  0
LINE
  8
0
  6
BYBLOCK
 62
     0
 10
325.144347
 20
33.802159
 30
0.0
 11
324.994347
 21
33.802159
 31
0.0
  0
LINE
  8
0
  6
BYBLOCK
 62
     0
 10
326.144347
 20
33.802159
 30
0.0
 11
326.294347
 21
33.802159
 31
0.0
  0
SOLID
  8
0
  6
BYBLOCK
 62
     0
 10
325.144347
 20
33.827159
 30
0.0
 11
325.144347
 21
33.777159
 31
0.0
 12
325.294347
 22
33.802159
 32
0.0
 13
325.294347
 23
33.802159
 33
0.0
  0
SOLID
  8
0
  6
BYBLOCK
 62
     0
 10
326.144347
 20
33.827159
 30
0.0
 11
326.144347
 21
33.777159
 31
0.0
 12
325.994347
 22
33.802159
 32
0.0
 13
325.994347
 23
33.802159
 33
0.0
  0
LINE
  8
0
  6
BYBLOCK
 62
     0
 10
325.294347
 20
33.802159
 30
0.0
 11
325.994347
 21
33.802159
 31
0.0
  0
TEXT
  8
0
  6
BYBLOCK
 62
     0
 10
325.519347
 20
33.839659
 30
0.0
 40
0.075
  1
0.70
  7
ROMANC
 72
     1
 11
325.644347
 21
33.877159
 31
0.0
 73
     2
  0
POINT
  8
DEFPOINTS
  6
BYBLOCK
 62
     0
 10
325.294347
 20
34.640966
 30
0.0
  0
POINT
  8
DEFPOINTS
  6
BYBLOCK
 62
     0
 10
325.994347
 20
34.640966
 30
0.0
  0
POINT
  8
DEFPOINTS
  6
BYBLOCK
 62
     0
 10
325.994347
 20
33.802159
 30
0.0
  0
LINE
  8
0
  6
BYBLOCK
 62
     0
 10
322.194347
 20
34.625966
 30
0.0
 11
322.194347
 21
33.787159
 31
0.0
  0
LINE
  8
0
  6
BYBLOCK
 62
     0
 10
321.494347
 20
34.625966
 30
0.0
 11
321.494347
 21
33.787159
 31
0.0
  0
LINE
  8
0
  6
BYBLOCK
 62
     0
 10
322.344347
 20
33.802159
 30
0.0
 11
322.494347
 21
33.802159
 31
0.0
  0
LINE
  8
0
  6
BYBLOCK
 62
     0
 10
321.344347
 20
33.802159
 30
0.0
 11
321.194347
 21
33.802159
 31
0.0
  0
SOLID
  8
0
  6
BYBLOCK
 62
     0
 10
322.344347
 20
33.827159
 30
0.0
 11
322.344347
 21
33.777159
 31
0.0
 12
322.194347
 22
33.802159
 32
0.0
 13
322.194347
 23
33.802159
 33
0.0
  0
SOLID
  8
0
  6
BYBLOCK
 62
     0
 10
321.344347
 20
33.827159
 30
0.0
 11
321.344347
 21
33.777159
 31
0.0
 12
321.494347
 22
33.802159
 32
0.0
 13
321.494347
 23
33.802159
 33
0.0
  0
LINE
  8
0
  6
BYBLOCK
 62
     0
 10
322.194347
 20
33.802159
 30
0.0
 11
321.494347
 21
33.802159
 31
0.0
  0
TEXT
  8
0
  6
BYBLOCK
 62
     0
 10
321.687204
 20
33.839659
 30
0.0
 40
0.075
  1
 0.70
  7
ROMANC
 72
     1
 11
321.844347
 21
33.877159
 31
0.0
 73
     2
  0
POINT
  8
DEFPOINTS
  6
BYBLOCK
 62
     0
 10
322.194347
 20
34.640966
 30
0.0
  0
POINT
  8
DEFPOINTS
  6
BYBLOCK
 62
     0
 10
321.494347
 20
34.640966
 30
0.0
  0
POINT
  8
DEFPOINTS
  6
BYBLOCK
 62
     0
 10
321.494347
 20
33.802159
 30
0.0
  0
LINE
  8
0
  6
BYBLOCK
 62
     0
 10
322.194347
 20
34.325966
 30
0.0
 11
322.194347
 21
33.787159
 31
0.0
  0
LINE
  8
0
  6
BYBLOCK
 62
     0
 10
325.294347
 20
34.625966
 30
0.0
 11
325.294347
 21
33.787159
 31
0.0
  0
LINE
  8
0
  6
BYBLOCK
 62
     0
 10
322.344347
 20
33.802159
 30
0.0
 11
325.144347
 21
33.802159
 31
0.0
  0
SOLID
  8
0
  6
BYBLOCK
 62
     0
 10
322.344347
 20
33.827159
 30
0.0
 11
322.344347
 21
33.777159
 31
0.0
 12
322.194347
 22
33.802159
 32
0.0
 13
322.194347
 23
33.802159
 33
0.0
  0
SOLID
  8
0
  6
BYBLOCK
 62
     0
 10
325.144347
 20
33.827159
 30
0.0
 11
325.144347
 21
33.777159
 31
0.0
 12
325.294347
 22
33.802159
 32
0.0
 13
325.294347
 23
33.802159
 33
0.0
  0
TEXT
  8
0
  6
BYBLOCK
 62
     0
 10
323.619347
 20
33.839659
 30
0.0
 40
0.075
  1
3.10
  7
ROMANC
 72
     1
 11
323.744347
 21
33.877159
 31
0.0
 73
     2
  0
POINT
  8
DEFPOINTS
  6
BYBLOCK
 62
     0
 10
322.194347
 20
34.340966
 30
0.0
  0
POINT
  8
DEFPOINTS
  6
BYBLOCK
 62
     0
 10
325.294347
 20
34.640966
 30
0.0
  0
POINT
  8
DEFPOINTS
  6
BYBLOCK
 62
     0
 10
325.294347
 20
33.802159
 30
0.0
  0
ENDSEC
  0
EOF
