  0
SECTION
  2
HEADER
  9
$ACADVER
  1
AC1014
  9
$ACADMAINTVER
 70
     9
  9
$DWGCODEPAGE
  3
ANSI_1252
  9
$INSBASE
 10
286.1746514617412
 20
42.37695996300206
 30
0.0
  9
$EXTMIN
 10
281.3950692441339
 20
29.89663456962688
 30
-0.0000000000112498
  9
$EXTMAX
 10
291.8969308140734
 20
44.74724193299542
 30
0.0000000000002956
  9
$LIMMIN
 10
280.3959999999999
 20
28.89699999999999
  9
$LIMMAX
 10
292.8959999999999
 20
43.74699999999999
  9
$ORTHOMODE
 70
     0
  9
$REGENMODE
 70
     1
  9
$FILLMODE
 70
     1
  9
$QTEXTMODE
 70
     0
  9
$MIRRTEXT
 70
     1
  9
$DRAGMODE
 70
     2
  9
$LTSCALE
 40
1.0
  9
$OSMODE
 70
    45
  9
$ATTMODE
 70
     1
  9
$TEXTSIZE
 40
0.3
  9
$TRACEWID
 40
0.05
  9
$TEXTSTYLE
  7
ROMANC
  9
$CLAYER
  8
0
  9
$CELTYPE
  6
BYLAYER
  9
$CECOLOR
 62
   256
  9
$CELTSCALE
 40
1.0
  9
$DELOBJ
 70
     1
  9
$DISPSILH
 70
     0
  9
$DIMSCALE
 40
1.0
  9
$DIMASZ
 40
0.18
  9
$DIMEXO
 40
0.0625
  9
$DIMDLI
 40
0.38
  9
$DIMRND
 40
0.0
  9
$DIMDLE
 40
0.0
  9
$DIMEXE
 40
0.18
  9
$DIMTP
 40
0.0
  9
$DIMTM
 40
0.0
  9
$DIMTXT
 40
0.18
  9
$DIMCEN
 40
0.09
  9
$DIMTSZ
 40
0.0
  9
$DIMTOL
 70
     0
  9
$DIMLIM
 70
     0
  9
$DIMTIH
 70
     1
  9
$DIMTOH
 70
     1
  9
$DIMSE1
 70
     0
  9
$DIMSE2
 70
     0
  9
$DIMTAD
 70
     0
  9
$DIMZIN
 70
     0
  9
$DIMBLK
  1

  9
$DIMASO
 70
     1
  9
$DIMSHO
 70
     1
  9
$DIMPOST
  1

  9
$DIMAPOST
  1

  9
$DIMALT
 70
     0
  9
$DIMALTD
 70
     2
  9
$DIMALTF
 40
25.4
  9
$DIMLFAC
 40
1.0
  9
$DIMTOFL
 70
     0
  9
$DIMTVP
 40
0.0
  9
$DIMTIX
 70
     0
  9
$DIMSOXD
 70
     0
  9
$DIMSAH
 70
     0
  9
$DIMBLK1
  1

  9
$DIMBLK2
  1

  9
$DIMSTYLE
  2
STANDARD
  9
$DIMCLRD
 70
     0
  9
$DIMCLRE
 70
     0
  9
$DIMCLRT
 70
     0
  9
$DIMTFAC
 40
1.0
  9
$DIMGAP
 40
0.09
  9
$DIMJUST
 70
     0
  9
$DIMSD1
 70
     0
  9
$DIMSD2
 70
     0
  9
$DIMTOLJ
 70
     1
  9
$DIMTZIN
 70
     0
  9
$DIMALTZ
 70
     0
  9
$DIMALTTZ
 70
     0
  9
$DIMFIT
 70
     3
  9
$DIMUPT
 70
     0
  9
$DIMUNIT
 70
     2
  9
$DIMDEC
 70
     2
  9
$DIMTDEC
 70
     2
  9
$DIMALTU
 70
     2
  9
$DIMALTTD
 70
     2
  9
$DIMTXSTY
  7
STANDARD
  9
$DIMAUNIT
 70
     0
  9
$LUNITS
 70
     2
  9
$LUPREC
 70
     4
  9
$SKETCHINC
 40
0.1
  9
$FILLETRAD
 40
0.0
  9
$AUNITS
 70
     0
  9
$AUPREC
 70
     0
  9
$MENU
  1
acad
  9
$ELEVATION
 40
0.0
  9
$PELEVATION
 40
0.0
  9
$THICKNESS
 40
0.0
  9
$LIMCHECK
 70
     0
  9
$BLIPMODE
 70
     0
  9
$CHAMFERA
 40
0.0
  9
$CHAMFERB
 40
0.0
  9
$CHAMFERC
 40
0.0
  9
$CHAMFERD
 40
0.0
  9
$SKPOLY
 70
     0
  9
$TDCREATE
 40
2448315.331741435
  9
$TDUPDATE
 40
2452895.400764745
  9
$TDINDWG
 40
0.0946660532
  9
$TDUSRTIMER
 40
0.0945815278
  9
$USRTIMER
 70
     1
  9
$ANGBASE
 50
0.0
  9
$ANGDIR
 70
     0
  9
$PDMODE
 70
     0
  9
$PDSIZE
 40
0.0
  9
$PLINEWID
 40
0.0
  9
$COORDS
 70
     2
  9
$SPLFRAME
 70
     0
  9
$SPLINETYPE
 70
     6
  9
$SPLINESEGS
 70
     8
  9
$ATTDIA
 70
     0
  9
$ATTREQ
 70
     1
  9
$HANDLING
 70
 22529
  9
$HANDSEED
  5
717
  9
$SURFTAB1
 70
     6
  9
$SURFTAB2
 70
     6
  9
$SURFTYPE
 70
     6
  9
$SURFU
 70
     6
  9
$SURFV
 70
     6
  9
$UCSNAME
  2

  9
$UCSORG
 10
0.0
 20
0.0
 30
0.0
  9
$UCSXDIR
 10
1.0
 20
0.0
 30
0.0
  9
$UCSYDIR
 10
0.0
 20
1.0
 30
0.0
  9
$PUCSNAME
  2

  9
$PUCSORG
 10
0.0
 20
0.0
 30
0.0
  9
$PUCSXDIR
 10
1.0
 20
0.0
 30
0.0
  9
$PUCSYDIR
 10
0.0
 20
1.0
 30
0.0
  9
$USERI1
 70
     0
  9
$USERI2
 70
     0
  9
$USERI3
 70
     0
  9
$USERI4
 70
     0
  9
$USERI5
 70
     0
  9
$USERR1
 40
0.0
  9
$USERR2
 40
0.0
  9
$USERR3
 40
0.0
  9
$USERR4
 40
0.0
  9
$USERR5
 40
0.0
  9
$WORLDVIEW
 70
     1
  9
$SHADEDGE
 70
     3
  9
$SHADEDIF
 70
    70
  9
$TILEMODE
 70
     1
  9
$MAXACTVP
 70
    16
  9
$PINSBASE
 10
0.0
 20
0.0
 30
0.0
  9
$PLIMCHECK
 70
     0
  9
$PEXTMIN
 10
0.3341875024984802
 20
0.4535837131396649
 30
-0.0015258207003583
  9
$PEXTMAX
 10
199.6273174580068
 20
286.3335861727316
 30
0.0000000349246037
  9
$PLIMMIN
 10
-2.801048903799753
 20
-1.822119893084443
  9
$PLIMMAX
 10
202.4504644270626
 20
288.4680724023113
  9
$UNITMODE
 70
     0
  9
$VISRETAIN
 70
     0
  9
$PLINEGEN
 70
     0
  9
$PSLTSCALE
 70
     1
  9
$TREEDEPTH
 70
  3020
  9
$PICKSTYLE
 70
     1
  9
$CMLSTYLE
  2
STANDARD
  9
$CMLJUST
 70
     0
  9
$CMLSCALE
 40
1.0
  9
$PROXYGRAPHICS
 70
     1
  9
$MEASUREMENT
 70
     0
  0
ENDSEC
  0
SECTION
  2
CLASSES
  0
CLASS
  1
ACDBDICTIONARYWDFLT
  2
AcDbDictionaryWithDefault
  3
AutoCAD 2000
 90
        0
280
     0
281
     0
  0
CLASS
  1
ACDBPLACEHOLDER
  2
AcDbPlaceHolder
  3
AutoCAD 2000
 90
        0
280
     0
281
     0
  0
CLASS
  1
LAYOUT
  2
AcDbLayout
  3
AutoCAD 2000
 90
        0
280
     0
281
     0
  0
CLASS
  1
LONG_TRANSACTION
  2
AcDbLongTransaction
  3
AutoCAD 2000
 90
        0
280
     0
281
     0
  0
CLASS
  1
LWPOLYLINE
  2
AcDbPolyline
  3
AutoCAD 2000
 90
        0
280
     0
281
     1
  0
CLASS
  1
HATCH
  2
AcDbHatch
  3
AutoCAD 2000
 90
        0
280
     0
281
     1
  0
CLASS
  1
XRECORD
  2
AcDbXrecord
  3
AutoCAD 2000
 90
        0
280
     0
281
     0
  0
CLASS
  1
LONG_TRANSACTION
  2
AcDbLongTransaction
  3
AutoCAD 2000
 90
        0
280
     0
281
     0
  0
CLASS
  1
LWPOLYLINE
  2
AcDbPolyline
  3
AutoCAD 2000
 90
        0
280
     0
281
     1
  0
CLASS
  1
HATCH
  2
AcDbHatch
  3
AutoCAD 2000
 90
        0
280
     0
281
     1
  0
CLASS
  1
XRECORD
  2
AcDbXrecord
  3
AutoCAD 2000
 90
        0
280
     0
281
     0
  0
CLASS
  1
PLOTSETTINGS
  2
AcDbPlotSettings
  3
AutoCAD 2000
 90
        0
280
     0
281
     0
  0
CLASS
  1
LONG_TRANSACTION
  2
AcDbLongTransaction
  3
AutoCAD 2000
 90
        0
280
     0
281
     0
  0
CLASS
  1
LWPOLYLINE
  2
AcDbPolyline
  3
AutoCAD 2000
 90
        0
280
     0
281
     1
  0
CLASS
  1
HATCH
  2
AcDbHatch
  3
AutoCAD 2000
 90
        0
280
     0
281
     1
  0
CLASS
  1
XRECORD
  2
AcDbXrecord
  3
AutoCAD 2000
 90
        0
280
     0
281
     0
  0
CLASS
  1
DICTIONARYVAR
  2
AcDbDictionaryVar
  3
AutoCAD 2000
 90
        0
280
     0
281
     0
  0
CLASS
  1
SORTENTSTABLE
  2
AcDbSortentsTable
  3
AutoCAD 2000
 90
        0
280
     0
281
     0
  0
CLASS
  1
LONG_TRANSACTION
  2
AcDbLongTransaction
  3
AutoCAD 2000
 90
        0
280
     0
281
     0
  0
CLASS
  1
LWPOLYLINE
  2
AcDbPolyline
  3
AutoCAD 2000
 90
        0
280
     0
281
     1
  0
CLASS
  1
HATCH
  2
AcDbHatch
  3
AutoCAD 2000
 90
        0
280
     0
281
     1
  0
CLASS
  1
XRECORD
  2
AcDbXrecord
  3
AutoCAD 2000
 90
        0
280
     0
281
     0
  0
CLASS
  1
LONG_TRANSACTION
  2
AcDbLongTransaction
  3
AutoCAD 2000
 90
        0
280
     0
281
     0
  0
CLASS
  1
LWPOLYLINE
  2
AcDbPolyline
  3
AutoCAD 2000
 90
        0
280
     0
281
     1
  0
CLASS
  1
HATCH
  2
AcDbHatch
  3
AutoCAD 2000
 90
        0
280
     0
281
     1
  0
CLASS
  1
XRECORD
  2
AcDbXrecord
  3
AutoCAD 2000
 90
        0
280
     0
281
     0
  0
CLASS
  1
LONG_TRANSACTION
  2
AcDbLongTransaction
  3
AutoCAD 2000
 90
        0
280
     0
281
     0
  0
CLASS
  1
LWPOLYLINE
  2
AcDbPolyline
  3
AutoCAD 2000
 90
        0
280
     0
281
     1
  0
CLASS
  1
HATCH
  2
AcDbHatch
  3
AutoCAD 2000
 90
        0
280
     0
281
     1
  0
CLASS
  1
XRECORD
  2
AcDbXrecord
  3
AutoCAD 2000
 90
        0
280
     0
281
     0
  0
CLASS
  1
LONG_TRANSACTION
  2
AcDbLongTransaction
  3
AutoCAD 2000
 90
        0
280
     0
281
     0
  0
CLASS
  1
LWPOLYLINE
  2
AcDbPolyline
  3
AutoCAD 2000
 90
        0
280
     0
281
     1
  0
CLASS
  1
HATCH
  2
AcDbHatch
  3
AutoCAD 2000
 90
        0
280
     0
281
     1
  0
CLASS
  1
XRECORD
  2
AcDbXrecord
  3
AutoCAD 2000
 90
        0
280
     0
281
     0
  0
ENDSEC
  0
SECTION
  2
TABLES
  0
TABLE
  2
VPORT
  5
8
330
0
100
AcDbSymbolTable
 70
     5
  0
VPORT
  5
6E8
330
8
100
AcDbSymbolTableRecord
100
AcDbViewportTableRecord
  2
*ACTIVE
 70
     0
 10
0.0
 20
0.0
 11
1.0
 21
1.0
 12
286.6460000291037
 22
37.32193825131115
 13
0.0
 23
0.0
 14
1.0
 24
1.0
 15
0.0
 25
0.0
 16
0.0
 26
0.0
 36
1.0
 17
0.0
 27
0.0
 37
0.0
 40
14.96129512011414
 41
1.498756218905472
 42
50.0
 43
0.0
 44
0.0
 50
0.0
 51
0.0
 71
     0
 72
   100
 73
     1
 74
     1
 75
     0
 76
     0
 77
     0
 78
     0
  0
ENDTAB
  0
TABLE
  2
LTYPE
  5
5
330
0
100
AcDbSymbolTable
 70
     1
  0
LTYPE
  5
13
330
5
100
AcDbSymbolTableRecord
100
AcDbLinetypeTableRecord
  2
BYBLOCK
 70
     0
  3

 72
    65
 73
     0
 40
0.0
  0
LTYPE
  5
14
330
5
100
AcDbSymbolTableRecord
100
AcDbLinetypeTableRecord
  2
BYLAYER
 70
     0
  3

 72
    65
 73
     0
 40
0.0
  0
LTYPE
  5
15
330
5
100
AcDbSymbolTableRecord
100
AcDbLinetypeTableRecord
  2
CONTINUOUS
 70
     0
  3
Solid line
 72
    65
 73
     0
 40
0.0
  0
ENDTAB
  0
TABLE
  2
LAYER
  5
2
330
0
100
AcDbSymbolTable
 70
     3
  0
LAYER
  5
10
330
2
100
AcDbSymbolTableRecord
100
AcDbLayerTableRecord
  2
0
 70
     0
 62
     7
  6
CONTINUOUS
  0
LAYER
  5
7F
330
2
100
AcDbSymbolTableRecord
100
AcDbLayerTableRecord
  2
DEFPOINTS
 70
     0
 62
     7
  6
CONTINUOUS
  0
LAYER
  5
499
330
2
100
AcDbSymbolTableRecord
100
AcDbLayerTableRecord
  2
CAPA1
 70
     0
 62
     7
  6
CONTINUOUS
  0
ENDTAB
  0
TABLE
  2
STYLE
  5
3
330
0
100
AcDbSymbolTable
 70
     2
  0
STYLE
  5
11
330
3
100
AcDbSymbolTableRecord
100
AcDbTextStyleTableRecord
  2
STANDARD
 70
     0
 40
0.0
 41
1.0
 50
0.0
 71
     0
 42
0.2
  3
txt
  4

  0
STYLE
  5
28
330
3
100
AcDbSymbolTableRecord
100
AcDbTextStyleTableRecord
  2
ROMANC
 70
     0
 40
0.0
 41
1.0
 50
0.0
 71
     0
 42
0.3
  3
ROMANC
  4

  0
ENDTAB
  0
TABLE
  2
VIEW
  5
6
330
0
100
AcDbSymbolTable
 70
     0
  0
ENDTAB
  0
TABLE
  2
UCS
  5
7
330
0
100
AcDbSymbolTable
 70
     0
  0
ENDTAB
  0
TABLE
  2
APPID
  5
9
330
0
100
AcDbSymbolTable
 70
     3
  0
APPID
  5
12
330
9
100
AcDbSymbolTableRecord
100
AcDbRegAppTableRecord
  2
ACAD
 70
     0
  0
APPID
  5
31D
330
9
100
AcDbSymbolTableRecord
100
AcDbRegAppTableRecord
  2
CONTENTBLOCKDESCRIPTION
 70
     0
  0
APPID
  5
31E
330
9
100
AcDbSymbolTableRecord
100
AcDbRegAppTableRecord
  2
CONTENTBLOCKICON
 70
     0
  0
ENDTAB
  0
TABLE
  2
DIMSTYLE
  5
A
330
0
100
AcDbSymbolTable
 70
     1
  0
DIMSTYLE
105
7A
330
A
100
AcDbSymbolTableRecord
100
AcDbDimStyleTableRecord
  2
STANDARD
 70
     0
  3

  4

  5

  6

  7

 40
1.0
 41
0.18
 42
0.0625
 43
0.38
 44
0.18
 45
0.0
 46
0.0
 47
0.0
 48
0.0
140
0.18
141
0.09
142
0.0
143
25.4
144
1.0
145
0.0
146
1.0
147
0.09
 71
     0
 72
     0
 73
     1
 74
     1
 75
     0
 76
     0
 77
     0
 78
     0
170
     0
171
     2
172
     0
173
     0
174
     0
175
     0
176
     0
177
     0
178
     0
270
     2
271
     2
272
     2
273
     2
274
     2
340
11
275
     0
280
     0
281
     0
282
     0
283
     1
284
     0
285
     0
286
     0
287
     3
288
     0
  0
ENDTAB
  0
TABLE
  2
BLOCK_RECORD
  5
1
330
0
100
AcDbSymbolTable
 70
    27
  0
BLOCK_RECORD
  5
1E
102
{ACAD_XDICTIONARY
360
1AC
102
}
330
1
100
AcDbSymbolTableRecord
100
AcDbBlockTableRecord
  2
*MODEL_SPACE
  0
BLOCK_RECORD
  5
1A
102
{ACAD_XDICTIONARY
360
1AA
102
}
330
1
100
AcDbSymbolTableRecord
100
AcDbBlockTableRecord
  2
*PAPER_SPACE
  0
BLOCK_RECORD
  5
23B
330
1
100
AcDbSymbolTableRecord
100
AcDbBlockTableRecord
  2
TIPUS
1001
CONTENTBLOCKDESCRIPTION
1071
        0
1000
Tipus de Seccio
1001
CONTENTBLOCKICON
1071
        0
1004
2800000020000000200000000100080000000000000400000000000000000000000000000000000000000000000080000080000000808000800000008000800080800000C0C0C000C0DCC000F0CAA6000020400000206000002080000020A0000020C0000020E00000400000004020000040400000406000004080000040A0
1004
000040C0000040E00000600000006020000060400000606000006080000060A0000060C0000060E00000800000008020000080400000806000008080000080A0000080C0000080E00000A0000000A0200000A0400000A0600000A0800000A0A00000A0C00000A0E00000C0000000C0200000C0400000C0600000C0800000C0
1004
A00000C0C00000C0E00000E0000000E0200000E0400000E0600000E0800000E0A00000E0C00000E0E00040000000400020004000400040006000400080004000A0004000C0004000E00040200000402020004020400040206000402080004020A0004020C0004020E000404000004040200040404000404060004040800040
1004
40A0004040C0004040E00040600000406020004060400040606000406080004060A0004060C0004060E00040800000408020004080400040806000408080004080A0004080C0004080E00040A0000040A0200040A0400040A0600040A0800040A0A00040A0C00040A0E00040C0000040C0200040C0400040C0600040C08000
1004
40C0A00040C0C00040C0E00040E0000040E0200040E0400040E0600040E0800040E0A00040E0C00040E0E00080000000800020008000400080006000800080008000A0008000C0008000E00080200000802020008020400080206000802080008020A0008020C0008020E00080400000804020008040400080406000804080
1004
008040A0008040C0008040E00080600000806020008060400080606000806080008060A0008060C0008060E00080800000808020008080400080806000808080008080A0008080C0008080E00080A0000080A0200080A0400080A0600080A0800080A0A00080A0C00080A0E00080C0000080C0200080C0400080C0600080C0
1004
800080C0A00080C0C00080C0E00080E0000080E0200080E0400080E0600080E0800080E0A00080E0C00080E0E000C0000000C0002000C0004000C0006000C0008000C000A000C000C000C000E000C0200000C0202000C0204000C0206000C0208000C020A000C020C000C020E000C0400000C0402000C0404000C0406000C0
1004
408000C040A000C040C000C040E000C0600000C0602000C0604000C0606000C0608000C060A000C060C000C060E000C0800000C0802000C0804000C0806000C0808000C080A000C080C000C080E000C0A00000C0A02000C0A04000C0A06000C0A08000C0A0A000C0A0C000C0A0E000C0C00000C0C02000C0C04000C0C06000
1004
C0C08000C0C0A000F0FBFF00A4A0A000808080000000FF0000FF000000FFFF00FF000000FF00FF00FFFF0000FFFFFF0000000000000000000000000000000000000000000000000000000000000000000000000000000000000000000000000000000000000000000000000000000000000000000000000000000000000000
1004
00000000000000000000000000000000000000000000000000000000000000000000000000000000000000000000000000000000000000000000000000000000000000000000000000000000000000000000000000000000000000000000000000000000000000000000000000000000000000000000000000000000000000
1004
00000000000000000000000000000000000000000000000000000000000000000000000000000000000000000000000000000000000000000000000000000000000000000000000000000000000000000000000000000000000000000000000000000000000000000000000000000000000000000000000000000000000000
1004
000000000000000000000000000000000000000000000000000000000000000000000000000000000000000000000000000000000000000000000000000000000000000000000000000000000000000000000000FFFFFF00FF0000FFFF00FFFF00FFFFFFFF00FFFFFFFFFFFFFF00FFFF0000000000FF00FFFF0000FFFF0000
1004
00FFFF0000FFFF000000FFFF000000FF000000000000FF00FFFF0000FFFF000000FFFF0000FFFF000000FFFF000000FF000000000000FFFFFFFF0000FFFF000000FFFF0000FFFF000000FFFF000000FFFF0000000000FFFF00FF00FFFFFFFF0000FFFF0000FFFF000000FFFF0000FF00FF00000000FFFF00FFFFFFFFFFFFFF
1004
FFFF00FFFFFFFF00FFFFFFFFFFFFFFFFFFFFFFFF0000000000000000000000000000000000000000000000000000000000000000000000000000000000000000000000000000000000000000000000000000000000000000000000000000000000000000000000000000000000000000000000000000000000000000000000
1004
00000000000000000000000000000000000000000000000000000000000000000000000000000000000000000000000000000000000000000000000000000000000000000000000000000000000000000000000000000000000000000000000000000000000000000000000000000000000000000000000000000000000000
1004
00000000000000000000000000000000000000000000000000000000000000000000000000000000000000000000000000000000000000000000000000000000000000000000000000000000000000000000000000000000000000000000000000000000000000000000000000000000000000000000000000000000000000
1004
0000000000000000000000000000000000000000000000000000000000000000000000000000000000000000000000000000000000000000
  0
BLOCK_RECORD
  5
240
330
1
100
AcDbSymbolTableRecord
100
AcDbBlockTableRecord
  2
SUPERFICIE
1001
CONTENTBLOCKDESCRIPTION
1071
        0
1000
Supercie lliure de la seccio
1001
CONTENTBLOCKICON
1071
        0
1004
2800000020000000200000000100080000000000000400000000000000000000000000000000000000000000000080000080000000808000800000008000800080800000C0C0C000C0DCC000F0CAA6000020400000206000002080000020A0000020C0000020E00000400000004020000040400000406000004080000040A0
1004
000040C0000040E00000600000006020000060400000606000006080000060A0000060C0000060E00000800000008020000080400000806000008080000080A0000080C0000080E00000A0000000A0200000A0400000A0600000A0800000A0A00000A0C00000A0E00000C0000000C0200000C0400000C0600000C0800000C0
1004
A00000C0C00000C0E00000E0000000E0200000E0400000E0600000E0800000E0A00000E0C00000E0E00040000000400020004000400040006000400080004000A0004000C0004000E00040200000402020004020400040206000402080004020A0004020C0004020E000404000004040200040404000404060004040800040
1004
40A0004040C0004040E00040600000406020004060400040606000406080004060A0004060C0004060E00040800000408020004080400040806000408080004080A0004080C0004080E00040A0000040A0200040A0400040A0600040A0800040A0A00040A0C00040A0E00040C0000040C0200040C0400040C0600040C08000
1004
40C0A00040C0C00040C0E00040E0000040E0200040E0400040E0600040E0800040E0A00040E0C00040E0E00080000000800020008000400080006000800080008000A0008000C0008000E00080200000802020008020400080206000802080008020A0008020C0008020E00080400000804020008040400080406000804080
1004
008040A0008040C0008040E00080600000806020008060400080606000806080008060A0008060C0008060E00080800000808020008080400080806000808080008080A0008080C0008080E00080A0000080A0200080A0400080A0600080A0800080A0A00080A0C00080A0E00080C0000080C0200080C0400080C0600080C0
1004
800080C0A00080C0C00080C0E00080E0000080E0200080E0400080E0600080E0800080E0A00080E0C00080E0E000C0000000C0002000C0004000C0006000C0008000C000A000C000C000C000E000C0200000C0202000C0204000C0206000C0208000C020A000C020C000C020E000C0400000C0402000C0404000C0406000C0
1004
408000C040A000C040C000C040E000C0600000C0602000C0604000C0606000C0608000C060A000C060C000C060E000C0800000C0802000C0804000C0806000C0808000C080A000C080C000C080E000C0A00000C0A02000C0A04000C0A06000C0A08000C0A0A000C0A0C000C0A0E000C0C00000C0C02000C0C04000C0C06000
1004
C0C08000C0C0A000F0FBFF00A4A0A000808080000000FF0000FF000000FFFF00FF000000FF00FF00FFFF0000FFFFFF0000000000000000000000000000000000000000000000000000000000000000000000000000000000000000000000000000000000000000000000000000000000000000000000000000000000000000
1004
00000000000000000000000000000000000000000000000000000000000000000000000000000000000000000000000000000000000000000000000000000000000000000000000000000000000000000000000000000000000000000000000000000000000000000000000000000000000000000000000000000000000000
1004
00000000000000000000000000000000000000000000000000000000000000000000000000000000000000000000000000000000000000000000000000000000000000000000000000000000000000000000000000000000000000000000000000000000000000000000000000000000000000FFFFFFFF0000FFFFFFFFFFFF
1004
FFFF0000FFFFFFFFFFFFFFFF0000FFFFFFFF00000000FF00000000FF00000000FF000000FFFF00000000FF000000FFFF000000000000FF00000000FF00000000FF000000FFFF00000000FF000000FFFF00000000000000FF0000FF000000000000FF00FFFF000000000000FF00FFFF000000000000000000FFFFFF00000000
1004
000000FFFFFF00000000000000FFFF00000000000000000000FFFF0000000000000000FFFF0000000000000000FFFF00000000000000000000FFFF0000000000000000FFFF0000000000000000FFFF00000000000000000000FFFF00000000000000FFFFFF00000000000000FFFFFF000000000000000000FFFF00FF000000
1004
000000FFFF00FF000000000000FF0000FF00000000000000FFFF000000FF00000000FFFF000000FF00000000FF00000000FF000000000000FFFF000000FF00000000FFFF000000FF00000000FF00000000FF00000000FFFFFFFF0000FFFFFFFFFFFFFFFF0000FFFFFFFFFFFFFFFF0000FFFFFFFF0000000000000000000000
1004
00000000000000000000000000000000000000000000000000000000000000000000000000000000000000000000000000000000000000000000000000000000000000000000000000000000000000000000000000000000000000000000000000000000000000000000000000000000000000000000000000000000000000
1004
00000000000000000000000000000000000000000000000000000000000000000000000000000000000000000000000000000000000000000000000000000000000000000000000000000000000000000000000000000000000000000000000000000000000000000000000000000000000000000000000000000000000000
1004
0000000000000000000000000000000000000000000000000000000000000000000000000000000000000000000000000000000000000000
  0
BLOCK_RECORD
  5
245
330
1
100
AcDbSymbolTableRecord
100
AcDbBlockTableRecord
  2
PERIMETRE
1001
CONTENTBLOCKDESCRIPTION
1071
        0
1000
Perimetre de la seccio
1001
CONTENTBLOCKICON
1071
        0
1004
2800000020000000200000000100080000000000000400000000000000000000000000000000000000000000000080000080000000808000800000008000800080800000C0C0C000C0DCC000F0CAA6000020400000206000002080000020A0000020C0000020E00000400000004020000040400000406000004080000040A0
1004
000040C0000040E00000600000006020000060400000606000006080000060A0000060C0000060E00000800000008020000080400000806000008080000080A0000080C0000080E00000A0000000A0200000A0400000A0600000A0800000A0A00000A0C00000A0E00000C0000000C0200000C0400000C0600000C0800000C0
1004
A00000C0C00000C0E00000E0000000E0200000E0400000E0600000E0800000E0A00000E0C00000E0E00040000000400020004000400040006000400080004000A0004000C0004000E00040200000402020004020400040206000402080004020A0004020C0004020E000404000004040200040404000404060004040800040
1004
40A0004040C0004040E00040600000406020004060400040606000406080004060A0004060C0004060E00040800000408020004080400040806000408080004080A0004080C0004080E00040A0000040A0200040A0400040A0600040A0800040A0A00040A0C00040A0E00040C0000040C0200040C0400040C0600040C08000
1004
40C0A00040C0C00040C0E00040E0000040E0200040E0400040E0600040E0800040E0A00040E0C00040E0E00080000000800020008000400080006000800080008000A0008000C0008000E00080200000802020008020400080206000802080008020A0008020C0008020E00080400000804020008040400080406000804080
1004
008040A0008040C0008040E00080600000806020008060400080606000806080008060A0008060C0008060E00080800000808020008080400080806000808080008080A0008080C0008080E00080A0000080A0200080A0400080A0600080A0800080A0A00080A0C00080A0E00080C0000080C0200080C0400080C0600080C0
1004
800080C0A00080C0C00080C0E00080E0000080E0200080E0400080E0600080E0800080E0A00080E0C00080E0E000C0000000C0002000C0004000C0006000C0008000C000A000C000C000C000E000C0200000C0202000C0204000C0206000C0208000C020A000C020C000C020E000C0400000C0402000C0404000C0406000C0
1004
408000C040A000C040C000C040E000C0600000C0602000C0604000C0606000C0608000C060A000C060C000C060E000C0800000C0802000C0804000C0806000C0808000C080A000C080C000C080E000C0A00000C0A02000C0A04000C0A06000C0A08000C0A0A000C0A0C000C0A0E000C0C00000C0C02000C0C04000C0C06000
1004
C0C08000C0C0A000F0FBFF00A4A0A000808080000000FF0000FF000000FFFF00FF000000FF00FF00FFFF0000FFFFFF0000000000000000000000000000000000000000000000000000000000000000000000000000000000000000000000000000000000000000000000000000000000000000000000000000000000000000
1004
00000000000000000000000000000000000000000000000000000000000000000000000000000000000000000000000000000000000000000000000000000000000000000000000000000000000000000000000000000000000000000000000000000000000000000000000000000000000000000000000000000000000000
1004
00000000000000000000000000000000000000000000000000000000000000000000000000000000000000000000000000000000000000000000000000000000000000000000000000000000000000000000000000000000000000000000000000000000000000000000000000000000000000FFFFFFFF0000FFFFFFFFFFFF
1004
FFFF0000FFFFFFFFFFFFFFFF0000FFFFFFFF00000000FF00000000FF00000000FF000000FFFF00000000FF000000FFFF000000000000FF00000000FF00000000FF000000FFFF00000000FF000000FFFF00000000000000FF0000FF000000000000FF00FFFF000000000000FF00FFFF000000000000000000FFFFFF00000000
1004
000000FFFFFF00000000000000FFFF00000000000000000000FFFF0000000000000000FFFF0000000000000000FFFF00000000000000000000FFFF0000000000000000FFFF0000000000000000FFFF00000000000000000000FFFF00000000000000FFFFFF00000000000000FFFFFF000000000000000000FFFF00FF000000
1004
000000FFFF00FF000000000000FF0000FF00000000000000FFFF000000FF00000000FFFF000000FF00000000FF00000000FF000000000000FFFF000000FF00000000FFFF000000FF00000000FF00000000FF00000000FFFFFFFF0000FFFFFFFFFFFFFFFF0000FFFFFFFFFFFFFFFF0000FFFFFFFF0000000000000000000000
1004
00000000000000000000000000000000000000000000000000000000000000000000000000000000000000000000000000000000000000000000000000000000000000000000000000000000000000000000000000000000000000000000000000000000000000000000000000000000000000000000000000000000000000
1004
00000000000000000000000000000000000000000000000000000000000000000000000000000000000000000000000000000000000000000000000000000000000000000000000000000000000000000000000000000000000000000000000000000000000000000000000000000000000000000000000000000000000000
1004
0000000000000000000000000000000000000000000000000000000000000000000000000000000000000000000000000000000000000000
  0
BLOCK_RECORD
  5
24F
330
1
100
AcDbSymbolTableRecord
100
AcDbBlockTableRecord
  2
1
1001
CONTENTBLOCKICON
1071
        0
1004
2800000020000000200000000100080000000000000400000000000000000000000000000000000000000000000080000080000000808000800000008000800080800000C0C0C000C0DCC000F0CAA6000020400000206000002080000020A0000020C0000020E00000400000004020000040400000406000004080000040A0
1004
000040C0000040E00000600000006020000060400000606000006080000060A0000060C0000060E00000800000008020000080400000806000008080000080A0000080C0000080E00000A0000000A0200000A0400000A0600000A0800000A0A00000A0C00000A0E00000C0000000C0200000C0400000C0600000C0800000C0
1004
A00000C0C00000C0E00000E0000000E0200000E0400000E0600000E0800000E0A00000E0C00000E0E00040000000400020004000400040006000400080004000A0004000C0004000E00040200000402020004020400040206000402080004020A0004020C0004020E000404000004040200040404000404060004040800040
1004
40A0004040C0004040E00040600000406020004060400040606000406080004060A0004060C0004060E00040800000408020004080400040806000408080004080A0004080C0004080E00040A0000040A0200040A0400040A0600040A0800040A0A00040A0C00040A0E00040C0000040C0200040C0400040C0600040C08000
1004
40C0A00040C0C00040C0E00040E0000040E0200040E0400040E0600040E0800040E0A00040E0C00040E0E00080000000800020008000400080006000800080008000A0008000C0008000E00080200000802020008020400080206000802080008020A0008020C0008020E00080400000804020008040400080406000804080
1004
008040A0008040C0008040E00080600000806020008060400080606000806080008060A0008060C0008060E00080800000808020008080400080806000808080008080A0008080C0008080E00080A0000080A0200080A0400080A0600080A0800080A0A00080A0C00080A0E00080C0000080C0200080C0400080C0600080C0
1004
800080C0A00080C0C00080C0E00080E0000080E0200080E0400080E0600080E0800080E0A00080E0C00080E0E000C0000000C0002000C0004000C0006000C0008000C000A000C000C000C000E000C0200000C0202000C0204000C0206000C0208000C020A000C020C000C020E000C0400000C0402000C0404000C0406000C0
1004
408000C040A000C040C000C040E000C0600000C0602000C0604000C0606000C0608000C060A000C060C000C060E000C0800000C0802000C0804000C0806000C0808000C080A000C080C000C080E000C0A00000C0A02000C0A04000C0A06000C0A08000C0A0A000C0A0C000C0A0E000C0C00000C0C02000C0C04000C0C06000
1004
C0C08000C0C0A000F0FBFF00A4A0A000808080000000FF0000FF000000FFFF00FF000000FF00FF00FFFF0000FFFFFF0000000000000000000000000000000000000000000000000000000000000000000000000000000000000000000000000000000000000000000000000000000000000000000000000000000000000000
1004
00000000000000000000000000000000000000000000000000000000000000000000000000000000000000000000000000000000000000000000000000000000000000000000000000000000000000000000000000000000000000000000000000000000000000000000000000000000000000000000000000000000000000
1004
00000000000000000000000000000000000000000000000000000000000000000000000000000000000000000000000000000000000000000000000000000000000000000000000000000000000000000000000000000000000000000000000000000000000000000000000000000000000000FFFF0000FFFF00FFFFFFFFFF
1004
FFFFFFFFFF0000FFFFFFFFFFFF00000000000000FFFFFF00FFFF00FFFFFFFFFFFFFFFFFFFF0000FFFFFFFFFF0000000000000000000000000000000000000000000000000000000000000000000000000000000000FFFF00FFFF00FFFFFFFFFFFFFFFFFFFF000000FFFFFFFFFFFF00000000000000FFFF00FFFF00FFFFFFFF
1004
FFFFFFFFFFFFFF0000FFFFFFFFFFFF00000000000000000000000000000000000000000000FFFF0000000000000000000000000000FFFFFFFFFFFFFFFFFFFFFF0000FFFFFFFFFF000000000000000000000000000000FFFFFFFFFFFFFFFFFF000000FFFFFFFFFFFF00000000000000000000000000FFFFFFFFFFFFFFFF00FF
1004
000000FFFFFFFFFFFF00000000000000000000000000000000000000000000000000000000000000000000000000000000000000000000FFFFFF00FFFFFFFF000000FFFFFFFFFFFFFFFFFFFF0000FFFFFFFFFFFF0000FFFFFFFFFFFFFFFFFF000000FFFFFFFFFFFFFFFFFFFFFF00FFFFFFFFFFFF0000000000000000000000
1004
00000000000000000000000000000000000000000000000000000000000000000000000000000000000000000000000000000000000000000000000000000000000000000000000000000000000000000000000000000000000000000000000000000000000000000000000000000000000000000000000000000000000000
1004
00000000000000000000000000000000000000000000000000000000000000000000000000000000000000000000000000000000000000000000000000000000000000000000000000000000000000000000000000000000000000000000000000000000000000000000000000000000000000000000000000000000000000
1004
0000000000000000000000000000000000000000000000000000000000000000000000000000000000000000000000000000000000000000
  0
BLOCK_RECORD
  5
26D
330
1
100
AcDbSymbolTableRecord
100
AcDbBlockTableRecord
  2
CARACTERISTIQUES
1001
CONTENTBLOCKDESCRIPTION
1071
        0
1000
Caracteristiques de la seccio
1001
CONTENTBLOCKICON
1071
        0
1004
2800000020000000200000000100080000000000000400000000000000000000000000000000000000000000000080000080000000808000800000008000800080800000C0C0C000C0DCC000F0CAA6000020400000206000002080000020A0000020C0000020E00000400000004020000040400000406000004080000040A0
1004
000040C0000040E00000600000006020000060400000606000006080000060A0000060C0000060E00000800000008020000080400000806000008080000080A0000080C0000080E00000A0000000A0200000A0400000A0600000A0800000A0A00000A0C00000A0E00000C0000000C0200000C0400000C0600000C0800000C0
1004
A00000C0C00000C0E00000E0000000E0200000E0400000E0600000E0800000E0A00000E0C00000E0E00040000000400020004000400040006000400080004000A0004000C0004000E00040200000402020004020400040206000402080004020A0004020C0004020E000404000004040200040404000404060004040800040
1004
40A0004040C0004040E00040600000406020004060400040606000406080004060A0004060C0004060E00040800000408020004080400040806000408080004080A0004080C0004080E00040A0000040A0200040A0400040A0600040A0800040A0A00040A0C00040A0E00040C0000040C0200040C0400040C0600040C08000
1004
40C0A00040C0C00040C0E00040E0000040E0200040E0400040E0600040E0800040E0A00040E0C00040E0E00080000000800020008000400080006000800080008000A0008000C0008000E00080200000802020008020400080206000802080008020A0008020C0008020E00080400000804020008040400080406000804080
1004
008040A0008040C0008040E00080600000806020008060400080606000806080008060A0008060C0008060E00080800000808020008080400080806000808080008080A0008080C0008080E00080A0000080A0200080A0400080A0600080A0800080A0A00080A0C00080A0E00080C0000080C0200080C0400080C0600080C0
1004
800080C0A00080C0C00080C0E00080E0000080E0200080E0400080E0600080E0800080E0A00080E0C00080E0E000C0000000C0002000C0004000C0006000C0008000C000A000C000C000C000E000C0200000C0202000C0204000C0206000C0208000C020A000C020C000C020E000C0400000C0402000C0404000C0406000C0
1004
408000C040A000C040C000C040E000C0600000C0602000C0604000C0606000C0608000C060A000C060C000C060E000C0800000C0802000C0804000C0806000C0808000C080A000C080C000C080E000C0A00000C0A02000C0A04000C0A06000C0A08000C0A0A000C0A0C000C0A0E000C0C00000C0C02000C0C04000C0C06000
1004
C0C08000C0C0A000F0FBFF00A4A0A000808080000000FF0000FF000000FFFF00FF000000FF00FF00FFFF0000FFFFFF000000000000000000000000000000000000000000000000000000000000000000000000000000000000000000000000FFFFFFFFFFFFFFFFFF0000000000000000000000000000000000000000000000
1004
FFFFFFFFFFFFFFFFFF00000000000000000000000000000000000000000000000000000000000000000000000000000000000000000000000000000000000000000000000000000000000000000000000000000000000000000000000000000000000000000000000000000000000000000000000000000000000000000000
1004
00000000000000000000000000000000000000000000000000000000000000000000000000000000000000000000000000000000000000000000000000000000000000000000000000000000000000000000000000000000000000000000000000000000000000000000000000000000000000000000000000000000000000
1004
00000000000000000000000000000000000000000000000000000000000000000000000000000000000000000000000000000000000000000000000000000000000000000000000000000000000000000000000000000000000000000000000000000000000000000000000000000000000000000000000000000000000000
1004
00000000000000000000000000000000000000000000000000000000000000000000000000000000000000000000000000000000000000000000000000000000000000000000000000000000000000000000000000000000000000000000000000000000000000000000000000000000000000000000000000000000000000
1004
00000000000000000000000000000000000000000000000000000000000000000000000000000000000000000000000000000000000000000000000000000000000000000000000000000000000000000000000000000000000000000000000000000000000000000000000000000000000000000000000000000000000000
1004
00000000000000000000000000000000000000000000000000000000000000000000000000000000000000000000000000000000000000000000000000000000000000000000000000000000000000000000000000000000000000000000FFFFFF0000000000000000000000000000000000000000000000000000000000FF
1004
FFFF0000000000000000000000000000000000000000000000000000000000FFFFFFFFFFFF0000000000000000000000000000000000000000000000000000000000FFFFFF0000000000000000000000000000000000000000000000000000000000FFFFFFFF00000000000000000000000000000000000000000000000000
1004
000000FFFFFFFFFF000000000000000000000000000000000000000000000000000000000000000000000000000000000000000000000000
  0
BLOCK_RECORD
  5
28C
330
1
100
AcDbSymbolTableRecord
100
AcDbBlockTableRecord
  2
PERIMETRO
1001
CONTENTBLOCKICON
1071
        0
1004
2800000020000000200000000100080000000000000400000000000000000000000000000000000000000000000080000080000000808000800000008000800080800000C0C0C000C0DCC000F0CAA6000020400000206000002080000020A0000020C0000020E00000400000004020000040400000406000004080000040A0
1004
000040C0000040E00000600000006020000060400000606000006080000060A0000060C0000060E00000800000008020000080400000806000008080000080A0000080C0000080E00000A0000000A0200000A0400000A0600000A0800000A0A00000A0C00000A0E00000C0000000C0200000C0400000C0600000C0800000C0
1004
A00000C0C00000C0E00000E0000000E0200000E0400000E0600000E0800000E0A00000E0C00000E0E00040000000400020004000400040006000400080004000A0004000C0004000E00040200000402020004020400040206000402080004020A0004020C0004020E000404000004040200040404000404060004040800040
1004
40A0004040C0004040E00040600000406020004060400040606000406080004060A0004060C0004060E00040800000408020004080400040806000408080004080A0004080C0004080E00040A0000040A0200040A0400040A0600040A0800040A0A00040A0C00040A0E00040C0000040C0200040C0400040C0600040C08000
1004
40C0A00040C0C00040C0E00040E0000040E0200040E0400040E0600040E0800040E0A00040E0C00040E0E00080000000800020008000400080006000800080008000A0008000C0008000E00080200000802020008020400080206000802080008020A0008020C0008020E00080400000804020008040400080406000804080
1004
008040A0008040C0008040E00080600000806020008060400080606000806080008060A0008060C0008060E00080800000808020008080400080806000808080008080A0008080C0008080E00080A0000080A0200080A0400080A0600080A0800080A0A00080A0C00080A0E00080C0000080C0200080C0400080C0600080C0
1004
800080C0A00080C0C00080C0E00080E0000080E0200080E0400080E0600080E0800080E0A00080E0C00080E0E000C0000000C0002000C0004000C0006000C0008000C000A000C000C000C000E000C0200000C0202000C0204000C0206000C0208000C020A000C020C000C020E000C0400000C0402000C0404000C0406000C0
1004
408000C040A000C040C000C040E000C0600000C0602000C0604000C0606000C0608000C060A000C060C000C060E000C0800000C0802000C0804000C0806000C0808000C080A000C080C000C080E000C0A00000C0A02000C0A04000C0A06000C0A08000C0A0A000C0A0C000C0A0E000C0C00000C0C02000C0C04000C0C06000
1004
C0C08000C0C0A000F0FBFF00A4A0A000808080000000FF0000FF000000FFFF00FF000000FF00FF00FFFF0000FFFFFF0000000000000000000000000000000000000000000000000000000000000000000000000000000000000000000000000000000000000000000000000000000000000000000000000000000000000000
1004
00000000000000000000000000000000000000000000000000000000000000000000000000000000000000000000000000000000000000000000000000000000000000000000000000000000000000000000000000000000000000000000000000000000000000000000000000000000000000000000000000000000000000
1004
00000000000000000000000000000000000000000000000000000000000000000000000000000000000000000000000000000000000000000000000000000000000000000000000000000000000000000000000000000000000000000000000000000000000000000000000000000000000000FFFFFFFF0000FFFFFFFFFFFF
1004
FFFF0000FFFFFFFFFFFFFFFF0000FFFFFFFF00000000FF00000000FF00000000FF000000FFFF00000000FF000000FFFF000000000000FF00000000FF00000000FF000000FFFF00000000FF000000FFFF00000000000000FF0000FF000000000000FF00FFFF000000000000FF00FFFF000000000000000000FFFFFF00000000
1004
000000FFFFFF00000000000000FFFF00000000000000000000FFFF0000000000000000FFFF0000000000000000FFFF00000000000000000000FFFF0000000000000000FFFF0000000000000000FFFF00000000000000000000FFFF00000000000000FFFFFF00000000000000FFFFFF000000000000000000FFFF00FF000000
1004
000000FFFF00FF000000000000FF0000FF00000000000000FFFF000000FF00000000FFFF000000FF00000000FF00000000FF000000000000FFFF000000FF00000000FFFF000000FF00000000FF00000000FF00000000FFFFFFFF0000FFFFFFFFFFFFFFFF0000FFFFFFFFFFFFFFFF0000FFFFFFFF0000000000000000000000
1004
00000000000000000000000000000000000000000000000000000000000000000000000000000000000000000000000000000000000000000000000000000000000000000000000000000000000000000000000000000000000000000000000000000000000000000000000000000000000000000000000000000000000000
1004
00000000000000000000000000000000000000000000000000000000000000000000000000000000000000000000000000000000000000000000000000000000000000000000000000000000000000000000000000000000000000000000000000000000000000000000000000000000000000000000000000000000000000
1004
0000000000000000000000000000000000000000000000000000000000000000000000000000000000000000000000000000000000000000
  0
BLOCK_RECORD
  5
2AB
330
1
100
AcDbSymbolTableRecord
100
AcDbBlockTableRecord
  2
PERSONA
1001
CONTENTBLOCKICON
1071
        0
1004
2800000020000000200000000100080000000000000400000000000000000000000000000000000000000000000080000080000000808000800000008000800080800000C0C0C000C0DCC000F0CAA6000020400000206000002080000020A0000020C0000020E00000400000004020000040400000406000004080000040A0
1004
000040C0000040E00000600000006020000060400000606000006080000060A0000060C0000060E00000800000008020000080400000806000008080000080A0000080C0000080E00000A0000000A0200000A0400000A0600000A0800000A0A00000A0C00000A0E00000C0000000C0200000C0400000C0600000C0800000C0
1004
A00000C0C00000C0E00000E0000000E0200000E0400000E0600000E0800000E0A00000E0C00000E0E00040000000400020004000400040006000400080004000A0004000C0004000E00040200000402020004020400040206000402080004020A0004020C0004020E000404000004040200040404000404060004040800040
1004
40A0004040C0004040E00040600000406020004060400040606000406080004060A0004060C0004060E00040800000408020004080400040806000408080004080A0004080C0004080E00040A0000040A0200040A0400040A0600040A0800040A0A00040A0C00040A0E00040C0000040C0200040C0400040C0600040C08000
1004
40C0A00040C0C00040C0E00040E0000040E0200040E0400040E0600040E0800040E0A00040E0C00040E0E00080000000800020008000400080006000800080008000A0008000C0008000E00080200000802020008020400080206000802080008020A0008020C0008020E00080400000804020008040400080406000804080
1004
008040A0008040C0008040E00080600000806020008060400080606000806080008060A0008060C0008060E00080800000808020008080400080806000808080008080A0008080C0008080E00080A0000080A0200080A0400080A0600080A0800080A0A00080A0C00080A0E00080C0000080C0200080C0400080C0600080C0
1004
800080C0A00080C0C00080C0E00080E0000080E0200080E0400080E0600080E0800080E0A00080E0C00080E0E000C0000000C0002000C0004000C0006000C0008000C000A000C000C000C000E000C0200000C0202000C0204000C0206000C0208000C020A000C020C000C020E000C0400000C0402000C0404000C0406000C0
1004
408000C040A000C040C000C040E000C0600000C0602000C0604000C0606000C0608000C060A000C060C000C060E000C0800000C0802000C0804000C0806000C0808000C080A000C080C000C080E000C0A00000C0A02000C0A04000C0A06000C0A08000C0A0A000C0A0C000C0A0E000C0C00000C0C02000C0C04000C0C06000
1004
C0C08000C0C0A000F0FBFF00A4A0A000808080000000FF0000FF000000FFFF00FF000000FF00FF00FFFF0000FFFFFF0000000000000000000000000000000000000000000000000000000000000000000000000000000000000000000000000000000000000000000000000000000000000000000000000000000000000000
1004
0000000000000000000000000000000000000000000000000000000000000000000000000000000000000000000000000000000000000000000000000000000000000000000000000000000000000000000000000000000000000000000000000000000000000000000000000000000000000000FFFFFFFFFFFFFFFFFFFFFF
1004
FFFFFFFF00FFFFFFFFFFFFFFFFFF00FF0000000000FFFFFFFFFFFFFFFF0000FFFFFFFFFFFFFFFFFF00FFFFFFFFFFFFFFFF00000000FFFFFFFFFFFFFFFF0000FFFF00FFFFFFFFFFFF00FF00FFFFFFFFFFFF00000000FFFFFFFFFFFFFFFF0000FFFF00FFFFFFFFFFFFFFFFFFFFFFFF00FF000000000000000000000000000000
1004
00000000000000000000000000000000000000000000000000000000000000000000000000000000000000000000000000000000000000000000000000000000000000000000000000000000000000000000000000000000000000000000000000000000000000000000000000000000000000000000000000000000000000
1004
0000000000000000000000000000000000000000000000000000000000FFFFFF000000000000000000000000000000000000000000FFFFFFFFFFFFFFFF0000FFFFFFFF00FFFFFFFFFFFFFFFFFFFFFF00000000000000FFFFFFFFFFFFFF000000FFFFFFFFFFFFFF00FF00FFFFFFFFFF000000000000FFFFFFFFFFFFFFFFFF00
1004
00FFFFFFFFFFFFFF00FFFFFFFFFFFFFF000000000000000000000000000000000000000000000000000000000000000000000000000000000000000000000000000000000000000000000000000000000000000000000000000000000000000000000000000000000000000000000000000000000000000000000000000000
1004
FFFFFF000000000000000000000000000000000000000000FFFFFFFFFFFFFFFF000000FFFFFFFFFFFFFFFFFFFFFFFFFFFF0000000000000000FFFFFFFFFFFFFF000000FFFFFFFFFFFFFFFFFFFFFFFFFFFF00000000000000FFFFFFFFFFFFFFFFFF0000FFFFFFFFFF00FFFFFFFFFFFFFFFF0000000000000000000000000000
1004
00000000000000000000000000000000000000000000000000000000000000000000000000000000000000000000000000000000000000000000000000000000000000000000000000000000000000000000000000000000000000000000000000000000000000000000000000000000000000000000000000000000000000
1004
0000000000000000000000000000000000000000000000000000000000000000000000000000000000000000000000000000000000000000
  0
BLOCK_RECORD
  5
2B8
330
1
100
AcDbSymbolTableRecord
100
AcDbBlockTableRecord
  2
PRUEVA
1001
CONTENTBLOCKICON
1071
        0
1004
2800000020000000200000000100080000000000000400000000000000000000000000000000000000000000000080000080000000808000800000008000800080800000C0C0C000C0DCC000F0CAA6000020400000206000002080000020A0000020C0000020E00000400000004020000040400000406000004080000040A0
1004
000040C0000040E00000600000006020000060400000606000006080000060A0000060C0000060E00000800000008020000080400000806000008080000080A0000080C0000080E00000A0000000A0200000A0400000A0600000A0800000A0A00000A0C00000A0E00000C0000000C0200000C0400000C0600000C0800000C0
1004
A00000C0C00000C0E00000E0000000E0200000E0400000E0600000E0800000E0A00000E0C00000E0E00040000000400020004000400040006000400080004000A0004000C0004000E00040200000402020004020400040206000402080004020A0004020C0004020E000404000004040200040404000404060004040800040
1004
40A0004040C0004040E00040600000406020004060400040606000406080004060A0004060C0004060E00040800000408020004080400040806000408080004080A0004080C0004080E00040A0000040A0200040A0400040A0600040A0800040A0A00040A0C00040A0E00040C0000040C0200040C0400040C0600040C08000
1004
40C0A00040C0C00040C0E00040E0000040E0200040E0400040E0600040E0800040E0A00040E0C00040E0E00080000000800020008000400080006000800080008000A0008000C0008000E00080200000802020008020400080206000802080008020A0008020C0008020E00080400000804020008040400080406000804080
1004
008040A0008040C0008040E00080600000806020008060400080606000806080008060A0008060C0008060E00080800000808020008080400080806000808080008080A0008080C0008080E00080A0000080A0200080A0400080A0600080A0800080A0A00080A0C00080A0E00080C0000080C0200080C0400080C0600080C0
1004
800080C0A00080C0C00080C0E00080E0000080E0200080E0400080E0600080E0800080E0A00080E0C00080E0E000C0000000C0002000C0004000C0006000C0008000C000A000C000C000C000E000C0200000C0202000C0204000C0206000C0208000C020A000C020C000C020E000C0400000C0402000C0404000C0406000C0
1004
408000C040A000C040C000C040E000C0600000C0602000C0604000C0606000C0608000C060A000C060C000C060E000C0800000C0802000C0804000C0806000C0808000C080A000C080C000C080E000C0A00000C0A02000C0A04000C0A06000C0A08000C0A0A000C0A0C000C0A0E000C0C00000C0C02000C0C04000C0C06000
1004
C0C08000C0C0A000F0FBFF00A4A0A000808080000000FF0000FF000000FFFF00FF000000FF00FF00FFFF0000FFFFFF0000000000000000000000000000000000000000000000000000000000000000000000000000000000000000000000000000000000000000000000000000000000000000000000000000000000000000
1004
00000000000000000000000000000000000000000000000000000000000000000000000000000000000000000000000000000000000000000000000000000000000000000000000000000000000000000000000000000000000000000000000000000000000000000000000000000000000000FFFFFFFFFFFFFFFF0000FFFF
1004
FFFFFFFFFFFFFF0000FF00FF0000FFFF0000000000FF0000FFFF0000FF0000FF000000FF00FF0000FFFF00FFFFFF0000FF00000000FF0000FFFF0000FFFF00FF00FF00FF00FF0000FFFF0000FF0000000000000000FF0000FFFF0000FFFF00FFFFFF000000FF00FF00FF000000FFFF000000000000FF0000FFFF0000FFFF00
1004
FF00FF00FF00FFFF0000FF0000FF0000FFFF00000000FF0000FFFF0000FF0000FF000000FF00FFFF0000FF00FFFF0000FFFF000000FFFFFFFFFFFFFFFF0000FFFFFFFFFFFFFFFF0000FFFFFF00FFFFFFFF00000000000000000000000000000000000000000000000000000000000000000000000000000000000000000000
1004
00000000000000000000000000000000000000000000000000000000000000000000000000000000000000000000000000000000000000000000000000000000000000000000000000000000000000000000000000000000000000000000000000000000000000000000000000000000000000000000000000000000000000
1004
00000000000000000000000000000000000000000000FFFFFF00FFFFFFFFFF00FFFFFFFFFFFF00FFFF0000FF0000FFFFFF000000000000FFFF0000FF0000FF0000FF000000FF00FF000000FF000000FF00000000000000FFFF0000FF0000FFFF00FF00FF00FF00FF0000FFFF000000FF00000000000000FFFF0000FF0000FF
1004
FF00FFFFFF000000FF0000FFFF000000FF00000000000000FFFF0000FF0000FFFF00FF00FF00FF00FF00FF00FF000000FF00000000000000FFFF0000FF0000FF0000FF000000FF00FF00FF00FF0000FFFF000000000000FFFFFF00FFFFFFFFFF00FFFFFFFFFFFF00FFFF00FFFFFF0000FF0000000000000000000000000000
1004
00000000000000000000000000000000000000000000000000000000000000000000000000000000000000000000000000000000000000000000000000000000000000000000000000000000000000000000000000000000000000000000000000000000000000000000000000000000000000000000000000000000000000
1004
0000000000000000000000000000000000000000000000000000000000000000000000000000000000000000000000000000000000000000
  0
BLOCK_RECORD
  5
37E
330
1
100
AcDbSymbolTableRecord
100
AcDbBlockTableRecord
  2
*D8
  0
BLOCK_RECORD
  5
3A4
330
1
100
AcDbSymbolTableRecord
100
AcDbBlockTableRecord
  2
*D9
  0
BLOCK_RECORD
  5
3B2
330
1
100
AcDbSymbolTableRecord
100
AcDbBlockTableRecord
  2
*D10
  0
BLOCK_RECORD
  5
3D4
330
1
100
AcDbSymbolTableRecord
100
AcDbBlockTableRecord
  2
*D11
  0
BLOCK_RECORD
  5
3F6
330
1
100
AcDbSymbolTableRecord
100
AcDbBlockTableRecord
  2
*D12
  0
BLOCK_RECORD
  5
454
330
1
100
AcDbSymbolTableRecord
100
AcDbBlockTableRecord
  2
*D13
  0
BLOCK_RECORD
  5
478
330
1
100
AcDbSymbolTableRecord
100
AcDbBlockTableRecord
  2
*D14
  0
BLOCK_RECORD
  5
525
330
1
100
AcDbSymbolTableRecord
100
AcDbBlockTableRecord
  2
*D15
  0
BLOCK_RECORD
  5
533
330
1
100
AcDbSymbolTableRecord
100
AcDbBlockTableRecord
  2
*D16
  0
BLOCK_RECORD
  5
541
330
1
100
AcDbSymbolTableRecord
100
AcDbBlockTableRecord
  2
*D17
  0
BLOCK_RECORD
  5
563
330
1
100
AcDbSymbolTableRecord
100
AcDbBlockTableRecord
  2
*D18
  0
BLOCK_RECORD
  5
585
330
1
100
AcDbSymbolTableRecord
100
AcDbBlockTableRecord
  2
*D19
  0
BLOCK_RECORD
  5
594
330
1
100
AcDbSymbolTableRecord
100
AcDbBlockTableRecord
  2
*D20
  0
BLOCK_RECORD
  5
64C
330
1
100
AcDbSymbolTableRecord
100
AcDbBlockTableRecord
  2
*D21
  0
BLOCK_RECORD
  5
65A
330
1
100
AcDbSymbolTableRecord
100
AcDbBlockTableRecord
  2
*D22
  0
BLOCK_RECORD
  5
668
330
1
100
AcDbSymbolTableRecord
100
AcDbBlockTableRecord
  2
*D23
  0
BLOCK_RECORD
  5
676
330
1
100
AcDbSymbolTableRecord
100
AcDbBlockTableRecord
  2
*D24
  0
BLOCK_RECORD
  5
684
330
1
100
AcDbSymbolTableRecord
100
AcDbBlockTableRecord
  2
*D25
  0
BLOCK_RECORD
  5
692
330
1
100
AcDbSymbolTableRecord
100
AcDbBlockTableRecord
  2
*D26
  0
ENDTAB
  0
ENDSEC
  0
SECTION
  2
BLOCKS
  0
BLOCK
  5
1F
330
1E
100
AcDbEntity
  8
0
100
AcDbBlockBegin
  2
*MODEL_SPACE
 70
     0
 10
0.0
 20
0.0
 30
0.0
  3
*MODEL_SPACE
  1

  0
ENDBLK
  5
20
330
1E
100
AcDbEntity
  8
0
100
AcDbBlockEnd
  0
BLOCK
  5
1B
330
1A
100
AcDbEntity
 67
     1
  8
0
100
AcDbBlockBegin
  2
*PAPER_SPACE
 70
     0
 10
0.0
 20
0.0
 30
0.0
  3
*PAPER_SPACE
  1

  0
ENDBLK
  5
1C
330
1A
100
AcDbEntity
 67
     1
  8
0
100
AcDbBlockEnd
  0
BLOCK
  5
23C
330
23B
100
AcDbEntity
  8
0
100
AcDbBlockBegin
  2
TIPUS
 70
     0
 10
0.0
 20
0.0
 30
0.0
  3
TIPUS
  1

  0
TEXT
  5
293
330
23B
100
AcDbEntity
  8
0
  6
CONTINUOUS
100
AcDbText
 10
286.1177180249413
 20
42.37875471737599
 30
0.0
 40
0.3
  1
NTXXXY
  7
ROMANC
100
AcDbText
  0
ENDBLK
  5
23D
330
23B
100
AcDbEntity
  8
0
100
AcDbBlockEnd
  0
BLOCK
  5
241
330
240
100
AcDbEntity
  8
0
100
AcDbBlockBegin
  2
SUPERFICIE
 70
     0
 10
0.0
 20
0.0
 30
0.0
  3
SUPERFICIE
  1

  0
TEXT
  5
291
330
240
100
AcDbEntity
  8
0
  6
CONTINUOUS
100
AcDbText
 10
285.1576974311999
 20
41.09913197584499
 30
0.0
 40
0.3
  1
XXX
  7
ROMANC
100
AcDbText
  0
ENDBLK
  5
242
330
240
100
AcDbEntity
  8
0
100
AcDbBlockEnd
  0
BLOCK
  5
246
330
245
100
AcDbEntity
  8
0
100
AcDbBlockBegin
  2
PERIMETRE
 70
     0
 10
0.0
 20
0.0
 30
0.0
  3
PERIMETRE
  1

  0
TEXT
  5
248
330
245
100
AcDbEntity
  8
0
  6
CONTINUOUS
100
AcDbText
 10
-0.0273031851410224
 20
0.0018352306916185
 30
0.0
 40
0.3
  1
XXX
  7
ROMANC
100
AcDbText
  0
ENDBLK
  5
247
330
245
100
AcDbEntity
  8
0
100
AcDbBlockEnd
  0
BLOCK
  5
250
330
24F
100
AcDbEntity
  8
0
100
AcDbBlockBegin
  2
1
 70
     2
 10
0.0
 20
0.0
 30
0.0
  3
1
  1

  0
TEXT
  5
252
330
24F
100
AcDbEntity
  8
0
  6
CONTINUOUS
100
AcDbText
 10
0.1822521001187169
 20
0.7599981843347125
 30
0.0
 40
0.3
  1
S =    dm
  7
ROMANC
100
AcDbText
  0
INSERT
  5
253
330
24F
100
AcDbEntity
  8
0
100
AcDbBlockReference
  2
TIPUS
 10
2.38227331020124
 20
2.026069320385409
 30
0.0
  0
TEXT
  5
254
330
24F
100
AcDbEntity
  8
0
  6
CONTINUOUS
100
AcDbText
 10
0.1592521001188629
 20
0.1899981843347476
 30
0.0
 40
0.3
  1
P =    dm
  7
ROMANC
100
AcDbText
  0
TEXT
  5
255
330
24F
100
AcDbEntity
  8
0
  6
CONTINUOUS
100
AcDbText
 10
0.1632521001187115
 20
1.428998184334743
 30
0.0
 40
0.3
  1
ESCALA  1:50
  7
ROMANC
100
AcDbText
  0
INSERT
  5
256
330
24F
100
AcDbEntity
  8
0
100
AcDbBlockReference
  2
PERIMETRE
 10
1.422252716459752
 20
0.2014221004675178
 30
0.0
  0
INSERT
  5
257
330
24F
100
AcDbEntity
  8
0
100
AcDbBlockReference
  2
SUPERFICIE
 10
1.434104793966466
 20
0.7582949294881374
 30
0.0
  0
TEXT
  5
258
330
24F
100
AcDbEntity
  8
0
  6
CONTINUOUS
100
AcDbText
 10
0.1632521001187115
 20
2.041998184334743
 30
0.0
 40
0.3
  1
TIPUS   
  7
ROMANC
100
AcDbText
  0
ATTDEF
  5
259
330
24F
100
AcDbEntity
  8
0
100
AcDbText
 10
3.579335975109017
 20
0.1777253642765615
 30
0.0
 40
0.2
  1
x
100
AcDbAttributeDefinition
  3
tipus
  2
TIPUS
 70
     0
  0
ATTDEF
  5
25A
330
24F
100
AcDbEntity
  8
0
100
AcDbText
 10
3.733413387943357
 20
0.734598228220662
 30
0.0
 40
0.2
  1
x
100
AcDbAttributeDefinition
  3
tipus
  2
TIPUS
 70
     0
  0
TEXT
  5
25B
330
24F
100
AcDbEntity
  8
0
  6
CONTINUOUS
100
AcDbText
 10
3.10297712188418
 20
1.019094372221033
 30
0.0
 40
0.1
  1
2
  7
ROMANC
100
AcDbText
  0
ATTDEF
  5
25C
330
24F
100
AcDbEntity
  8
0
100
AcDbText
 10
4.480096065531991
 20
2.049766056576372
 30
0.0
 40
0.2
  1
x
100
AcDbAttributeDefinition
  3
tipus
  2
TIPUS
 70
     0
  0
ENDBLK
  5
251
330
24F
100
AcDbEntity
  8
0
100
AcDbBlockEnd
  0
BLOCK
  5
26E
330
26D
100
AcDbEntity
  8
0
100
AcDbBlockBegin
  2
CARACTERISTIQUES
 70
     2
 10
0.0
 20
0.0
 30
0.0
  3
CARACTERISTIQUES
  1

  0
ATTDEF
  5
309
330
26D
100
AcDbEntity
  8
0
100
AcDbText
 10
286.2722613402651
 20
41.75273550800127
 30
0.0
 40
0.3
  1
1:50
  7
ROMANC
100
AcDbAttributeDefinition
  3
Escala
  2
1:50
 70
     0
  0
ATTDEF
  5
30A
330
26D
100
AcDbEntity
  8
0
100
AcDbText
 10
286.2281292928555
 20
42.38557741488182
 30
0.0
 40
0.3
  1
NTXXXY
  7
ROMANC
100
AcDbAttributeDefinition
  3
Tipus de Seccio
  2
NTXXY
 70
     0
  0
ATTDEF
  5
30B
330
26D
100
AcDbEntity
  8
0
100
AcDbText
 10
285.0261535910101
 20
41.10070262236148
 30
0.0
 40
0.3
  1
XXX
  7
ROMANC
100
AcDbAttributeDefinition
  3
Superficie de la seccio
  2
XXX
 70
     0
  0
ATTDEF
  5
30C
330
26D
100
AcDbEntity
  8
0
100
AcDbText
 10
285.049954865421
 20
40.52964709849685
 30
0.0
 40
0.3
  1
XX
  7
ROMANC
100
AcDbAttributeDefinition
  3
Perimetre de la Seccio
  2
XX
 70
     0
  0
ATTDEF
  5
30D
330
26D
100
AcDbEntity
  8
0
100
AcDbText
 10
287.7675284271763
 20
30.62335152191192
 30
0.0
 40
0.3
  1
Xxxxxxxxxxxx
  7
ROMANC
 72
     2
 11
291.1675284271763
 21
30.62335152191192
 31
0.0
100
AcDbAttributeDefinition
  3
Ubicaciò
  2
Xxxxxxxxxxxx
 70
     0
  0
ENDBLK
  5
26F
330
26D
100
AcDbEntity
  8
0
100
AcDbBlockEnd
  0
BLOCK
  5
28D
330
28C
100
AcDbEntity
  8
0
100
AcDbBlockBegin
  2
PERIMETRO
 70
     0
 10
0.0
 20
0.0
 30
0.0
  3
PERIMETRO
  1

  0
TEXT
  5
28F
330
28C
100
AcDbEntity
  8
0
  6
CONTINUOUS
100
AcDbText
 10
285.1576974311999
 20
40.54225914682438
 30
0.0
 40
0.3
  1
XXX
  7
ROMANC
100
AcDbText
  0
ENDBLK
  5
28E
330
28C
100
AcDbEntity
  8
0
100
AcDbBlockEnd
  0
BLOCK
  5
2AC
330
2AB
100
AcDbEntity
  8
0
100
AcDbBlockBegin
  2
PERSONA
 70
     2
 10
0.0
 20
0.0
 30
0.0
  3
PERSONA
  1

  0
ATTDEF
  5
2AE
330
2AB
100
AcDbEntity
  8
0
100
AcDbText
 10
0.3477492763984173
 20
1.891334330655126
 30
0.0
 40
0.2
  1
val:nombre
  7
ROMANC
100
AcDbAttributeDefinition
  3
sol_nombre
  2
IDEN_NOMBRE
 70
     0
  0
ATTDEF
  5
2AF
330
2AB
100
AcDbEntity
  8
0
100
AcDbText
 10
0.2447312480355777
 20
1.208599186397186
 30
0.0
 40
0.2
  1
val_apellido
  7
ROMANC
100
AcDbAttributeDefinition
  3
sol_apellido
  2
IDEN_APELLIDO
 70
     0
  0
ATTDEF
  5
2B0
330
2AB
100
AcDbEntity
  8
0
100
AcDbText
 10
0.3651607346860146
 20
0.342229907808246
 30
0.0
 40
0.2
  1
val_2apellido
  7
ROMANC
100
AcDbAttributeDefinition
  3
sol_2apellido
  2
IDEN_2APELLIDO
 70
     0
  0
ENDBLK
  5
2AD
330
2AB
100
AcDbEntity
  8
0
100
AcDbBlockEnd
  0
BLOCK
  5
2B9
330
2B8
100
AcDbEntity
  8
0
100
AcDbBlockBegin
  2
PRUEVA
 70
     2
 10
0.0
 20
0.0
 30
0.0
  3
PRUEVA
  1

  0
ATTDEF
  5
2BB
330
2B8
100
AcDbEntity
  8
0
100
AcDbText
 10
-0.0238012744110847
 20
0.107073217119698
 30
0.0
 40
0.2
  1
val1
  7
ROMANC
100
AcDbAttributeDefinition
  3
sol1
  2
IDEN1
 70
     0
  0
ATTDEF
  5
2BC
330
2B8
100
AcDbEntity
  8
0
100
AcDbText
 10
-0.0000000000000568
 20
-0.3093217193975377
 30
0.0
 40
0.2
  1
val2
  7
ROMANC
100
AcDbAttributeDefinition
  3
sol2
  2
IDEN2
 70
     0
  0
ENDBLK
  5
2BA
330
2B8
100
AcDbEntity
  8
0
100
AcDbBlockEnd
  0
BLOCK
  5
389
330
37E
100
AcDbEntity
  8
0
100
AcDbBlockBegin
  2
*D8
 70
     1
 10
0.0
 20
0.0
 30
0.0
  3
*D8
  1

  0
LINE
  5
4AE
330
37E
100
AcDbEntity
  8
0
 62
     0
100
AcDbLine
 10
284.9913510900654
 20
35.42906647511827
 30
0.0
 11
284.9913510900654
 21
34.19013585042242
 31
0.0
  0
LINE
  5
4AF
330
37E
100
AcDbEntity
  8
0
 62
     0
100
AcDbLine
 10
287.3913510900653
 20
35.42906647511827
 30
0.0
 11
287.3913510900653
 21
34.19013585042242
 31
0.0
  0
LINE
  5
4B0
330
37E
100
AcDbEntity
  8
0
 62
     0
100
AcDbLine
 10
285.1713510900653
 20
34.37013585042242
 30
0.0
 11
285.8463510900654
 21
34.37013585042242
 31
0.0
  0
LINE
  5
4B1
330
37E
100
AcDbEntity
  8
0
 62
     0
100
AcDbLine
 10
287.2113510900653
 20
34.37013585042242
 30
0.0
 11
286.5363510900654
 21
34.37013585042242
 31
0.0
  0
SOLID
  5
4B2
330
37E
100
AcDbEntity
  8
0
 62
     0
100
AcDbTrace
 10
285.1713510900653
 20
34.40013585042242
 30
0.0
 11
285.1713510900653
 21
34.34013585042242
 31
0.0
 12
284.9913510900654
 22
34.37013585042242
 32
0.0
 13
284.9913510900654
 23
34.37013585042242
 33
0.0
  0
SOLID
  5
4B3
330
37E
100
AcDbEntity
  8
0
 62
     0
100
AcDbTrace
 10
287.2113510900653
 20
34.40013585042242
 30
0.0
 11
287.2113510900653
 21
34.34013585042242
 31
0.0
 12
287.3913510900653
 22
34.37013585042242
 32
0.0
 13
287.3913510900653
 23
34.37013585042242
 33
0.0
  0
MTEXT
  5
4B4
330
37E
100
AcDbEntity
  8
0
 62
     0
100
AcDbMText
 10
286.1913510900653
 20
34.37013585042242
 30
0.0
 40
0.18
 41
0.0
 71
     5
 72
     1
  1
\A1;2.40
1001
ACAD
1000
MTEXTBEGIN
1070
    73
1070
     1
1070
    44
1040
1.0
1070
    74
1070
     0
1000
MTEXTEND
1000
MTEXTBEGIN
1070
    73
1070
     1
1070
    44
1040
1.0
1070
    74
1070
     0
1000
MTEXTEND
  0
POINT
  5
4B5
330
37E
100
AcDbEntity
  8
DEFPOINTS
 62
     0
100
AcDbPoint
 10
284.9913510900654
 20
35.49156647511827
 30
0.0
  0
POINT
  5
4B6
330
37E
100
AcDbEntity
  8
DEFPOINTS
 62
     0
100
AcDbPoint
 10
287.3913510900653
 20
35.49156647511827
 30
0.0
  0
POINT
  5
4B7
330
37E
100
AcDbEntity
  8
DEFPOINTS
 62
     0
100
AcDbPoint
 10
287.3913510900653
 20
34.37013585042242
 30
0.0
  0
ENDBLK
  5
38A
330
37E
100
AcDbEntity
  8
0
100
AcDbBlockEnd
  0
BLOCK
  5
3AF
330
3A4
100
AcDbEntity
  8
0
100
AcDbBlockBegin
  2
*D9
 70
     1
 10
0.0
 20
0.0
 30
0.0
  3
*D9
  1

  0
LINE
  5
4CC
330
3A4
100
AcDbEntity
  8
0
 62
     0
100
AcDbLine
 10
286.8538510900654
 20
35.19156647511827
 30
0.0
 11
288.420759077965
 21
35.19156647511827
 31
0.0
  0
LINE
  5
4CD
330
3A4
100
AcDbEntity
  8
0
 62
     0
100
AcDbLine
 10
287.3913510900653
 20
38.34156647511827
 30
0.0
 11
288.420759077965
 21
38.34156647511827
 31
0.0
  0
LINE
  5
4CE
330
3A4
100
AcDbEntity
  8
0
 62
     0
100
AcDbLine
 10
288.2407590779651
 20
35.37156647511827
 30
0.0
 11
288.2407590779651
 21
36.37154890277662
 31
0.0
  0
LINE
  5
4CF
330
3A4
100
AcDbEntity
  8
0
 62
     0
100
AcDbLine
 10
288.2407590779651
 20
38.16156647511828
 30
0.0
 11
288.2407590779651
 21
36.73154890277661
 31
0.0
  0
SOLID
  5
4D0
330
3A4
100
AcDbEntity
  8
0
 62
     0
100
AcDbTrace
 10
288.2107590779651
 20
35.37156647511827
 30
0.0
 11
288.2707590779651
 21
35.37156647511827
 31
0.0
 12
288.2407590779651
 22
35.19156647511827
 32
0.0
 13
288.2407590779651
 23
35.19156647511827
 33
0.0
  0
SOLID
  5
4D1
330
3A4
100
AcDbEntity
  8
0
 62
     0
100
AcDbTrace
 10
288.2107590779651
 20
38.16156647511828
 30
0.0
 11
288.2707590779651
 21
38.16156647511828
 31
0.0
 12
288.2407590779651
 22
38.34156647511827
 32
0.0
 13
288.2407590779651
 23
38.34156647511827
 33
0.0
  0
MTEXT
  5
4D2
330
3A4
100
AcDbEntity
  8
0
 62
     0
100
AcDbMText
 10
288.2407590779651
 20
36.55154890277667
 30
0.0
 40
0.18
 41
0.0
 71
     5
 72
     1
  1
\A1;3.15
1001
ACAD
1000
MTEXTBEGIN
1070
    73
1070
     1
1070
    44
1040
1.0
1070
    74
1070
     0
1000
MTEXTEND
1000
MTEXTBEGIN
1070
    73
1070
     1
1070
    44
1040
1.0
1070
    74
1070
     0
1000
MTEXTEND
  0
POINT
  5
4D3
330
3A4
100
AcDbEntity
  8
DEFPOINTS
 62
     0
100
AcDbPoint
 10
286.7913510900653
 20
35.19156647511827
 30
0.0
  0
POINT
  5
4D4
330
3A4
100
AcDbEntity
  8
DEFPOINTS
 62
     0
100
AcDbPoint
 10
287.3288510900653
 20
38.34156647511827
 30
0.0
  0
POINT
  5
4D5
330
3A4
100
AcDbEntity
  8
DEFPOINTS
 62
     0
100
AcDbPoint
 10
288.2407590779651
 20
38.34156647511827
 30
0.0
  0
ENDBLK
  5
3B0
330
3A4
100
AcDbEntity
  8
0
100
AcDbBlockEnd
  0
BLOCK
  5
3BD
330
3B2
100
AcDbEntity
  8
0
100
AcDbBlockBegin
  2
*D10
 70
     1
 10
0.0
 20
0.0
 30
0.0
  3
*D10
  1

  0
LINE
  5
4A4
330
3B2
100
AcDbEntity
  8
0
 62
     0
100
AcDbLine
 10
287.3913510900653
 20
35.42906647511827
 30
0.0
 11
287.3913510900653
 21
34.47933028752336
 31
0.0
  0
LINE
  5
4A5
330
3B2
100
AcDbEntity
  8
0
 62
     0
100
AcDbLine
 10
286.7913510900653
 20
35.42906647511827
 30
0.0
 11
286.7913510900653
 21
34.47933028752336
 31
0.0
  0
LINE
  5
4A6
330
3B2
100
AcDbEntity
  8
0
 62
     0
100
AcDbLine
 10
287.5713510900654
 20
34.65933028752337
 30
0.0
 11
287.7513510900653
 21
34.65933028752337
 31
0.0
  0
LINE
  5
4A7
330
3B2
100
AcDbEntity
  8
0
 62
     0
100
AcDbLine
 10
286.6113510900654
 20
34.65933028752337
 30
0.0
 11
286.4313510900653
 21
34.65933028752337
 31
0.0
  0
SOLID
  5
4A8
330
3B2
100
AcDbEntity
  8
0
 62
     0
100
AcDbTrace
 10
287.5713510900654
 20
34.68933028752337
 30
0.0
 11
287.5713510900654
 21
34.62933028752336
 31
0.0
 12
287.3913510900653
 22
34.65933028752337
 32
0.0
 13
287.3913510900653
 23
34.65933028752337
 33
0.0
  0
SOLID
  5
4A9
330
3B2
100
AcDbEntity
  8
0
 62
     0
100
AcDbTrace
 10
286.6113510900654
 20
34.68933028752337
 30
0.0
 11
286.6113510900654
 21
34.62933028752336
 31
0.0
 12
286.7913510900653
 22
34.65933028752337
 32
0.0
 13
286.7913510900653
 23
34.65933028752337
 33
0.0
  0
MTEXT
  5
4AA
330
3B2
100
AcDbEntity
  8
0
 62
     0
100
AcDbMText
 10
287.0438439768073
 20
34.65933028752337
 30
0.0
 40
0.18
 41
0.0
 71
     5
 72
     1
  1
\A1;0.60
1001
ACAD
1000
MTEXTBEGIN
1070
    73
1070
     1
1070
    44
1040
1.0
1070
    74
1070
     0
1000
MTEXTEND
1000
MTEXTBEGIN
1070
    73
1070
     1
1070
    44
1040
1.0
1070
    74
1070
     0
1000
MTEXTEND
  0
POINT
  5
4AB
330
3B2
100
AcDbEntity
  8
DEFPOINTS
 62
     0
100
AcDbPoint
 10
287.3913510900653
 20
35.49156647511827
 30
0.0
  0
POINT
  5
4AC
330
3B2
100
AcDbEntity
  8
DEFPOINTS
 62
     0
100
AcDbPoint
 10
286.7913510900653
 20
35.49156647511827
 30
0.0
  0
POINT
  5
4AD
330
3B2
100
AcDbEntity
  8
DEFPOINTS
 62
     0
100
AcDbPoint
 10
286.7913510900653
 20
34.65933028752337
 30
0.0
  0
ENDBLK
  5
3BE
330
3B2
100
AcDbEntity
  8
0
100
AcDbBlockEnd
  0
BLOCK
  5
3DF
330
3D4
100
AcDbEntity
  8
0
100
AcDbBlockBegin
  2
*D11
 70
     1
 10
0.0
 20
0.0
 30
0.0
  3
*D11
  1

  0
LINE
  5
4C2
330
3D4
100
AcDbEntity
  8
0
 62
     0
100
AcDbLine
 10
284.9913510900654
 20
35.42906647511827
 30
0.0
 11
284.9913510900654
 21
34.54661068536439
 31
0.0
  0
LINE
  5
4C3
330
3D4
100
AcDbEntity
  8
0
 62
     0
100
AcDbLine
 10
285.5913510900653
 20
35.42906647511827
 30
0.0
 11
285.5913510900653
 21
34.54661068536439
 31
0.0
  0
LINE
  5
4C4
330
3D4
100
AcDbEntity
  8
0
 62
     0
100
AcDbLine
 10
284.8113510900653
 20
34.72661068536439
 30
0.0
 11
284.6313510900653
 21
34.72661068536439
 31
0.0
  0
LINE
  5
4C5
330
3D4
100
AcDbEntity
  8
0
 62
     0
100
AcDbLine
 10
285.7713510900655
 20
34.72661068536439
 30
0.0
 11
285.9513510900653
 21
34.72661068536439
 31
0.0
  0
SOLID
  5
4C6
330
3D4
100
AcDbEntity
  8
0
 62
     0
100
AcDbTrace
 10
284.8113510900653
 20
34.75661068536438
 30
0.0
 11
284.8113510900653
 21
34.69661068536439
 31
0.0
 12
284.9913510900654
 22
34.72661068536439
 32
0.0
 13
284.9913510900654
 23
34.72661068536439
 33
0.0
  0
SOLID
  5
4C7
330
3D4
100
AcDbEntity
  8
0
 62
     0
100
AcDbTrace
 10
285.7713510900655
 20
34.75661068536438
 30
0.0
 11
285.7713510900655
 21
34.69661068536439
 31
0.0
 12
285.5913510900653
 22
34.72661068536439
 32
0.0
 13
285.5913510900653
 23
34.72661068536439
 33
0.0
  0
MTEXT
  5
4C8
330
3D4
100
AcDbEntity
  8
0
 62
     0
100
AcDbMText
 10
285.2544810937271
 20
34.72661068536439
 30
0.0
 40
0.18
 41
0.0
 71
     5
 72
     1
  1
\A1;0.60
1001
ACAD
1000
MTEXTBEGIN
1070
    73
1070
     1
1070
    44
1040
1.0
1070
    74
1070
     0
1000
MTEXTEND
1000
MTEXTBEGIN
1070
    73
1070
     1
1070
    44
1040
1.0
1070
    74
1070
     0
1000
MTEXTEND
  0
POINT
  5
4C9
330
3D4
100
AcDbEntity
  8
DEFPOINTS
 62
     0
100
AcDbPoint
 10
284.9913510900654
 20
35.49156647511827
 30
0.0
  0
POINT
  5
4CA
330
3D4
100
AcDbEntity
  8
DEFPOINTS
 62
     0
100
AcDbPoint
 10
285.5913510900653
 20
35.49156647511827
 30
0.0
  0
POINT
  5
4CB
330
3D4
100
AcDbEntity
  8
DEFPOINTS
 62
     0
100
AcDbPoint
 10
285.5913510900653
 20
34.72661068536439
 30
0.0
  0
ENDBLK
  5
3E0
330
3D4
100
AcDbEntity
  8
0
100
AcDbBlockEnd
  0
BLOCK
  5
401
330
3F6
100
AcDbEntity
  8
0
100
AcDbBlockBegin
  2
*D12
 70
     1
 10
0.0
 20
0.0
 30
0.0
  3
*D12
  1

  0
LINE
  5
49A
330
3F6
100
AcDbEntity
  8
0
 62
     0
100
AcDbLine
 10
285.5913510900653
 20
35.12906647511827
 30
0.0
 11
285.5913510900653
 21
34.78769886488774
 31
0.0
  0
LINE
  5
49B
330
3F6
100
AcDbEntity
  8
0
 62
     0
100
AcDbLine
 10
286.7913510900653
 20
35.12906647511827
 30
0.0
 11
286.7913510900653
 21
34.78769886488774
 31
0.0
  0
LINE
  5
49C
330
3F6
100
AcDbEntity
  8
0
 62
     0
100
AcDbLine
 10
285.7713510900653
 20
34.96769886488776
 30
0.0
 11
285.8706229188743
 21
34.96769886488776
 31
0.0
  0
LINE
  5
49D
330
3F6
100
AcDbEntity
  8
0
 62
     0
100
AcDbLine
 10
286.6113510900654
 20
34.96769886488776
 30
0.0
 11
286.5006229188743
 21
34.96769886488776
 31
0.0
  0
SOLID
  5
49E
330
3F6
100
AcDbEntity
  8
0
 62
     0
100
AcDbTrace
 10
285.7713510900653
 20
34.99769886488776
 30
0.0
 11
285.7713510900653
 21
34.93769886488776
 31
0.0
 12
285.5913510900653
 22
34.96769886488776
 32
0.0
 13
285.5913510900653
 23
34.96769886488776
 33
0.0
  0
SOLID
  5
49F
330
3F6
100
AcDbEntity
  8
0
 62
     0
100
AcDbTrace
 10
286.6113510900654
 20
34.99769886488776
 30
0.0
 11
286.6113510900654
 21
34.93769886488776
 31
0.0
 12
286.7913510900653
 22
34.96769886488776
 32
0.0
 13
286.7913510900653
 23
34.96769886488776
 33
0.0
  0
MTEXT
  5
4A0
330
3F6
100
AcDbEntity
  8
0
 62
     0
100
AcDbMText
 10
286.1856229188743
 20
34.96769886488776
 30
0.0
 40
0.18
 41
0.0
 71
     5
 72
     1
  1
\A1;1.20
1001
ACAD
1000
MTEXTBEGIN
1070
    73
1070
     1
1070
    44
1040
1.0
1070
    74
1070
     0
1000
MTEXTEND
1000
MTEXTBEGIN
1070
    73
1070
     1
1070
    44
1040
1.0
1070
    74
1070
     0
1000
MTEXTEND
  0
POINT
  5
4A1
330
3F6
100
AcDbEntity
  8
DEFPOINTS
 62
     0
100
AcDbPoint
 10
285.5913510900653
 20
35.19156647511827
 30
0.0
  0
POINT
  5
4A2
330
3F6
100
AcDbEntity
  8
DEFPOINTS
 62
     0
100
AcDbPoint
 10
286.7913510900653
 20
35.19156647511827
 30
0.0
  0
POINT
  5
4A3
330
3F6
100
AcDbEntity
  8
DEFPOINTS
 62
     0
100
AcDbPoint
 10
286.7913510900653
 20
34.96769886488776
 30
0.0
  0
ENDBLK
  5
402
330
3F6
100
AcDbEntity
  8
0
100
AcDbBlockEnd
  0
BLOCK
  5
460
330
454
100
AcDbEntity
  8
0
100
AcDbBlockBegin
  2
*D13
 70
     1
 10
0.0
 20
0.0
 30
0.0
  3
*D13
  1

  0
LINE
  5
4B8
330
454
100
AcDbEntity
  8
0
 62
     0
100
AcDbLine
 10
285.5288510900653
 20
35.19156647511827
 30
0.0
 11
284.4855058464087
 21
35.19156647511827
 31
0.0
  0
LINE
  5
4B9
330
454
100
AcDbEntity
  8
0
 62
     0
100
AcDbLine
 10
285.5288510900653
 20
35.49156647511827
 30
0.0
 11
284.4855058464087
 21
35.49156647511827
 31
0.0
  0
LINE
  5
4BA
330
454
100
AcDbEntity
  8
0
 62
     0
100
AcDbLine
 10
284.6655058464087
 20
35.01156647511827
 30
0.0
 11
284.6655058464087
 21
34.83156647511827
 31
0.0
  0
LINE
  5
4BB
330
454
100
AcDbEntity
  8
0
 62
     0
100
AcDbLine
 10
284.6655058464087
 20
35.67156647511827
 30
0.0
 11
284.6655058464087
 21
35.85156647511825
 31
0.0
  0
SOLID
  5
4BC
330
454
100
AcDbEntity
  8
0
 62
     0
100
AcDbTrace
 10
284.6355058464088
 20
35.01156647511827
 30
0.0
 11
284.6955058464088
 21
35.01156647511827
 31
0.0
 12
284.6655058464087
 22
35.19156647511827
 32
0.0
 13
284.6655058464087
 23
35.19156647511827
 33
0.0
  0
SOLID
  5
4BD
330
454
100
AcDbEntity
  8
0
 62
     0
100
AcDbTrace
 10
284.6355058464088
 20
35.67156647511827
 30
0.0
 11
284.6955058464088
 21
35.67156647511827
 31
0.0
 12
284.6655058464087
 22
35.49156647511827
 32
0.0
 13
284.6655058464087
 23
35.49156647511827
 33
0.0
  0
MTEXT
  5
4BE
330
454
100
AcDbEntity
  8
0
 62
     0
100
AcDbMText
 10
284.6655058464087
 20
35.34156647511832
 30
0.0
 40
0.18
 41
0.0
 71
     5
 72
     1
  1
\A1;0.30
1001
ACAD
1000
MTEXTBEGIN
1070
    73
1070
     1
1070
    44
1040
1.0
1070
    74
1070
     0
1000
MTEXTEND
1000
MTEXTBEGIN
1070
    73
1070
     1
1070
    44
1040
1.0
1070
    74
1070
     0
1000
MTEXTEND
  0
POINT
  5
4BF
330
454
100
AcDbEntity
  8
DEFPOINTS
 62
     0
100
AcDbPoint
 10
285.5913510900653
 20
35.19156647511827
 30
0.0
  0
POINT
  5
4C0
330
454
100
AcDbEntity
  8
DEFPOINTS
 62
     0
100
AcDbPoint
 10
285.5913510900653
 20
35.49156647511827
 30
0.0
  0
POINT
  5
4C1
330
454
100
AcDbEntity
  8
DEFPOINTS
 62
     0
100
AcDbPoint
 10
284.6655058464087
 20
35.49156647511827
 30
0.0
  0
ENDBLK
  5
461
330
454
100
AcDbEntity
  8
0
100
AcDbBlockEnd
  0
BLOCK
  5
483
330
478
100
AcDbEntity
  8
0
100
AcDbBlockBegin
  2
*D14
 70
     1
 10
0.0
 20
0.0
 30
0.0
  3
*D14
  1

  0
LINE
  5
4D6
330
478
100
AcDbEntity
  8
0
 62
     0
100
AcDbLine
 10
287.4538510900653
 20
35.49156647511827
 30
0.0
 11
287.9512628560468
 21
35.49156647511827
 31
0.0
  0
LINE
  5
4D7
330
478
100
AcDbEntity
  8
0
 62
     0
100
AcDbLine
 10
287.4538510900653
 20
38.34156647511827
 30
0.0
 11
287.9512628560468
 21
38.34156647511827
 31
0.0
  0
LINE
  5
4D8
330
478
100
AcDbEntity
  8
0
 62
     0
100
AcDbLine
 10
287.7712628560468
 20
35.67156647511827
 30
0.0
 11
287.7712628560468
 21
36.73656647511825
 31
0.0
  0
LINE
  5
4D9
330
478
100
AcDbEntity
  8
0
 62
     0
100
AcDbLine
 10
287.7712628560468
 20
38.16156647511828
 30
0.0
 11
287.7712628560468
 21
37.09656647511826
 31
0.0
  0
SOLID
  5
4DA
330
478
100
AcDbEntity
  8
0
 62
     0
100
AcDbTrace
 10
287.7412628560469
 20
35.67156647511827
 30
0.0
 11
287.8012628560468
 21
35.67156647511827
 31
0.0
 12
287.7712628560468
 22
35.49156647511827
 32
0.0
 13
287.7712628560468
 23
35.49156647511827
 33
0.0
  0
SOLID
  5
4DB
330
478
100
AcDbEntity
  8
0
 62
     0
100
AcDbTrace
 10
287.7412628560469
 20
38.16156647511828
 30
0.0
 11
287.8012628560468
 21
38.16156647511828
 31
0.0
 12
287.7712628560468
 22
38.34156647511827
 32
0.0
 13
287.7712628560468
 23
38.34156647511827
 33
0.0
  0
MTEXT
  5
4DC
330
478
100
AcDbEntity
  8
0
 62
     0
100
AcDbMText
 10
287.7712628560468
 20
36.91656647511831
 30
0.0
 40
0.18
 41
0.0
 71
     5
 72
     1
  1
\A1;2.85
1001
ACAD
1000
MTEXTBEGIN
1070
    73
1070
     1
1070
    44
1040
1.0
1070
    74
1070
     0
1000
MTEXTEND
1000
MTEXTBEGIN
1070
    73
1070
     1
1070
    44
1040
1.0
1070
    74
1070
     0
1000
MTEXTEND
  0
POINT
  5
4DD
330
478
100
AcDbEntity
  8
DEFPOINTS
 62
     0
100
AcDbPoint
 10
287.3913510900653
 20
35.49156647511827
 30
0.0
  0
POINT
  5
4DE
330
478
100
AcDbEntity
  8
DEFPOINTS
 62
     0
100
AcDbPoint
 10
287.3913510900653
 20
38.34156647511827
 30
0.0
  0
POINT
  5
4DF
330
478
100
AcDbEntity
  8
DEFPOINTS
 62
     0
100
AcDbPoint
 10
287.7712628560468
 20
38.34156647511827
 30
0.0
  0
ENDBLK
  5
484
330
478
100
AcDbEntity
  8
0
100
AcDbBlockEnd
  0
BLOCK
  5
530
330
525
100
AcDbEntity
  8
0
100
AcDbBlockBegin
  2
*D15
 70
     1
 10
0.0
 20
0.0
 30
0.0
  3
*D15
  1

  0
LINE
  5
5D6
330
525
100
AcDbEntity
  8
0
 62
     0
100
AcDbLine
 10
283.9959226350424
 20
35.99691131442118
 30
0.0
 11
283.9959226350424
 21
34.72169138105638
 31
0.0
  0
LINE
  5
5D7
330
525
100
AcDbEntity
  8
0
 62
     0
100
AcDbLine
 10
288.1959226350423
 20
35.99691131442118
 30
0.0
 11
288.1959226350423
 21
34.72169138105638
 31
0.0
  0
LINE
  5
5D8
330
525
100
AcDbEntity
  8
0
 62
     0
100
AcDbLine
 10
284.1759226350423
 20
34.90169138105638
 30
0.0
 11
285.7509226350424
 21
34.90169138105638
 31
0.0
  0
LINE
  5
5D9
330
525
100
AcDbEntity
  8
0
 62
     0
100
AcDbLine
 10
288.0159226350424
 20
34.90169138105638
 30
0.0
 11
286.4409226350425
 21
34.90169138105638
 31
0.0
  0
SOLID
  5
5DA
330
525
100
AcDbEntity
  8
0
 62
     0
100
AcDbTrace
 10
284.1759226350423
 20
34.93169138105638
 30
0.0
 11
284.1759226350423
 21
34.87169138105638
 31
0.0
 12
283.9959226350424
 22
34.90169138105638
 32
0.0
 13
283.9959226350424
 23
34.90169138105638
 33
0.0
  0
SOLID
  5
5DB
330
525
100
AcDbEntity
  8
0
 62
     0
100
AcDbTrace
 10
288.0159226350424
 20
34.93169138105638
 30
0.0
 11
288.0159226350424
 21
34.87169138105638
 31
0.0
 12
288.1959226350423
 22
34.90169138105638
 32
0.0
 13
288.1959226350423
 23
34.90169138105638
 33
0.0
  0
MTEXT
  5
5DC
330
525
100
AcDbEntity
  8
0
 62
     0
100
AcDbMText
 10
286.0959226350423
 20
34.90169138105638
 30
0.0
 40
0.18
 41
0.0
 71
     5
 72
     1
  1
\A1;4.20
1001
ACAD
1000
MTEXTBEGIN
1070
    73
1070
     1
1070
    44
1040
1.0
1070
    74
1070
     0
1000
MTEXTEND
1000
MTEXTBEGIN
1070
    73
1070
     1
1070
    44
1040
1.0
1070
    74
1070
     0
1000
MTEXTEND
  0
POINT
  5
5DD
330
525
100
AcDbEntity
  8
DEFPOINTS
 62
     0
100
AcDbPoint
 10
283.9959226350424
 20
36.05941131442118
 30
0.0
  0
POINT
  5
5DE
330
525
100
AcDbEntity
  8
DEFPOINTS
 62
     0
100
AcDbPoint
 10
288.1959226350423
 20
36.05941131442118
 30
0.0
  0
POINT
  5
5DF
330
525
100
AcDbEntity
  8
DEFPOINTS
 62
     0
100
AcDbPoint
 10
288.1959226350423
 20
34.90169138105638
 30
0.0
  0
ENDBLK
  5
531
330
525
100
AcDbEntity
  8
0
100
AcDbBlockEnd
  0
BLOCK
  5
53E
330
533
100
AcDbEntity
  8
0
100
AcDbBlockBegin
  2
*D16
 70
     1
 10
0.0
 20
0.0
 30
0.0
  3
*D16
  1

  0
LINE
  5
5EA
330
533
100
AcDbEntity
  8
0
 62
     0
100
AcDbLine
 10
285.0959226350423
 20
35.6969113144212
 30
0.0
 11
285.0959226350423
 21
35.12717118496775
 31
0.0
  0
LINE
  5
5EB
330
533
100
AcDbEntity
  8
0
 62
     0
100
AcDbLine
 10
287.1959226350424
 20
35.6969113144212
 30
0.0
 11
287.1959226350424
 21
35.12717118496775
 31
0.0
  0
LINE
  5
5EC
330
533
100
AcDbEntity
  8
0
 62
     0
100
AcDbLine
 10
285.2759226350423
 20
35.30717118496776
 30
0.0
 11
285.8309226350423
 21
35.30717118496776
 31
0.0
  0
LINE
  5
5ED
330
533
100
AcDbEntity
  8
0
 62
     0
100
AcDbLine
 10
287.0159226350423
 20
35.30717118496776
 30
0.0
 11
286.4609226350424
 21
35.30717118496776
 31
0.0
  0
SOLID
  5
5EE
330
533
100
AcDbEntity
  8
0
 62
     0
100
AcDbTrace
 10
285.2759226350423
 20
35.33717118496776
 30
0.0
 11
285.2759226350423
 21
35.27717118496775
 31
0.0
 12
285.0959226350423
 22
35.30717118496776
 32
0.0
 13
285.0959226350423
 23
35.30717118496776
 33
0.0
  0
SOLID
  5
5EF
330
533
100
AcDbEntity
  8
0
 62
     0
100
AcDbTrace
 10
287.0159226350423
 20
35.33717118496776
 30
0.0
 11
287.0159226350423
 21
35.27717118496775
 31
0.0
 12
287.1959226350424
 22
35.30717118496776
 32
0.0
 13
287.1959226350424
 23
35.30717118496776
 33
0.0
  0
MTEXT
  5
5F0
330
533
100
AcDbEntity
  8
0
 62
     0
100
AcDbMText
 10
286.1459226350423
 20
35.30717118496776
 30
0.0
 40
0.18
 41
0.0
 71
     5
 72
     1
  1
\A1;2.10
1001
ACAD
1000
MTEXTBEGIN
1070
    73
1070
     1
1070
    44
1040
1.0
1070
    74
1070
     0
1000
MTEXTEND
1000
MTEXTBEGIN
1070
    73
1070
     1
1070
    44
1040
1.0
1070
    74
1070
     0
1000
MTEXTEND
  0
POINT
  5
5F1
330
533
100
AcDbEntity
  8
DEFPOINTS
 62
     0
100
AcDbPoint
 10
285.0959226350423
 20
35.7594113144212
 30
0.0
  0
POINT
  5
5F2
330
533
100
AcDbEntity
  8
DEFPOINTS
 62
     0
100
AcDbPoint
 10
287.1959226350424
 20
35.7594113144212
 30
0.0
  0
POINT
  5
5F3
330
533
100
AcDbEntity
  8
DEFPOINTS
 62
     0
100
AcDbPoint
 10
287.1959226350424
 20
35.30717118496776
 30
0.0
  0
ENDBLK
  5
53F
330
533
100
AcDbEntity
  8
0
100
AcDbBlockEnd
  0
BLOCK
  5
54C
330
541
100
AcDbEntity
  8
0
100
AcDbBlockBegin
  2
*D17
 70
     1
 10
0.0
 20
0.0
 30
0.0
  3
*D17
  1

  0
LINE
  5
5E0
330
541
100
AcDbEntity
  8
0
 62
     0
100
AcDbLine
 10
283.9959226350424
 20
35.93441131442118
 30
0.0
 11
283.9959226350424
 21
35.31148012749163
 31
0.0
  0
LINE
  5
5E1
330
541
100
AcDbEntity
  8
0
 62
     0
100
AcDbLine
 10
285.0959226350425
 20
35.99691131442118
 30
0.0
 11
285.0959226350425
 21
35.31148012749163
 31
0.0
  0
LINE
  5
5E2
330
541
100
AcDbEntity
  8
0
 62
     0
100
AcDbLine
 10
284.1759226350423
 20
35.49148012749163
 30
0.0
 11
284.2929600104012
 21
35.49148012749163
 31
0.0
  0
LINE
  5
5E3
330
541
100
AcDbEntity
  8
0
 62
     0
100
AcDbLine
 10
284.9159226350423
 20
35.49148012749163
 30
0.0
 11
284.8629600104013
 21
35.49148012749163
 31
0.0
  0
SOLID
  5
5E4
330
541
100
AcDbEntity
  8
0
 62
     0
100
AcDbTrace
 10
284.1759226350423
 20
35.52148012749162
 30
0.0
 11
284.1759226350423
 21
35.46148012749163
 31
0.0
 12
283.9959226350424
 22
35.49148012749163
 32
0.0
 13
283.9959226350424
 23
35.49148012749163
 33
0.0
  0
SOLID
  5
5E5
330
541
100
AcDbEntity
  8
0
 62
     0
100
AcDbTrace
 10
284.9159226350423
 20
35.52148012749162
 30
0.0
 11
284.9159226350423
 21
35.46148012749163
 31
0.0
 12
285.0959226350425
 22
35.49148012749163
 32
0.0
 13
285.0959226350425
 23
35.49148012749163
 33
0.0
  0
MTEXT
  5
5E6
330
541
100
AcDbEntity
  8
0
 62
     0
100
AcDbMText
 10
284.5779600104011
 20
35.49148012749163
 30
0.0
 40
0.18
 41
0.0
 71
     5
 72
     1
  1
\A1;1.10
1001
ACAD
1000
MTEXTBEGIN
1070
    73
1070
     1
1070
    44
1040
1.0
1070
    74
1070
     0
1000
MTEXTEND
1000
MTEXTBEGIN
1070
    73
1070
     1
1070
    44
1040
1.0
1070
    74
1070
     0
1000
MTEXTEND
  0
POINT
  5
5E7
330
541
100
AcDbEntity
  8
DEFPOINTS
 62
     0
100
AcDbPoint
 10
283.9959226350424
 20
35.99691131442118
 30
0.0
  0
POINT
  5
5E8
330
541
100
AcDbEntity
  8
DEFPOINTS
 62
     0
100
AcDbPoint
 10
285.0959226350425
 20
36.05941131442118
 30
0.0
  0
POINT
  5
5E9
330
541
100
AcDbEntity
  8
DEFPOINTS
 62
     0
100
AcDbPoint
 10
285.0959226350425
 20
35.49148012749163
 30
0.0
  0
ENDBLK
  5
54D
330
541
100
AcDbEntity
  8
0
100
AcDbBlockEnd
  0
BLOCK
  5
56E
330
563
100
AcDbEntity
  8
0
100
AcDbBlockBegin
  2
*D18
 70
     1
 10
0.0
 20
0.0
 30
0.0
  3
*D18
  1

  0
LINE
  5
5CC
330
563
100
AcDbEntity
  8
0
 62
     0
100
AcDbLine
 10
287.1959226350424
 20
35.99691131442118
 30
0.0
 11
287.1959226350424
 21
35.32991102766942
 31
0.0
  0
LINE
  5
5CD
330
563
100
AcDbEntity
  8
0
 62
     0
100
AcDbLine
 10
288.1959226350423
 20
35.93441131442118
 30
0.0
 11
288.1959226350423
 21
35.32991102766942
 31
0.0
  0
LINE
  5
5CE
330
563
100
AcDbEntity
  8
0
 62
     0
100
AcDbLine
 10
287.0159226350423
 20
35.50991102766941
 30
0.0
 11
286.8359226350424
 21
35.50991102766941
 31
0.0
  0
LINE
  5
5CF
330
563
100
AcDbEntity
  8
0
 62
     0
100
AcDbLine
 10
288.3759226350424
 20
35.50991102766941
 30
0.0
 11
288.5559226350423
 21
35.50991102766941
 31
0.0
  0
SOLID
  5
5D0
330
563
100
AcDbEntity
  8
0
 62
     0
100
AcDbTrace
 10
287.0159226350423
 20
35.53991102766941
 30
0.0
 11
287.0159226350423
 21
35.47991102766942
 31
0.0
 12
287.1959226350424
 22
35.50991102766941
 32
0.0
 13
287.1959226350424
 23
35.50991102766941
 33
0.0
  0
SOLID
  5
5D1
330
563
100
AcDbEntity
  8
0
 62
     0
100
AcDbTrace
 10
288.3759226350424
 20
35.53991102766941
 30
0.0
 11
288.3759226350424
 21
35.47991102766942
 31
0.0
 12
288.1959226350423
 22
35.50991102766941
 32
0.0
 13
288.1959226350423
 23
35.50991102766941
 33
0.0
  0
MTEXT
  5
5D2
330
563
100
AcDbEntity
  8
0
 62
     0
100
AcDbMText
 10
287.6387157755583
 20
35.50991102766941
 30
0.0
 40
0.18
 41
0.0
 71
     5
 72
     1
  1
\A1;1.00
1001
ACAD
1000
MTEXTBEGIN
1070
    73
1070
     1
1070
    44
1040
1.0
1070
    74
1070
     0
1000
MTEXTEND
1000
MTEXTBEGIN
1070
    73
1070
     1
1070
    44
1040
1.0
1070
    74
1070
     0
1000
MTEXTEND
  0
POINT
  5
5D3
330
563
100
AcDbEntity
  8
DEFPOINTS
 62
     0
100
AcDbPoint
 10
287.1959226350424
 20
36.05941131442118
 30
0.0
  0
POINT
  5
5D4
330
563
100
AcDbEntity
  8
DEFPOINTS
 62
     0
100
AcDbPoint
 10
288.1959226350423
 20
35.99691131442118
 30
0.0
  0
POINT
  5
5D5
330
563
100
AcDbEntity
  8
DEFPOINTS
 62
     0
100
AcDbPoint
 10
288.1959226350423
 20
35.50991102766941
 30
0.0
  0
ENDBLK
  5
56F
330
563
100
AcDbEntity
  8
0
100
AcDbBlockEnd
  0
BLOCK
  5
591
330
585
100
AcDbEntity
  8
0
100
AcDbBlockBegin
  2
*D19
 70
     1
 10
0.0
 20
0.0
 30
0.0
  3
*D19
  1

  0
LINE
  5
5B8
330
585
100
AcDbEntity
  8
0
 62
     0
100
AcDbLine
 10
287.2584226350424
 20
35.7594113144212
 30
0.0
 11
288.8574516394755
 21
35.7594113144212
 31
0.0
  0
LINE
  5
5B9
330
585
100
AcDbEntity
  8
0
 62
     0
100
AcDbLine
 10
287.2584226350424
 20
36.05941131442118
 30
0.0
 11
288.8574516394755
 21
36.05941131442118
 31
0.0
  0
LINE
  5
5BA
330
585
100
AcDbEntity
  8
0
 62
     0
100
AcDbLine
 10
288.6774516394755
 20
35.5794113144212
 30
0.0
 11
288.6774516394755
 21
35.3994113144212
 31
0.0
  0
LINE
  5
5BB
330
585
100
AcDbEntity
  8
0
 62
     0
100
AcDbLine
 10
288.6774516394755
 20
36.23941131442118
 30
0.0
 11
288.6774516394755
 21
36.41941131442119
 31
0.0
  0
SOLID
  5
5BC
330
585
100
AcDbEntity
  8
0
 62
     0
100
AcDbTrace
 10
288.6474516394755
 20
35.5794113144212
 30
0.0
 11
288.7074516394755
 21
35.5794113144212
 31
0.0
 12
288.6774516394755
 22
35.7594113144212
 32
0.0
 13
288.6774516394755
 23
35.7594113144212
 33
0.0
  0
SOLID
  5
5BD
330
585
100
AcDbEntity
  8
0
 62
     0
100
AcDbTrace
 10
288.6474516394755
 20
36.23941131442118
 30
0.0
 11
288.7074516394755
 21
36.23941131442118
 31
0.0
 12
288.6774516394755
 22
36.05941131442118
 32
0.0
 13
288.6774516394755
 23
36.05941131442118
 33
0.0
  0
MTEXT
  5
5BE
330
585
100
AcDbEntity
  8
0
 62
     0
100
AcDbMText
 10
288.6774516394755
 20
35.90941131442125
 30
0.0
 40
0.18
 41
0.0
 71
     5
 72
     1
  1
\A1;0.30
1001
ACAD
1000
MTEXTBEGIN
1070
    73
1070
     1
1070
    44
1040
1.0
1070
    74
1070
     0
1000
MTEXTEND
1000
MTEXTBEGIN
1070
    73
1070
     1
1070
    44
1040
1.0
1070
    74
1070
     0
1000
MTEXTEND
  0
POINT
  5
5BF
330
585
100
AcDbEntity
  8
DEFPOINTS
 62
     0
100
AcDbPoint
 10
287.1959226350424
 20
35.7594113144212
 30
0.0
  0
POINT
  5
5C0
330
585
100
AcDbEntity
  8
DEFPOINTS
 62
     0
100
AcDbPoint
 10
287.1959226350424
 20
36.05941131442118
 30
0.0
  0
POINT
  5
5C1
330
585
100
AcDbEntity
  8
DEFPOINTS
 62
     0
100
AcDbPoint
 10
288.6774516394755
 20
36.05941131442118
 30
0.0
  0
ENDBLK
  5
592
330
585
100
AcDbEntity
  8
0
100
AcDbBlockEnd
  0
BLOCK
  5
59F
330
594
100
AcDbEntity
  8
0
100
AcDbBlockBegin
  2
*D20
 70
     1
 10
0.0
 20
0.0
 30
0.0
  3
*D20
  1

  0
LINE
  5
5C2
330
594
100
AcDbEntity
  8
0
 62
     0
100
AcDbLine
 10
287.2584226350424
 20
35.7594113144212
 30
0.0
 11
289.5708037261371
 21
35.7594113144212
 31
0.0
  0
LINE
  5
5C3
330
594
100
AcDbEntity
  8
0
 62
     0
100
AcDbLine
 10
288.2584226350423
 20
38.35941131442119
 30
0.0
 11
289.5708037261371
 21
38.35941131442119
 31
0.0
  0
LINE
  5
5C4
330
594
100
AcDbEntity
  8
0
 62
     0
100
AcDbLine
 10
289.3908037261372
 20
35.9394113144212
 30
0.0
 11
289.3908037261372
 21
36.87941131442118
 31
0.0
  0
LINE
  5
5C5
330
594
100
AcDbEntity
  8
0
 62
     0
100
AcDbLine
 10
289.3908037261372
 20
38.17941131442118
 30
0.0
 11
289.3908037261372
 21
37.23941131442118
 31
0.0
  0
SOLID
  5
5C6
330
594
100
AcDbEntity
  8
0
 62
     0
100
AcDbTrace
 10
289.3608037261372
 20
35.9394113144212
 30
0.0
 11
289.4208037261372
 21
35.9394113144212
 31
0.0
 12
289.3908037261372
 22
35.7594113144212
 32
0.0
 13
289.3908037261372
 23
35.7594113144212
 33
0.0
  0
SOLID
  5
5C7
330
594
100
AcDbEntity
  8
0
 62
     0
100
AcDbTrace
 10
289.3608037261372
 20
38.17941131442118
 30
0.0
 11
289.4208037261372
 21
38.17941131442118
 31
0.0
 12
289.3908037261372
 22
38.35941131442119
 32
0.0
 13
289.3908037261372
 23
38.35941131442119
 33
0.0
  0
MTEXT
  5
5C8
330
594
100
AcDbEntity
  8
0
 62
     0
100
AcDbMText
 10
289.3908037261372
 20
37.05941131442124
 30
0.0
 40
0.18
 41
0.0
 71
     5
 72
     1
  1
\A1;2.60
1001
ACAD
1000
MTEXTBEGIN
1070
    73
1070
     1
1070
    44
1040
1.0
1070
    74
1070
     0
1000
MTEXTEND
1000
MTEXTBEGIN
1070
    73
1070
     1
1070
    44
1040
1.0
1070
    74
1070
     0
1000
MTEXTEND
  0
POINT
  5
5C9
330
594
100
AcDbEntity
  8
DEFPOINTS
 62
     0
100
AcDbPoint
 10
287.1959226350424
 20
35.7594113144212
 30
0.0
  0
POINT
  5
5CA
330
594
100
AcDbEntity
  8
DEFPOINTS
 62
     0
100
AcDbPoint
 10
288.1959226350423
 20
38.35941131442119
 30
0.0
  0
POINT
  5
5CB
330
594
100
AcDbEntity
  8
DEFPOINTS
 62
     0
100
AcDbPoint
 10
289.3908037261372
 20
38.35941131442119
 30
0.0
  0
ENDBLK
  5
5A0
330
594
100
AcDbEntity
  8
0
100
AcDbBlockEnd
  0
BLOCK
  5
657
330
64C
100
AcDbEntity
  8
0
100
AcDbBlockBegin
  2
*D21
 70
     1
 10
0.0
 20
0.0
 30
0.0
  3
*D21
  1

  0
LINE
  5
64D
330
64C
100
AcDbEntity
  8
0
 62
     0
100
AcDbLine
 10
284.9684801819709
 20
37.07701558689979
 30
0.0
 11
284.2529892439851
 21
37.07701558689979
 31
0.0
  0
LINE
  5
64E
330
64C
100
AcDbEntity
  8
0
 62
     0
100
AcDbLine
 10
284.9684801819709
 20
34.30701558689979
 30
0.0
 11
284.2529892439851
 21
34.30701558689979
 31
0.0
  0
LINE
  5
64F
330
64C
100
AcDbEntity
  8
0
 62
     0
100
AcDbLine
 10
284.4329892439851
 20
36.89701558689979
 30
0.0
 11
284.4329892439851
 21
35.87201558689979
 31
0.0
  0
LINE
  5
650
330
64C
100
AcDbEntity
  8
0
 62
     0
100
AcDbLine
 10
284.4329892439851
 20
34.48701558689979
 30
0.0
 11
284.4329892439851
 21
35.51201558689979
 31
0.0
  0
SOLID
  5
651
330
64C
100
AcDbEntity
  8
0
 62
     0
100
AcDbTrace
 10
284.4029892439852
 20
36.89701558689979
 30
0.0
 11
284.4629892439851
 21
36.89701558689979
 31
0.0
 12
284.4329892439851
 22
37.07701558689979
 32
0.0
 13
284.4329892439851
 23
37.07701558689979
 33
0.0
  0
SOLID
  5
652
330
64C
100
AcDbEntity
  8
0
 62
     0
100
AcDbTrace
 10
284.4029892439852
 20
34.48701558689979
 30
0.0
 11
284.4629892439851
 21
34.48701558689979
 31
0.0
 12
284.4329892439851
 22
34.30701558689979
 32
0.0
 13
284.4329892439851
 23
34.30701558689979
 33
0.0
  0
MTEXT
  5
653
330
64C
100
AcDbEntity
  8
0
 62
     0
100
AcDbMText
 10
284.4329892439851
 20
35.69201558689984
 30
0.0
 40
0.18
 41
0.0
 71
     5
 72
     1
  1
\A1;2.77
1001
ACAD
1000
MTEXTBEGIN
1070
    73
1070
     1
1070
    44
1040
1.0
1070
    74
1070
     0
1000
MTEXTEND
  0
POINT
  5
654
330
64C
100
AcDbEntity
  8
DEFPOINTS
 62
     0
100
AcDbPoint
 10
285.0309801819709
 20
37.07701558689979
 30
0.0
  0
POINT
  5
655
330
64C
100
AcDbEntity
  8
DEFPOINTS
 62
     0
100
AcDbPoint
 10
285.0309801819709
 20
34.30701558689979
 30
0.0
  0
POINT
  5
656
330
64C
100
AcDbEntity
  8
DEFPOINTS
 62
     0
100
AcDbPoint
 10
284.4329892439851
 20
34.30701558689979
 30
0.0
  0
ENDBLK
  5
658
330
64C
100
AcDbEntity
  8
0
100
AcDbBlockEnd
  0
BLOCK
  5
665
330
65A
100
AcDbEntity
  8
0
100
AcDbBlockBegin
  2
*D22
 70
     1
 10
0.0
 20
0.0
 30
0.0
  3
*D22
  1

  0
LINE
  5
65B
330
65A
100
AcDbEntity
  8
0
 62
     0
100
AcDbLine
 10
289.2934801819709
 20
37.07701558689979
 30
0.0
 11
289.8287804845996
 21
37.07701558689979
 31
0.0
  0
LINE
  5
65C
330
65A
100
AcDbEntity
  8
0
 62
     0
100
AcDbLine
 10
289.2934801819709
 20
34.90701558689979
 30
0.0
 11
289.8287804845996
 21
34.90701558689979
 31
0.0
  0
LINE
  5
65D
330
65A
100
AcDbEntity
  8
0
 62
     0
100
AcDbLine
 10
289.6487804845996
 20
36.89701558689979
 30
0.0
 11
289.6487804845996
 21
36.17201558689979
 31
0.0
  0
LINE
  5
65E
330
65A
100
AcDbEntity
  8
0
 62
     0
100
AcDbLine
 10
289.6487804845996
 20
35.08701558689979
 30
0.0
 11
289.6487804845996
 21
35.81201558689979
 31
0.0
  0
SOLID
  5
65F
330
65A
100
AcDbEntity
  8
0
 62
     0
100
AcDbTrace
 10
289.6187804845997
 20
36.89701558689979
 30
0.0
 11
289.6787804845996
 21
36.89701558689979
 31
0.0
 12
289.6487804845996
 22
37.07701558689979
 32
0.0
 13
289.6487804845996
 23
37.07701558689979
 33
0.0
  0
SOLID
  5
660
330
65A
100
AcDbEntity
  8
0
 62
     0
100
AcDbTrace
 10
289.6187804845997
 20
35.08701558689979
 30
0.0
 11
289.6787804845996
 21
35.08701558689979
 31
0.0
 12
289.6487804845996
 22
34.90701558689979
 32
0.0
 13
289.6487804845996
 23
34.90701558689979
 33
0.0
  0
MTEXT
  5
661
330
65A
100
AcDbEntity
  8
0
 62
     0
100
AcDbMText
 10
289.6487804845996
 20
35.99201558689984
 30
0.0
 40
0.18
 41
0.0
 71
     5
 72
     1
  1
\A1;2.17
1001
ACAD
1000
MTEXTBEGIN
1070
    73
1070
     1
1070
    44
1040
1.0
1070
    74
1070
     0
1000
MTEXTEND
  0
POINT
  5
662
330
65A
100
AcDbEntity
  8
DEFPOINTS
 62
     0
100
AcDbPoint
 10
289.2309801819709
 20
37.07701558689979
 30
0.0
  0
POINT
  5
663
330
65A
100
AcDbEntity
  8
DEFPOINTS
 62
     0
100
AcDbPoint
 10
289.2309801819709
 20
34.90701558689979
 30
0.0
  0
POINT
  5
664
330
65A
100
AcDbEntity
  8
DEFPOINTS
 62
     0
100
AcDbPoint
 10
289.6487804845996
 20
34.90701558689979
 30
0.0
  0
ENDBLK
  5
666
330
65A
100
AcDbEntity
  8
0
100
AcDbBlockEnd
  0
BLOCK
  5
673
330
668
100
AcDbEntity
  8
0
100
AcDbBlockBegin
  2
*D23
 70
     1
 10
0.0
 20
0.0
 30
0.0
  3
*D23
  1

  0
LINE
  5
669
330
668
100
AcDbEntity
  8
0
 62
     0
100
AcDbLine
 10
285.0309801819709
 20
37.13951558689979
 30
0.0
 11
285.0309801819709
 21
37.59626932793397
 31
0.0
  0
LINE
  5
66A
330
668
100
AcDbEntity
  8
0
 62
     0
100
AcDbLine
 10
289.2309801819709
 20
37.13951558689979
 30
0.0
 11
289.2309801819709
 21
37.59626932793397
 31
0.0
  0
LINE
  5
66B
330
668
100
AcDbEntity
  8
0
 62
     0
100
AcDbLine
 10
285.2109801819709
 20
37.41626932793397
 30
0.0
 11
286.7859801819708
 21
37.41626932793397
 31
0.0
  0
LINE
  5
66C
330
668
100
AcDbEntity
  8
0
 62
     0
100
AcDbLine
 10
289.0509801819709
 20
37.41626932793397
 30
0.0
 11
287.4759801819709
 21
37.41626932793397
 31
0.0
  0
SOLID
  5
66D
330
668
100
AcDbEntity
  8
0
 62
     0
100
AcDbTrace
 10
285.2109801819709
 20
37.44626932793397
 30
0.0
 11
285.2109801819709
 21
37.38626932793397
 31
0.0
 12
285.0309801819709
 22
37.41626932793397
 32
0.0
 13
285.0309801819709
 23
37.41626932793397
 33
0.0
  0
SOLID
  5
66E
330
668
100
AcDbEntity
  8
0
 62
     0
100
AcDbTrace
 10
289.0509801819709
 20
37.44626932793397
 30
0.0
 11
289.0509801819709
 21
37.38626932793397
 31
0.0
 12
289.2309801819709
 22
37.41626932793397
 32
0.0
 13
289.2309801819709
 23
37.41626932793397
 33
0.0
  0
MTEXT
  5
66F
330
668
100
AcDbEntity
  8
0
 62
     0
100
AcDbMText
 10
287.1309801819709
 20
37.41626932793397
 30
0.0
 40
0.18
 41
0.0
 71
     5
 72
     1
  1
\A1;4.20
1001
ACAD
1000
MTEXTBEGIN
1070
    73
1070
     1
1070
    44
1040
1.0
1070
    74
1070
     0
1000
MTEXTEND
  0
POINT
  5
670
330
668
100
AcDbEntity
  8
DEFPOINTS
 62
     0
100
AcDbPoint
 10
285.0309801819709
 20
37.07701558689979
 30
0.0
  0
POINT
  5
671
330
668
100
AcDbEntity
  8
DEFPOINTS
 62
     0
100
AcDbPoint
 10
289.2309801819709
 20
37.07701558689979
 30
0.0
  0
POINT
  5
672
330
668
100
AcDbEntity
  8
DEFPOINTS
 62
     0
100
AcDbPoint
 10
289.2309801819709
 20
37.41626932793397
 30
0.0
  0
ENDBLK
  5
674
330
668
100
AcDbEntity
  8
0
100
AcDbBlockEnd
  0
BLOCK
  5
681
330
676
100
AcDbEntity
  8
0
100
AcDbBlockBegin
  2
*D24
 70
     1
 10
0.0
 20
0.0
 30
0.0
  3
*D24
  1

  0
LINE
  5
677
330
676
100
AcDbEntity
  8
0
 62
     0
100
AcDbLine
 10
285.0309801819709
 20
34.24451558689979
 30
0.0
 11
285.0309801819709
 21
33.66727876963778
 31
0.0
  0
LINE
  5
678
330
676
100
AcDbEntity
  8
0
 62
     0
100
AcDbLine
 10
288.5309801819709
 20
34.2445155868998
 30
0.0
 11
288.5309801819709
 21
33.66727876963778
 31
0.0
  0
LINE
  5
679
330
676
100
AcDbEntity
  8
0
 62
     0
100
AcDbLine
 10
285.2109801819709
 20
33.84727876963778
 30
0.0
 11
286.4359801819709
 21
33.84727876963778
 31
0.0
  0
LINE
  5
67A
330
676
100
AcDbEntity
  8
0
 62
     0
100
AcDbLine
 10
288.3509801819709
 20
33.84727876963778
 30
0.0
 11
287.1259801819709
 21
33.84727876963778
 31
0.0
  0
SOLID
  5
67B
330
676
100
AcDbEntity
  8
0
 62
     0
100
AcDbTrace
 10
285.2109801819709
 20
33.87727876963778
 30
0.0
 11
285.2109801819709
 21
33.81727876963778
 31
0.0
 12
285.0309801819709
 22
33.84727876963778
 32
0.0
 13
285.0309801819709
 23
33.84727876963778
 33
0.0
  0
SOLID
  5
67C
330
676
100
AcDbEntity
  8
0
 62
     0
100
AcDbTrace
 10
288.3509801819709
 20
33.87727876963778
 30
0.0
 11
288.3509801819709
 21
33.81727876963778
 31
0.0
 12
288.5309801819709
 22
33.84727876963778
 32
0.0
 13
288.5309801819709
 23
33.84727876963778
 33
0.0
  0
MTEXT
  5
67D
330
676
100
AcDbEntity
  8
0
 62
     0
100
AcDbMText
 10
286.7809801819709
 20
33.84727876963778
 30
0.0
 40
0.18
 41
0.0
 71
     5
 72
     1
  1
\A1;3.50
1001
ACAD
1000
MTEXTBEGIN
1070
    73
1070
     1
1070
    44
1040
1.0
1070
    74
1070
     0
1000
MTEXTEND
  0
POINT
  5
67E
330
676
100
AcDbEntity
  8
DEFPOINTS
 62
     0
100
AcDbPoint
 10
285.0309801819709
 20
34.30701558689979
 30
0.0
  0
POINT
  5
67F
330
676
100
AcDbEntity
  8
DEFPOINTS
 62
     0
100
AcDbPoint
 10
288.5309801819709
 20
34.3070155868998
 30
0.0
  0
POINT
  5
680
330
676
100
AcDbEntity
  8
DEFPOINTS
 62
     0
100
AcDbPoint
 10
288.5309801819709
 20
33.84727876963778
 30
0.0
  0
ENDBLK
  5
682
330
676
100
AcDbEntity
  8
0
100
AcDbBlockEnd
  0
BLOCK
  5
68F
330
684
100
AcDbEntity
  8
0
100
AcDbBlockBegin
  2
*D25
 70
     1
 10
0.0
 20
0.0
 30
0.0
  3
*D25
  1

  0
LINE
  5
685
330
684
100
AcDbEntity
  8
0
 62
     0
100
AcDbLine
 10
288.5309801819709
 20
34.84451558689979
 30
0.0
 11
288.5309801819709
 21
33.66727876963778
 31
0.0
  0
LINE
  5
686
330
684
100
AcDbEntity
  8
0
 62
     0
100
AcDbLine
 10
289.2309801819709
 20
34.84451558689979
 30
0.0
 11
289.2309801819709
 21
33.66727876963778
 31
0.0
  0
LINE
  5
687
330
684
100
AcDbEntity
  8
0
 62
     0
100
AcDbLine
 10
288.3509801819709
 20
33.84727876963778
 30
0.0
 11
288.1709801819709
 21
33.84727876963778
 31
0.0
  0
LINE
  5
688
330
684
100
AcDbEntity
  8
0
 62
     0
100
AcDbLine
 10
289.4109801819709
 20
33.84727876963778
 30
0.0
 11
289.5909801819709
 21
33.84727876963778
 31
0.0
  0
SOLID
  5
689
330
684
100
AcDbEntity
  8
0
 62
     0
100
AcDbTrace
 10
288.3509801819709
 20
33.87727876963778
 30
0.0
 11
288.3509801819709
 21
33.81727876963778
 31
0.0
 12
288.5309801819709
 22
33.84727876963778
 32
0.0
 13
288.5309801819709
 23
33.84727876963778
 33
0.0
  0
SOLID
  5
68A
330
684
100
AcDbEntity
  8
0
 62
     0
100
AcDbTrace
 10
289.4109801819709
 20
33.87727876963778
 30
0.0
 11
289.4109801819709
 21
33.81727876963778
 31
0.0
 12
289.2309801819709
 22
33.84727876963778
 32
0.0
 13
289.2309801819709
 23
33.84727876963778
 33
0.0
  0
MTEXT
  5
68B
330
684
100
AcDbEntity
  8
0
 62
     0
100
AcDbMText
 10
288.8809801819709
 20
33.84727876963778
 30
0.0
 40
0.18
 41
0.0
 71
     5
 72
     1
  1
\A1;0.70
1001
ACAD
1000
MTEXTBEGIN
1070
    73
1070
     1
1070
    44
1040
1.0
1070
    74
1070
     0
1000
MTEXTEND
  0
POINT
  5
68C
330
684
100
AcDbEntity
  8
DEFPOINTS
 62
     0
100
AcDbPoint
 10
288.5309801819709
 20
34.90701558689979
 30
0.0
  0
POINT
  5
68D
330
684
100
AcDbEntity
  8
DEFPOINTS
 62
     0
100
AcDbPoint
 10
289.2309801819709
 20
34.90701558689979
 30
0.0
  0
POINT
  5
68E
330
684
100
AcDbEntity
  8
DEFPOINTS
 62
     0
100
AcDbPoint
 10
289.2309801819709
 20
33.84727876963778
 30
0.0
  0
ENDBLK
  5
690
330
684
100
AcDbEntity
  8
0
100
AcDbBlockEnd
  0
BLOCK
  5
69E
330
692
100
AcDbEntity
  8
0
100
AcDbBlockBegin
  2
*D26
 70
     1
 10
0.0
 20
0.0
 30
0.0
  3
*D26
  1

  0
LINE
  5
693
330
692
100
AcDbEntity
  8
0
 62
     0
100
AcDbLine
 10
288.5934801819709
 20
34.90701558689979
 30
0.0
 11
289.8231841131515
 21
34.90701558689979
 31
0.0
  0
LINE
  5
694
330
692
100
AcDbEntity
  8
0
 62
     0
100
AcDbLine
 10
288.5934801819709
 20
34.30701558689979
 30
0.0
 11
289.8231841131515
 21
34.30701558689979
 31
0.0
  0
LINE
  5
695
330
692
100
AcDbEntity
  8
0
 62
     0
100
AcDbLine
 10
289.6431841131515
 20
34.72701558689979
 30
0.0
 11
289.6431841131515
 21
34.48701558689979
 31
0.0
  0
LINE
  5
696
330
692
100
AcDbEntity
  8
0
 62
     0
100
AcDbLine
 10
289.6431841131515
 20
34.30701558689979
 30
0.0
 11
289.6431841131515
 21
34.12701558689979
 31
0.0
  0
LINE
  5
697
330
692
100
AcDbEntity
  8
0
 62
     0
100
AcDbLine
 10
289.6431841131515
 20
34.12701558689979
 30
0.0
 11
289.4631841131515
 21
34.12701558689979
 31
0.0
  0
SOLID
  5
698
330
692
100
AcDbEntity
  8
0
 62
     0
100
AcDbTrace
 10
289.6131841131515
 20
34.72701558689979
 30
0.0
 11
289.6731841131515
 21
34.72701558689979
 31
0.0
 12
289.6431841131515
 22
34.90701558689979
 32
0.0
 13
289.6431841131515
 23
34.90701558689979
 33
0.0
  0
SOLID
  5
699
330
692
100
AcDbEntity
  8
0
 62
     0
100
AcDbTrace
 10
289.6131841131515
 20
34.48701558689979
 30
0.0
 11
289.6731841131515
 21
34.48701558689979
 31
0.0
 12
289.6431841131515
 22
34.30701558689979
 32
0.0
 13
289.6431841131515
 23
34.30701558689979
 33
0.0
  0
MTEXT
  5
69A
330
692
100
AcDbEntity
  8
0
 62
     0
100
AcDbMText
 10
289.1331841131515
 20
34.12701558689984
 30
0.0
 40
0.18
 41
0.0
 71
     5
 72
     1
  1
\A1;0.60
1001
ACAD
1000
MTEXTBEGIN
1070
    73
1070
     1
1070
    44
1040
1.0
1070
    74
1070
     0
1000
MTEXTEND
  0
POINT
  5
69B
330
692
100
AcDbEntity
  8
DEFPOINTS
 62
     0
100
AcDbPoint
 10
288.5309801819709
 20
34.90701558689979
 30
0.0
  0
POINT
  5
69C
330
692
100
AcDbEntity
  8
DEFPOINTS
 62
     0
100
AcDbPoint
 10
288.5309801819709
 20
34.30701558689979
 30
0.0
  0
POINT
  5
69D
330
692
100
AcDbEntity
  8
DEFPOINTS
 62
     0
100
AcDbPoint
 10
289.6431841131515
 20
34.30701558689979
 30
0.0
  0
ENDBLK
  5
69F
330
692
100
AcDbEntity
  8
0
100
AcDbBlockEnd
  0
ENDSEC
  0
SECTION
  2
ENTITIES
  0
TEXT
  5
2C
330
1E
100
AcDbEntity
  8
0
  6
CONTINUOUS
100
AcDbText
 10
286.8657250217653
 20
41.35809618788629
 30
0.0
 40
0.1
  1
2
  7
ROMANC
100
AcDbText
  0
TEXT
  5
2D
330
1E
100
AcDbEntity
  8
0
  6
CONTINUOUS
100
AcDbText
 10
283.9259999999999
 20
41.768
 30
0.0
 40
0.3
  1
ESCALA  
  7
ROMANC
100
AcDbText
  0
LWPOLYLINE
  5
2E
330
1E
100
AcDbEntity
  8
CAPA1
  6
CONTINUOUS
100
AcDbPolyline
 90
        4
 70
     1
 43
0.0
 10
281.3959999999998
 20
44.747
 10
291.8959999999998
 20
44.747
 10
291.8959999999998
 20
29.897
 10
281.3959999999998
 20
29.897
  0
TEXT
  5
34
330
1E
100
AcDbEntity
  8
0
  6
CONTINUOUS
100
AcDbText
 10
283.9259999999999
 20
42.381
 30
0.0
 40
0.3
  1
TIPUS   
  7
ROMANC
100
AcDbText
  0
TEXT
  5
3C
330
1E
100
AcDbEntity
  8
0
  6
CONTINUOUS
100
AcDbText
 10
283.9449999999998
 20
41.09899999999997
 30
0.0
 40
0.3
  1
S =    dm
  7
ROMANC
100
AcDbText
  0
TEXT
  5
3D
330
1E
100
AcDbEntity
  8
0
  6
CONTINUOUS
100
AcDbText
 10
283.922
 20
40.529
 30
0.0
 40
0.3
  1
P =    dm
  7
ROMANC
100
AcDbText
  0
LINE
  5
63E
330
1E
100
AcDbEntity
  8
0
100
AcDbLine
 10
285.0309801819709
 20
37.07701558689979
 30
0.0
 11
289.2309801819709
 21
37.07701558689979
 31
0.0
  0
LINE
  5
640
330
1E
100
AcDbEntity
  8
0
100
AcDbLine
 10
285.0309801819709
 20
34.30701558689979
 30
0.0
 11
285.0309801819709
 21
37.07701558689979
 31
0.0
  0
LINE
  5
642
330
1E
100
AcDbEntity
  8
0
100
AcDbLine
 10
289.2309801819709
 20
37.07701558689979
 30
0.0
 11
289.2309801819709
 21
34.90701558689979
 31
0.0
  0
LINE
  5
644
330
1E
100
AcDbEntity
  8
0
100
AcDbLine
 10
289.2309801819709
 20
34.90701558689979
 30
0.0
 11
288.5309801819709
 21
34.90701558689979
 31
0.0
  0
LINE
  5
646
330
1E
100
AcDbEntity
  8
0
100
AcDbLine
 10
288.5309801819709
 20
34.90701558689979
 30
0.0
 11
288.5309801819709
 21
34.30701558689979
 31
0.0
  0
TEXT
  5
6A3
330
1E
100
AcDbEntity
  8
0
  6
CONTINUOUS
100
AcDbText
 10
285.9340598096173
 20
42.381
 30
0.0
 40
0.3
  1
NT1134
  7
ROMANC
100
AcDbText
  0
TEXT
  5
6A4
330
1E
100
AcDbEntity
  8
0
  6
CONTINUOUS
100
AcDbText
 10
285.9340598096173
 20
41.78626526987915
 30
0.0
 40
0.3
  1
1/50
  7
ROMANC
100
AcDbText
  0
TEXT
  5
6A5
330
1E
100
AcDbEntity
  8
0
  6
CONTINUOUS
100
AcDbText
 10
284.9672162265568
 20
41.09860323636434
 30
0.0
 40
0.3
  1
1134
  7
ROMANC
100
AcDbText
  0
TEXT
  5
6A6
330
1E
100
AcDbEntity
  8
0
  6
CONTINUOUS
100
AcDbText
 10
285.0044025048387
 20
40.52245393212041
 30
0.0
 40
0.3
  1
140
  7
ROMANC
100
AcDbText
  0
LINE
  5
6A8
330
1E
100
AcDbEntity
  8
0
100
AcDbLine
 10
288.5109801819709
 20
34.32701558689979
 30
0.0
 11
288.5109801819709
 21
34.92701558689979
 31
0.0
  0
LINE
  5
6A9
330
1E
100
AcDbEntity
  8
0
100
AcDbLine
 10
288.5109801819709
 20
34.92701558689979
 30
0.0
 11
289.2109801819709
 21
34.92701558689979
 31
0.0
  0
LINE
  5
6AA
330
1E
100
AcDbEntity
  8
0
100
AcDbLine
 10
289.2109801819709
 20
34.92701558689979
 30
0.0
 11
289.2109801819709
 21
37.0570155868998
 31
0.0
  0
LINE
  5
6AB
330
1E
100
AcDbEntity
  8
0
100
AcDbLine
 10
289.2109801819709
 20
37.0570155868998
 30
0.0
 11
285.0509801819709
 21
37.0570155868998
 31
0.0
  0
LINE
  5
6AC
330
1E
100
AcDbEntity
  8
0
100
AcDbLine
 10
285.0509801819709
 20
37.0570155868998
 30
0.0
 11
285.0509801819709
 21
34.32701558689979
 31
0.0
  0
LINE
  5
6AD
330
1E
100
AcDbEntity
  8
0
100
AcDbLine
 10
285.0509801819709
 20
34.32701558689979
 30
0.0
 11
288.5109801819709
 21
34.32701558689979
 31
0.0
  0
LINE
  5
6AE
330
1E
100
AcDbEntity
  8
0
100
AcDbLine
 10
288.5209801819709
 20
34.31701558689979
 30
0.0
 11
288.5209801819709
 21
34.91701558689979
 31
0.0
  0
LINE
  5
6AF
330
1E
100
AcDbEntity
  8
0
100
AcDbLine
 10
288.5209801819709
 20
34.91701558689979
 30
0.0
 11
289.2209801819709
 21
34.91701558689979
 31
0.0
  0
LINE
  5
6B0
330
1E
100
AcDbEntity
  8
0
100
AcDbLine
 10
289.2209801819709
 20
34.91701558689979
 30
0.0
 11
289.2209801819709
 21
37.0670155868998
 31
0.0
  0
LINE
  5
6B1
330
1E
100
AcDbEntity
  8
0
100
AcDbLine
 10
289.2209801819709
 20
37.0670155868998
 30
0.0
 11
285.0409801819709
 21
37.0670155868998
 31
0.0
  0
LINE
  5
6B2
330
1E
100
AcDbEntity
  8
0
100
AcDbLine
 10
285.0409801819709
 20
37.0670155868998
 30
0.0
 11
285.0409801819709
 21
34.31701558689979
 31
0.0
  0
LINE
  5
6B3
330
1E
100
AcDbEntity
  8
0
100
AcDbLine
 10
285.0409801819709
 20
34.31701558689979
 30
0.0
 11
288.5209801819709
 21
34.31701558689979
 31
0.0
  0
LINE
  5
6B4
330
1E
100
AcDbEntity
  8
0
100
AcDbLine
 10
285.0309801819709
 20
34.24451558689979
 30
0.0
 11
285.0309801819709
 21
33.66727876963778
 31
0.0
  0
LINE
  5
6B5
330
1E
100
AcDbEntity
  8
0
100
AcDbLine
 10
288.5309801819709
 20
34.2445155868998
 30
0.0
 11
288.5309801819709
 21
33.66727876963778
 31
0.0
  0
LINE
  5
6B6
330
1E
100
AcDbEntity
  8
0
100
AcDbLine
 10
285.2109801819709
 20
33.84727876963778
 30
0.0
 11
286.4359801819709
 21
33.84727876963778
 31
0.0
  0
LINE
  5
6B7
330
1E
100
AcDbEntity
  8
0
100
AcDbLine
 10
288.3509801819709
 20
33.84727876963778
 30
0.0
 11
287.1259801819709
 21
33.84727876963778
 31
0.0
  0
SOLID
  5
6B8
330
1E
100
AcDbEntity
  8
0
100
AcDbTrace
 10
285.2109801819709
 20
33.87727876963778
 30
0.0
 11
285.2109801819709
 21
33.81727876963778
 31
0.0
 12
285.0309801819709
 22
33.84727876963778
 32
0.0
 13
285.0309801819709
 23
33.84727876963778
 33
0.0
  0
SOLID
  5
6B9
330
1E
100
AcDbEntity
  8
0
100
AcDbTrace
 10
288.3509801819709
 20
33.87727876963778
 30
0.0
 11
288.3509801819709
 21
33.81727876963778
 31
0.0
 12
288.5309801819709
 22
33.84727876963778
 32
0.0
 13
288.5309801819709
 23
33.84727876963778
 33
0.0
  0
MTEXT
  5
6BA
330
1E
100
AcDbEntity
  8
0
100
AcDbMText
 10
286.7809801819709
 20
33.84727876963778
 30
0.0
 40
0.18
 41
0.0
 71
     5
 72
     1
  1
\A1;3.50
1001
ACAD
1000
MTEXTBEGIN
1070
    73
1070
     1
1070
    44
1040
1.0
1070
    74
1070
     0
1000
MTEXTEND
  0
LINE
  5
6BB
330
1E
100
AcDbEntity
  8
0
100
AcDbLine
 10
285.0309801819709
 20
37.13951558689979
 30
0.0
 11
285.0309801819709
 21
37.59626932793397
 31
0.0
  0
LINE
  5
6BC
330
1E
100
AcDbEntity
  8
0
100
AcDbLine
 10
289.2309801819709
 20
37.13951558689979
 30
0.0
 11
289.2309801819709
 21
37.59626932793397
 31
0.0
  0
LINE
  5
6BD
330
1E
100
AcDbEntity
  8
0
100
AcDbLine
 10
285.2109801819709
 20
37.41626932793397
 30
0.0
 11
286.7859801819708
 21
37.41626932793397
 31
0.0
  0
LINE
  5
6BE
330
1E
100
AcDbEntity
  8
0
100
AcDbLine
 10
289.0509801819709
 20
37.41626932793397
 30
0.0
 11
287.4759801819709
 21
37.41626932793397
 31
0.0
  0
SOLID
  5
6BF
330
1E
100
AcDbEntity
  8
0
100
AcDbTrace
 10
285.2109801819709
 20
37.44626932793397
 30
0.0
 11
285.2109801819709
 21
37.38626932793397
 31
0.0
 12
285.0309801819709
 22
37.41626932793397
 32
0.0
 13
285.0309801819709
 23
37.41626932793397
 33
0.0
  0
SOLID
  5
6C0
330
1E
100
AcDbEntity
  8
0
100
AcDbTrace
 10
289.0509801819709
 20
37.44626932793397
 30
0.0
 11
289.0509801819709
 21
37.38626932793397
 31
0.0
 12
289.2309801819709
 22
37.41626932793397
 32
0.0
 13
289.2309801819709
 23
37.41626932793397
 33
0.0
  0
MTEXT
  5
6C1
330
1E
100
AcDbEntity
  8
0
100
AcDbMText
 10
287.1309801819709
 20
37.41626932793397
 30
0.0
 40
0.18
 41
0.0
 71
     5
 72
     1
  1
\A1;4.20
1001
ACAD
1000
MTEXTBEGIN
1070
    73
1070
     1
1070
    44
1040
1.0
1070
    74
1070
     0
1000
MTEXTEND
  0
LINE
  5
6C2
330
1E
100
AcDbEntity
  8
0
100
AcDbLine
 10
288.5309801819709
 20
34.30701558689979
 30
0.0
 11
288.5309801819709
 21
34.90701558689979
 31
0.0
  0
LINE
  5
6C3
330
1E
100
AcDbEntity
  8
0
100
AcDbLine
 10
288.5309801819709
 20
34.90701558689979
 30
0.0
 11
289.2309801819709
 21
34.90701558689979
 31
0.0
  0
LINE
  5
6C4
330
1E
100
AcDbEntity
  8
0
100
AcDbLine
 10
289.2309801819709
 20
34.90701558689979
 30
0.0
 11
289.2309801819709
 21
37.07701558689979
 31
0.0
  0
LINE
  5
6C5
330
1E
100
AcDbEntity
  8
0
100
AcDbLine
 10
289.2309801819709
 20
37.07701558689979
 30
0.0
 11
285.0309801819709
 21
37.07701558689979
 31
0.0
  0
LINE
  5
6C6
330
1E
100
AcDbEntity
  8
0
100
AcDbLine
 10
285.0309801819709
 20
37.07701558689979
 30
0.0
 11
285.0309801819709
 21
34.30701558689979
 31
0.0
  0
LINE
  5
6C7
330
1E
100
AcDbEntity
  8
0
100
AcDbLine
 10
285.0309801819709
 20
34.30701558689979
 30
0.0
 11
288.5309801819709
 21
34.3070155868998
 31
0.0
  0
LINE
  5
6C8
330
1E
100
AcDbEntity
  8
0
100
AcDbLine
 10
288.5309801819709
 20
34.3070155868998
 30
0.0
 11
285.0309801819709
 21
34.30701558689979
 31
0.0
  0
LINE
  5
6C9
330
1E
100
AcDbEntity
  8
0
100
AcDbLine
 10
285.0309801819709
 20
34.30701558689979
 30
0.0
 11
288.5309801819709
 21
34.30701558689979
 31
0.0
  0
LINE
  5
6CA
330
1E
100
AcDbEntity
  8
0
100
AcDbLine
 10
284.9684801819709
 20
37.07701558689979
 30
0.0
 11
284.2529892439851
 21
37.07701558689979
 31
0.0
  0
LINE
  5
6CB
330
1E
100
AcDbEntity
  8
0
100
AcDbLine
 10
284.9684801819709
 20
34.30701558689979
 30
0.0
 11
284.2529892439851
 21
34.30701558689979
 31
0.0
  0
LINE
  5
6CC
330
1E
100
AcDbEntity
  8
0
100
AcDbLine
 10
284.4329892439851
 20
36.89701558689979
 30
0.0
 11
284.4329892439851
 21
35.87201558689979
 31
0.0
  0
LINE
  5
6CD
330
1E
100
AcDbEntity
  8
0
100
AcDbLine
 10
284.4329892439851
 20
34.48701558689979
 30
0.0
 11
284.4329892439851
 21
35.51201558689979
 31
0.0
  0
SOLID
  5
6CE
330
1E
100
AcDbEntity
  8
0
100
AcDbTrace
 10
284.4029892439852
 20
36.89701558689979
 30
0.0
 11
284.4629892439851
 21
36.89701558689979
 31
0.0
 12
284.4329892439851
 22
37.07701558689979
 32
0.0
 13
284.4329892439851
 23
37.07701558689979
 33
0.0
  0
SOLID
  5
6CF
330
1E
100
AcDbEntity
  8
0
100
AcDbTrace
 10
284.4029892439852
 20
34.48701558689979
 30
0.0
 11
284.4629892439851
 21
34.48701558689979
 31
0.0
 12
284.4329892439851
 22
34.30701558689979
 32
0.0
 13
284.4329892439851
 23
34.30701558689979
 33
0.0
  0
MTEXT
  5
6D0
330
1E
100
AcDbEntity
  8
0
100
AcDbMText
 10
284.4329892439851
 20
35.69201558689984
 30
0.0
 40
0.18
 41
0.0
 71
     5
 72
     1
  1
\A1;2.77
1001
ACAD
1000
MTEXTBEGIN
1070
    73
1070
     1
1070
    44
1040
1.0
1070
    74
1070
     0
1000
MTEXTEND
  0
LINE
  5
6D1
330
1E
100
AcDbEntity
  8
0
100
AcDbLine
 10
289.2934801819709
 20
37.07701558689979
 30
0.0
 11
289.8287804845996
 21
37.07701558689979
 31
0.0
  0
LINE
  5
6D2
330
1E
100
AcDbEntity
  8
0
100
AcDbLine
 10
289.2934801819709
 20
34.90701558689979
 30
0.0
 11
289.8287804845996
 21
34.90701558689979
 31
0.0
  0
LINE
  5
6D3
330
1E
100
AcDbEntity
  8
0
100
AcDbLine
 10
289.6487804845996
 20
36.89701558689979
 30
0.0
 11
289.6487804845996
 21
36.17201558689979
 31
0.0
  0
LINE
  5
6D4
330
1E
100
AcDbEntity
  8
0
100
AcDbLine
 10
289.6487804845996
 20
35.08701558689979
 30
0.0
 11
289.6487804845996
 21
35.81201558689979
 31
0.0
  0
SOLID
  5
6D5
330
1E
100
AcDbEntity
  8
0
100
AcDbTrace
 10
289.6187804845997
 20
36.89701558689979
 30
0.0
 11
289.6787804845996
 21
36.89701558689979
 31
0.0
 12
289.6487804845996
 22
37.07701558689979
 32
0.0
 13
289.6487804845996
 23
37.07701558689979
 33
0.0
  0
SOLID
  5
6D6
330
1E
100
AcDbEntity
  8
0
100
AcDbTrace
 10
289.6187804845997
 20
35.08701558689979
 30
0.0
 11
289.6787804845996
 21
35.08701558689979
 31
0.0
 12
289.6487804845996
 22
34.90701558689979
 32
0.0
 13
289.6487804845996
 23
34.90701558689979
 33
0.0
  0
MTEXT
  5
6D7
330
1E
100
AcDbEntity
  8
0
100
AcDbMText
 10
289.6487804845996
 20
35.99201558689984
 30
0.0
 40
0.18
 41
0.0
 71
     5
 72
     1
  1
\A1;2.17
1001
ACAD
1000
MTEXTBEGIN
1070
    73
1070
     1
1070
    44
1040
1.0
1070
    74
1070
     0
1000
MTEXTEND
  0
LINE
  5
6D8
330
1E
100
AcDbEntity
  8
0
100
AcDbLine
 10
288.5934801819709
 20
34.90701558689979
 30
0.0
 11
289.8231841131515
 21
34.90701558689979
 31
0.0
  0
LINE
  5
6D9
330
1E
100
AcDbEntity
  8
0
100
AcDbLine
 10
288.5934801819709
 20
34.30701558689979
 30
0.0
 11
289.8231841131515
 21
34.30701558689979
 31
0.0
  0
LINE
  5
6DA
330
1E
100
AcDbEntity
  8
0
100
AcDbLine
 10
289.6431841131515
 20
34.72701558689979
 30
0.0
 11
289.6431841131515
 21
34.48701558689979
 31
0.0
  0
LINE
  5
6DB
330
1E
100
AcDbEntity
  8
0
100
AcDbLine
 10
289.6431841131515
 20
34.30701558689979
 30
0.0
 11
289.6431841131515
 21
34.12701558689979
 31
0.0
  0
LINE
  5
6DC
330
1E
100
AcDbEntity
  8
0
100
AcDbLine
 10
289.6431841131515
 20
34.12701558689979
 30
0.0
 11
289.4631841131515
 21
34.12701558689979
 31
0.0
  0
SOLID
  5
6DD
330
1E
100
AcDbEntity
  8
0
100
AcDbTrace
 10
289.6131841131515
 20
34.72701558689979
 30
0.0
 11
289.6731841131515
 21
34.72701558689979
 31
0.0
 12
289.6431841131515
 22
34.90701558689979
 32
0.0
 13
289.6431841131515
 23
34.90701558689979
 33
0.0
  0
SOLID
  5
6DE
330
1E
100
AcDbEntity
  8
0
100
AcDbTrace
 10
289.6131841131515
 20
34.48701558689979
 30
0.0
 11
289.6731841131515
 21
34.48701558689979
 31
0.0
 12
289.6431841131515
 22
34.30701558689979
 32
0.0
 13
289.6431841131515
 23
34.30701558689979
 33
0.0
  0
MTEXT
  5
6DF
330
1E
100
AcDbEntity
  8
0
100
AcDbMText
 10
289.1331841131515
 20
34.12701558689984
 30
0.0
 40
0.18
 41
0.0
 71
     5
 72
     1
  1
\A1;0.60
1001
ACAD
1000
MTEXTBEGIN
1070
    73
1070
     1
1070
    44
1040
1.0
1070
    74
1070
     0
1000
MTEXTEND
  0
LINE
  5
6E0
330
1E
100
AcDbEntity
  8
0
100
AcDbLine
 10
288.5309801819709
 20
34.84451558689979
 30
0.0
 11
288.5309801819709
 21
33.66727876963778
 31
0.0
  0
LINE
  5
6E1
330
1E
100
AcDbEntity
  8
0
100
AcDbLine
 10
289.2309801819709
 20
34.84451558689979
 30
0.0
 11
289.2309801819709
 21
33.66727876963778
 31
0.0
  0
LINE
  5
6E2
330
1E
100
AcDbEntity
  8
0
100
AcDbLine
 10
288.3509801819709
 20
33.84727876963778
 30
0.0
 11
288.1709801819709
 21
33.84727876963778
 31
0.0
  0
LINE
  5
6E3
330
1E
100
AcDbEntity
  8
0
100
AcDbLine
 10
289.4109801819709
 20
33.84727876963778
 30
0.0
 11
289.5909801819709
 21
33.84727876963778
 31
0.0
  0
SOLID
  5
6E4
330
1E
100
AcDbEntity
  8
0
100
AcDbTrace
 10
288.3509801819709
 20
33.87727876963778
 30
0.0
 11
288.3509801819709
 21
33.81727876963778
 31
0.0
 12
288.5309801819709
 22
33.84727876963778
 32
0.0
 13
288.5309801819709
 23
33.84727876963778
 33
0.0
  0
SOLID
  5
6E5
330
1E
100
AcDbEntity
  8
0
100
AcDbTrace
 10
289.4109801819709
 20
33.87727876963778
 30
0.0
 11
289.4109801819709
 21
33.81727876963778
 31
0.0
 12
289.2309801819709
 22
33.84727876963778
 32
0.0
 13
289.2309801819709
 23
33.84727876963778
 33
0.0
  0
MTEXT
  5
6E6
330
1E
100
AcDbEntity
  8
0
100
AcDbMText
 10
288.8809801819709
 20
33.84727876963778
 30
0.0
 40
0.18
 41
0.0
 71
     5
 72
     1
  1
\A1;0.70
1001
ACAD
1000
MTEXTBEGIN
1070
    73
1070
     1
1070
    44
1040
1.0
1070
    74
1070
     0
1000
MTEXTEND
  0
VIEWPORT
  5
1D9
330
1A
100
AcDbEntity
 67
     1
  8
0
100
AcDbViewport
 10
99.82470776163149
 20
143.3229762546135
 30
0.0
 40
488.1619999471468
 41
307.1270234485288
 68
     1
 69
     1
1001
ACAD
1000
MVIEW
1002
{
1070
    16
1010
0.0
1020
0.0
1030
0.0
1010
0.0
1020
0.0
1030
1.0
1040
0.0
1040
307.1270234485288
1040
99.82470776163149
1040
143.3229762546135
1040
50.0
1040
0.0
1040
0.0
1070
     0
1070
   100
1070
     1
1070
     1
1070
     0
1070
     0
1070
     0
1070
     0
1040
0.0
1040
0.0
1040
0.0
1040
10.0
1040
10.0
1040
10.0
1040
10.0
1070
     0
1002
{
1002
}
1002
}
  0
VIEWPORT
  5
1DB
330
1A
100
AcDbEntity
 67
     1
  8
0
100
AcDbViewport
 10
99.980751991272
 20
143.3935842514036
 30
0.0
 40
199.2902839821538
 41
285.8513345476648
 68
     2
 69
     2
1001
ACAD
1000
MVIEW
1002
{
1070
    16
1010
0.0
1020
0.0
1030
0.0
1010
0.0
1020
0.0
1030
1.0
1040
0.0
1040
15.3945017187523
1040
286.6488322780006
1040
37.31916769001134
1040
50.0
1040
0.0
1040
0.0
1070
     0
1070
   100
1070
     1
1070
     1
1070
     0
1070
     0
1070
     0
1070
     0
1040
0.0
1040
0.0
1040
0.0
1040
1.0
1040
1.0
1040
0.0
1040
0.0
1070
     0
1002
{
1002
}
1002
}
  0
ENDSEC
  0
SECTION
  2
OBJECTS
  0
DICTIONARY
  5
C
330
0
100
AcDbDictionary
  3
ACAD_GROUP
350
D
  3
ACAD_LAYOUT
350
19
  3
ACAD_MLINESTYLE
350
16
  3
ACAD_PLOTSETTINGS
350
18
  3
ACAD_PLOTSTYLENAME
350
330
  3
ACDBHEADERROUNDTRIPXREC
350
6E9
  3
ACDBVARIABLEDICTIONARY
350
4E2
1001
ACAD
1000
TREAT_AS_HARD
1070
     0
  0
DICTIONARY
  5
1AC
330
1E
100
AcDbDictionary
280
     1
  3
ACAD_LAYOUTSELFREF
360
70A
  3
ACAD_SORTENTS
360
27D
1001
ACAD
1000
TREAT_AS_HARD
1070
     1
  0
DICTIONARY
  5
1AA
330
1A
100
AcDbDictionary
280
     1
  3
ACAD_LAYOUTSELFREF
360
709
1001
ACAD
1000
TREAT_AS_HARD
1070
     1
  0
DICTIONARY
  5
D
102
{ACAD_REACTORS
330
C
102
}
330
C
100
AcDbDictionary
1001
ACAD
1000
TREAT_AS_HARD
1070
     0
  0
DICTIONARY
  5
19
102
{ACAD_REACTORS
330
C
102
}
330
C
100
AcDbDictionary
1001
ACAD
1000
TREAT_AS_HARD
1070
     0
  0
DICTIONARY
  5
16
102
{ACAD_REACTORS
330
C
102
}
330
C
100
AcDbDictionary
  3
STANDARD
350
17
1001
ACAD
1000
TREAT_AS_HARD
1070
     0
  0
DICTIONARY
  5
18
102
{ACAD_REACTORS
330
C
102
}
330
C
100
AcDbDictionary
  3
SECCIONS
350
20A
1001
ACAD
1000
TREAT_AS_HARD
1070
     0
  0
ACDBDICTIONARYWDFLT
  5
330
102
{ACAD_REACTORS
330
C
102
}
330
C
100
AcDbDictionary
281
     1
  3
Normal
350
331
100
AcDbDictionaryWithDefault
340
331
  0
DICTIONARY
  5
6E9
102
{ACAD_REACTORS
330
C
102
}
330
C
100
AcDbDictionary
  3
CEPSNTYPE
350
6F3
  3
FINGERPRINTGUID
350
6F4
  3
HYPERLINKBASE
350
6EC
  3
INSUNITS
350
6F2
  3
LAYOUTDICT
350
6EE
  3
LWETCUNION
350
6F1
  3
PLOTSETDICT
350
6EF
  3
PLOTSTYLNAMDICT
350
6F0
  3
PSVPSCALE
350
6F6
  3
PUCSBASE
350
6F9
  3
PUCSORGBACK
350
6FF
  3
PUCSORGBOTTOM
350
6FB
  3
PUCSORGFRONT
350
6FE
  3
PUCSORGLEFT
350
6FC
  3
PUCSORGRIGHT
350
6FD
  3
PUCSORGTOP
350
6FA
  3
PUCSORTHOREF
350
6F7
  3
PUCSORTHOVIEW
350
6F8
  3
STYLESHEET
350
6ED
  3
TSTACKALIGN
350
6EA
  3
TSTACKSIZE
350
6EB
  3
UCSBASE
350
702
  3
UCSORGBACK
350
708
  3
UCSORGBOTTOM
350
704
  3
UCSORGFRONT
350
707
  3
UCSORGLEFT
350
705
  3
UCSORGRIGHT
350
706
  3
UCSORGTOP
350
703
  3
UCSORTHOREF
350
700
  3
UCSORTHOVIEW
350
701
  3
VERSIONGUID
350
6F5
  0
DICTIONARY
  5
4E2
102
{ACAD_REACTORS
330
C
102
}
330
C
100
AcDbDictionary
  3
DIMASSOC
350
4E3
  0
XRECORD
  5
70A
102
{ACAD_REACTORS
330
1AC
102
}
330
1AC
100
AcDbXrecord
340
1E
  0
SORTENTSTABLE
  5
27D
102
{ACAD_REACTORS
330
1AC
102
}
330
1AC
100
AcDbSortentsTable
330
1E
331
3C
  5
244
331
2D
  5
3C
331
34
  5
23F
331
3D
  5
249
331
2E
  5
3D
331
2C
  5
34
  0
XRECORD
  5
709
102
{ACAD_REACTORS
330
1AA
102
}
330
1AA
100
AcDbXrecord
340
1A
  0
MLINESTYLE
  5
17
102
{ACAD_REACTORS
330
16
102
}
330
16
100
AcDbMlineStyle
  2
STANDARD
 70
     0
  3

 62
   256
 51
90.0
 52
90.0
 71
     2
 49
0.5
 62
   256
  6
BYLAYER
 49
-0.5
 62
   256
  6
BYLAYER
  0
PLOTSETTINGS
  5
20A
102
{ACAD_REACTORS
330
18
102
}
330
18
100
AcDbPlotSettings
  1
seccions
  2
\\SERVIDOR1\LS8100PS
  4
A4
  6

 40
5.365749835968013
 41
5.4080810546875
 42
5.154083251953125
 43
5.154083251953125
 44
209.9733276367186
 45
296.9683227539062
 46
0.0
 47
0.0
 48
281.3959999999998
 49
29.897
140
291.8959999999998
141
44.747
142
1.0
143
0.0526438507570551
 70
  1712
 72
     1
 73
     0
 74
     4
  7
T:\CFG ACAD2000\Plot Styles\xvr.ctb
 75
     0
147
18.99557090940928
148
-281.3959999999998
149
-29.897
  0
ACDBPLACEHOLDER
  5
331
102
{ACAD_REACTORS
330
330
102
}
330
330
100
AcDbPlaceHolder
280
     0
  0
XRECORD
  5
6F3
102
{ACAD_REACTORS
330
6E9
102
}
330
6E9
100
AcDbXrecord
 90
        0
  0
XRECORD
  5
6F4
102
{ACAD_REACTORS
330
6E9
102
}
330
6E9
100
AcDbXrecord
  1
{061240B0-03E4-11D5-A6AC-0008C769B1B5}
  0
XRECORD
  5
6EC
102
{ACAD_REACTORS
330
6E9
102
}
330
6E9
100
AcDbXrecord
  1

  0
XRECORD
  5
6F2
102
{ACAD_REACTORS
330
6E9
102
}
330
6E9
100
AcDbXrecord
 90
        0
  0
XRECORD
  5
6EE
102
{ACAD_REACTORS
330
6E9
102
}
330
6E9
100
AcDbXrecord
340
19
  0
XRECORD
  5
6F1
102
{ACAD_REACTORS
330
6E9
102
}
330
6E9
100
AcDbXrecord
 90
    10781
  0
XRECORD
  5
6EF
102
{ACAD_REACTORS
330
6E9
102
}
330
6E9
100
AcDbXrecord
340
18
  0
XRECORD
  5
6F0
102
{ACAD_REACTORS
330
6E9
102
}
330
6E9
100
AcDbXrecord
340
330
  0
XRECORD
  5
6F6
102
{ACAD_REACTORS
330
6E9
102
}
330
6E9
100
AcDbXrecord
 40
0.0
  0
XRECORD
  5
6F9
102
{ACAD_REACTORS
330
6E9
102
}
330
6E9
100
AcDbXrecord
340
0
  0
XRECORD
  5
6FF
102
{ACAD_REACTORS
330
6E9
102
}
330
6E9
100
AcDbXrecord
 10
0.0
 20
0.0
 30
0.0
  0
XRECORD
  5
6FB
102
{ACAD_REACTORS
330
6E9
102
}
330
6E9
100
AcDbXrecord
 10
0.0
 20
0.0
 30
0.0
  0
XRECORD
  5
6FE
102
{ACAD_REACTORS
330
6E9
102
}
330
6E9
100
AcDbXrecord
 10
0.0
 20
0.0
 30
0.0
  0
XRECORD
  5
6FC
102
{ACAD_REACTORS
330
6E9
102
}
330
6E9
100
AcDbXrecord
 10
0.0
 20
0.0
 30
0.0
  0
XRECORD
  5
6FD
102
{ACAD_REACTORS
330
6E9
102
}
330
6E9
100
AcDbXrecord
 10
0.0
 20
0.0
 30
0.0
  0
XRECORD
  5
6FA
102
{ACAD_REACTORS
330
6E9
102
}
330
6E9
100
AcDbXrecord
 10
0.0
 20
0.0
 30
0.0
  0
XRECORD
  5
6F7
102
{ACAD_REACTORS
330
6E9
102
}
330
6E9
100
AcDbXrecord
340
0
  0
XRECORD
  5
6F8
102
{ACAD_REACTORS
330
6E9
102
}
330
6E9
100
AcDbXrecord
 70
     0
  0
XRECORD
  5
6ED
102
{ACAD_REACTORS
330
6E9
102
}
330
6E9
100
AcDbXrecord
  1

  0
XRECORD
  5
6EA
102
{ACAD_REACTORS
330
6E9
102
}
330
6E9
100
AcDbXrecord
 90
        1
  0
XRECORD
  5
6EB
102
{ACAD_REACTORS
330
6E9
102
}
330
6E9
100
AcDbXrecord
 90
       70
  0
XRECORD
  5
702
102
{ACAD_REACTORS
330
6E9
102
}
330
6E9
100
AcDbXrecord
340
0
  0
XRECORD
  5
708
102
{ACAD_REACTORS
330
6E9
102
}
330
6E9
100
AcDbXrecord
 10
0.0
 20
0.0
 30
0.0
  0
XRECORD
  5
704
102
{ACAD_REACTORS
330
6E9
102
}
330
6E9
100
AcDbXrecord
 10
0.0
 20
0.0
 30
0.0
  0
XRECORD
  5
707
102
{ACAD_REACTORS
330
6E9
102
}
330
6E9
100
AcDbXrecord
 10
0.0
 20
0.0
 30
0.0
  0
XRECORD
  5
705
102
{ACAD_REACTORS
330
6E9
102
}
330
6E9
100
AcDbXrecord
 10
0.0
 20
0.0
 30
0.0
  0
XRECORD
  5
706
102
{ACAD_REACTORS
330
6E9
102
}
330
6E9
100
AcDbXrecord
 10
0.0
 20
0.0
 30
0.0
  0
XRECORD
  5
703
102
{ACAD_REACTORS
330
6E9
102
}
330
6E9
100
AcDbXrecord
 10
0.0
 20
0.0
 30
0.0
  0
XRECORD
  5
700
102
{ACAD_REACTORS
330
6E9
102
}
330
6E9
100
AcDbXrecord
340
0
  0
XRECORD
  5
701
102
{ACAD_REACTORS
330
6E9
102
}
330
6E9
100
AcDbXrecord
 70
     0
  0
XRECORD
  5
6F5
102
{ACAD_REACTORS
330
6E9
102
}
330
6E9
100
AcDbXrecord
  1
{23A231B3-DA4B-44C1-BEA5-437797AEBA43}
  0
DICTIONARYVAR
  5
4E3
102
{ACAD_REACTORS
330
4E2
102
}
330
4E2
100
DictionaryVariables
280
     0
  1
1
  0
ENDSEC
  0
EOF
