  0
SECTION
  2
HEADER
  9
$ACADVER
  1
AC1009
  9
$INSBASE
 10
154.007127
 20
80.934754
 30
0.0
  9
$EXTMIN
 10
154.007127
 20
80.934754
 30
0.0
  9
$EXTMAX
 10
164.507127
 20
95.784754
 30
0.0
  9
$LIMMIN
 10
0.0
 20
0.0
  9
$LIMMAX
 10
410.0
 20
287.0
  9
$ORTHOMODE
 70
     0
  9
$REGENMODE
 70
     1
  9
$FILLMODE
 70
     1
  9
$QTEXTMODE
 70
     0
  9
$MIRRTEXT
 70
     1
  9
$DRAGMODE
 70
     2
  9
$LTSCALE
 40
25.0
  9
$OSMODE
 70
    32
  9
$ATTMODE
 70
     1
  9
$TEXTSIZE
 40
0.1
  9
$TRACEWID
 40
1.0
  9
$TEXTSTYLE
  7
ROMANC
  9
$CLAYER
  8
0
  9
$CELTYPE
  6
BYLAYER
  9
$CECOLOR
 62
   256
  9
$DIMSCALE
 40
0.0
  9
$DIMASZ
 40
0.0
  9
$DIMEXO
 40
0.1
  9
$DIMDLI
 40
7.0
  9
$DIMRND
 40
0.0
  9
$DIMDLE
 40
0.0
  9
$DIMEXE
 40
1.8
  9
$DIMTP
 40
0.0
  9
$DIMTM
 40
0.0
  9
$DIMTXT
 40
0.03
  9
$DIMCEN
 40
1.5
  9
$DIMTSZ
 40
1.0
  9
$DIMTOL
 70
     0
  9
$DIMLIM
 70
     0
  9
$DIMTIH
 70
     0
  9
$DIMTOH
 70
     0
  9
$DIMSE1
 70
     0
  9
$DIMSE2
 70
     0
  9
$DIMTAD
 70
     0
  9
$DIMZIN
 70
     0
  9
$DIMBLK
  1

  9
$DIMASO
 70
     1
  9
$DIMSHO
 70
     0
  9
$DIMPOST
  1

  9
$DIMAPOST
  1

  9
$DIMALT
 70
     0
  9
$DIMALTD
 70
     2
  9
$DIMALTF
 40
25.4
  9
$DIMLFAC
 40
1.0
  9
$DIMTOFL
 70
     1
  9
$DIMTVP
 40
0.0
  9
$DIMTIX
 70
     1
  9
$DIMSOXD
 70
     0
  9
$DIMSAH
 70
     0
  9
$DIMBLK1
  1

  9
$DIMBLK2
  1

  9
$DIMSTYLE
  2
*UNNAMED
  9
$DIMCLRD
 70
     0
  9
$DIMCLRE
 70
     0
  9
$DIMCLRT
 70
     0
  9
$DIMTFAC
 40
116.666667
  9
$DIMGAP
 40
0.09
  9
$LUNITS
 70
     2
  9
$LUPREC
 70
     2
  9
$SKETCHINC
 40
1.0
  9
$FILLETRAD
 40
0.0
  9
$AUNITS
 70
     0
  9
$AUPREC
 70
     0
  9
$MENU
  1
acad
  9
$ELEVATION
 40
0.0
  9
$PELEVATION
 40
0.0
  9
$THICKNESS
 40
0.0
  9
$LIMCHECK
 70
     0
  9
$BLIPMODE
 70
     0
  9
$CHAMFERA
 40
0.0
  9
$CHAMFERB
 40
0.0
  9
$SKPOLY
 70
     0
  9
$TDCREATE
 40
2449965.431701620
  9
$TDUPDATE
 40
2450623.572227546
  9
$TDINDWG
 40
0.0050832176
  9
$TDUSRTIMER
 40
0.0050832176
  9
$USRTIMER
 70
     1
  9
$ANGBASE
 50
0.0
  9
$ANGDIR
 70
     0
  9
$PDMODE
 70
     0
  9
$PDSIZE
 40
0.0
  9
$PLINEWID
 40
0.0
  9
$COORDS
 70
     2
  9
$SPLFRAME
 70
     0
  9
$SPLINETYPE
 70
     6
  9
$SPLINESEGS
 70
     8
  9
$ATTDIA
 70
     0
  9
$ATTREQ
 70
     1
  9
$HANDLING
 70
     0
  9
$HANDSEED
  5
0
  9
$SURFTAB1
 70
     6
  9
$SURFTAB2
 70
     6
  9
$SURFTYPE
 70
     6
  9
$SURFU
 70
     6
  9
$SURFV
 70
     6
  9
$UCSNAME
  2

  9
$UCSORG
 10
0.0
 20
0.0
 30
0.0
  9
$UCSXDIR
 10
1.0
 20
0.0
 30
0.0
  9
$UCSYDIR
 10
0.0
 20
1.0
 30
0.0
  9
$PUCSNAME
  2

  9
$PUCSORG
 10
0.0
 20
0.0
 30
0.0
  9
$PUCSXDIR
 10
1.0
 20
0.0
 30
0.0
  9
$PUCSYDIR
 10
0.0
 20
1.0
 30
0.0
  9
$USERI1
 70
     0
  9
$USERI2
 70
     0
  9
$USERI3
 70
     0
  9
$USERI4
 70
     0
  9
$USERI5
 70
     0
  9
$USERR1
 40
0.0
  9
$USERR2
 40
0.0
  9
$USERR3
 40
0.0
  9
$USERR4
 40
0.0
  9
$USERR5
 40
0.0
  9
$WORLDVIEW
 70
     1
  9
$SHADEDGE
 70
     3
  9
$SHADEDIF
 70
    70
  9
$TILEMODE
 70
     1
  9
$MAXACTVP
 70
    16
  9
$PINSBASE
 10
0.0
 20
0.0
 30
0.0
  9
$PLIMCHECK
 70
     0
  9
$PEXTMIN
 10
1.000000E+20
 20
1.000000E+20
 30
1.000000E+20
  9
$PEXTMAX
 10
-1.000000E+20
 20
-1.000000E+20
 30
-1.000000E+20
  9
$PLIMMIN
 10
0.0
 20
0.0
  9
$PLIMMAX
 10
12.0
 20
9.0
  9
$UNITMODE
 70
     0
  9
$VISRETAIN
 70
     0
  9
$PLINEGEN
 70
     0
  9
$PSLTSCALE
 70
     0
  9
$TREEDEPTH
 70
  3020
  9
$DWGCODEPAGE
  3
iso8859-1
  0
ENDSEC
  0
SECTION
  2
TABLES
  0
TABLE
  2
VPORT
 70
     2
  0
VPORT
  2
*ACTIVE
 70
     0
 10
0.0
 20
0.0
 11
1.0
 21
1.0
 12
166.182208
 22
88.492111
 13
0.0
 23
0.0
 14
1.0
 24
1.0
 15
10.0
 25
10.0
 16
0.0
 26
0.0
 36
1.0
 17
0.0
 27
0.0
 37
0.0
 40
15.114714
 41
1.611024
 42
50.0
 43
0.0
 44
0.0
 50
0.0
 51
0.0
 71
     0
 72
   100
 73
     1
 74
     0
 75
     0
 76
     0
 77
     0
 78
     2
  0
ENDTAB
  0
TABLE
  2
LTYPE
 70
     1
  0
LTYPE
  2
CONTINUOUS
 70
    64
  3
Solid line
 72
    65
 73
     0
 40
0.0
  0
ENDTAB
  0
TABLE
  2
LAYER
 70
     2
  0
LAYER
  2
0
 70
    64
 62
     7
  6
CONTINUOUS
  0
LAYER
  2
MESURA
 70
    64
 62
     7
  6
CONTINUOUS
  0
ENDTAB
  0
TABLE
  2
STYLE
 70
     2
  0
STYLE
  2
STANDARD
 70
     0
 40
0.0
 41
1.0
 50
0.0
 71
     0
 42
0.1
  3
txt
  4

  0
STYLE
  2
ROMANC
 70
    64
 40
0.0
 41
1.0
 50
0.0
 71
     0
 42
0.1
  3
romanc
  4

  0
ENDTAB
  0
TABLE
  2
VIEW
 70
     0
  0
ENDTAB
  0
TABLE
  2
UCS
 70
     0
  0
ENDTAB
  0
TABLE
  2
APPID
 70
     1
  0
APPID
  2
ACAD
 70
    64
  0
ENDTAB
  0
TABLE
  2
DIMSTYLE
 70
     0
  0
ENDTAB
  0
ENDSEC
  0
SECTION
  2
BLOCKS
  0
ENDSEC
  0
SECTION
  2
ENTITIES
  0
LINE
  8
0
 10
164.507127
 20
80.934754
 30
0.0
 11
164.507127
 21
95.784754
 31
0.0
  0
LINE
  8
0
 10
154.007127
 20
95.784754
 30
0.0
 11
154.007127
 21
80.934754
 31
0.0
  0
LINE
  8
0
 10
154.007127
 20
80.934754
 30
0.0
 11
164.507127
 21
80.934754
 31
0.0
  0
TEXT
  8
0
 10
156.581724
 20
91.645682
 30
0.0
 40
0.3
  1
P = 42.8 dm
  7
ROMANC
  0
TEXT
  8
0
 10
156.5371
 20
93.380613
 30
0.0
 40
0.3
  1
TIPUS   NT113
  7
ROMANC
  0
TEXT
  8
0
 10
156.550194
 20
92.296309
 30
0.0
 40
0.3
  1
S =  113 dm
  7
ROMANC
  0
TEXT
  8
0
 10
156.5371
 20
92.894898
 30
0.0
 40
0.3
  1
ESCALA  1:50
  7
ROMANC
  0
LINE
  8
0
 10
164.507127
 20
95.784754
 30
0.0
 11
154.007127
 21
95.784754
 31
0.0
  0
POLYLINE
  8
0
 66
     1
 10
0.0
 20
0.0
 30
0.0
 70
     1
  0
VERTEX
  8
0
 10
159.033881
 20
85.646383
 30
0.0
 42
0.151402
  0
VERTEX
  8
0
 10
159.046341
 20
85.58618
 30
0.0
 42
0.10607
  0
VERTEX
  8
0
 10
159.087977
 20
85.538317
 30
0.0
 42
0.085783
 70
     2
 50
323.130102
  0
VERTEX
  8
0
 10
159.147511
 20
85.5079
 30
0.0
 42
0.075445
 50
323.130102
  0
VERTEX
  8
0
 10
159.223399
 20
85.496383
 30
0.0
 42
0.075445
  0
VERTEX
  8
0
 10
159.299286
 20
85.5079
 30
0.0
 42
0.085783
  0
VERTEX
  8
0
 10
159.35882
 20
85.538317
 30
0.0
 42
0.10607
 70
     2
 50
36.869898
  0
VERTEX
  8
0
 10
159.400457
 20
85.58618
 30
0.0
 42
0.151402
 50
36.869898
  0
VERTEX
  8
0
 10
159.412916
 20
85.646383
 30
0.0
  0
VERTEX
  8
0
 10
159.546983
 20
85.646383
 30
0.0
 42
0.014417
 70
     2
 50
78.441706
  0
VERTEX
  8
0
 10
159.579327
 20
85.93053
 30
0.0
 42
0.021131
 50
78.441706
  0
VERTEX
  8
0
 10
159.613399
 20
86.736383
 30
0.0
 42
1.0
  0
VERTEX
  8
0
 10
158.833399
 20
86.736383
 30
0.0
 42
0.021131
  0
VERTEX
  8
0
 10
158.86747
 20
85.93053
 30
0.0
 42
0.014417
  0
VERTEX
  8
0
 10
158.899815
 20
85.646383
 30
0.0
 70
     2
 50
281.558294
  0
SEQEND
  8
0
  0
POLYLINE
  8
0
 66
     1
 10
0.0
 20
0.0
 30
0.0
 70
     1
  0
VERTEX
  8
0
 10
159.013803
 20
85.626383
 30
0.0
 42
0.106338
  0
VERTEX
  8
0
 10
159.028833
 20
85.576511
 30
0.0
 42
0.10607
  0
VERTEX
  8
0
 10
159.075977
 20
85.522317
 30
0.0
 42
0.085783
 70
     2
 50
323.130102
  0
VERTEX
  8
0
 10
159.141578
 20
85.4888
 30
0.0
 42
0.075445
 50
323.130102
  0
VERTEX
  8
0
 10
159.223399
 20
85.476383
 30
0.0
 42
0.075445
  0
VERTEX
  8
0
 10
159.305219
 20
85.4888
 30
0.0
 42
0.085783
  0
VERTEX
  8
0
 10
159.37082
 20
85.522317
 30
0.0
 42
0.10607
 70
     2
 50
36.869898
  0
VERTEX
  8
0
 10
159.417964
 20
85.576511
 30
0.0
 42
0.106338
 50
36.869898
  0
VERTEX
  8
0
 10
159.432994
 20
85.626383
 30
0.0
  0
VERTEX
  8
0
 10
159.564293
 20
85.626383
 30
0.0
 42
0.015288
 70
     2
 50
78.441706
  0
VERTEX
  8
0
 10
159.599256
 20
85.928841
 30
0.0
 42
0.021131
 50
78.441706
  0
VERTEX
  8
0
 10
159.633399
 20
86.736383
 30
0.0
 42
1.0
  0
VERTEX
  8
0
 10
158.813399
 20
86.736383
 30
0.0
 42
0.021131
  0
VERTEX
  8
0
 10
158.847542
 20
85.928841
 30
0.0
 42
0.015288
  0
VERTEX
  8
0
 10
158.882504
 20
85.626383
 30
0.0
 70
     2
 50
281.558294
  0
SEQEND
  8
0
  0
POLYLINE
  8
0
 66
     1
 10
0.0
 20
0.0
 30
0.0
 70
     1
  0
VERTEX
  8
0
 10
159.023399
 20
85.636383
 30
0.0
 42
0.126822
  0
VERTEX
  8
0
 10
159.037587
 20
85.581346
 30
0.0
 42
0.10607
  0
VERTEX
  8
0
 10
159.081977
 20
85.530317
 30
0.0
 42
0.085783
 70
     2
 50
323.130102
  0
VERTEX
  8
0
 10
159.144545
 20
85.49835
 30
0.0
 42
0.075445
 50
323.130102
  0
VERTEX
  8
0
 10
159.223399
 20
85.486383
 30
0.0
 42
0.075445
  0
VERTEX
  8
0
 10
159.302253
 20
85.49835
 30
0.0
 42
0.085783
  0
VERTEX
  8
0
 10
159.36482
 20
85.530317
 30
0.0
 42
0.10607
 70
     2
 50
36.869898
  0
VERTEX
  8
0
 10
159.40921
 20
85.581346
 30
0.0
 42
0.126822
 50
36.869898
  0
VERTEX
  8
0
 10
159.423399
 20
85.636383
 30
0.0
  0
VERTEX
  8
0
 10
159.555646
 20
85.636383
 30
0.0
 42
0.014853
 70
     2
 50
78.441706
  0
VERTEX
  8
0
 10
159.589291
 20
85.929685
 30
0.0
 42
0.021131
 50
78.441706
  0
VERTEX
  8
0
 10
159.623399
 20
86.736383
 30
0.0
 42
1.0
  0
VERTEX
  8
0
 10
158.823399
 20
86.736383
 30
0.0
 42
0.021131
  0
VERTEX
  8
0
 10
158.857506
 20
85.929685
 30
0.0
 42
0.014853
  0
VERTEX
  8
0
 10
158.891152
 20
85.636383
 30
0.0
 70
     2
 50
281.558294
  0
SEQEND
  8
0
  0
TEXT
  8
0
 10
159.070541
 20
85.239131
 30
0.0
 40
0.1
  1
0.4
  7
ROMANC
  0
LINE
  8
MESURA
  6
BYBLOCK
 62
     0
 10
158.923399
 20
85.293048
 30
0.0
 11
159.123399
 21
85.493048
 31
0.0
  0
LINE
  8
MESURA
  6
BYBLOCK
 62
     0
 10
159.323399
 20
85.293048
 30
0.0
 11
159.523399
 21
85.493048
 31
0.0
  0
LINE
  8
0
 10
159.023399
 20
85.393048
 30
0.0
 11
159.423399
 21
85.393048
 31
0.0
  0
TEXT
  8
0
 10
159.015095
 20
84.931298
 30
0.0
 40
0.1
  1
0.63
  7
ROMANC
  0
TEXT
  8
0
 10
159.945359
 20
85.534652
 30
0.0
 40
0.1
  1
0.15
  7
ROMANC
  0
TEXT
  8
0
 10
159.908395
 20
86.125693
 30
0.0
 40
0.1
  1
1.10
  7
ROMANC
  0
TEXT
  8
0
 10
159.889913
 20
86.944532
 30
0.0
 40
0.1
  1
0.4
  7
ROMANC
  0
LINE
  8
MESURA
  6
BYBLOCK
 62
     0
 10
158.723399
 20
85.004168
 30
0.0
 11
158.923399
 21
85.204168
 31
0.0
  0
LINE
  8
MESURA
  6
BYBLOCK
 62
     0
 10
159.523399
 20
85.004168
 30
0.0
 11
159.723399
 21
85.204168
 31
0.0
  0
LINE
  8
MESURA
  6
BYBLOCK
 62
     0
 10
159.712137
 20
85.386383
 30
0.0
 11
159.912137
 21
85.586383
 31
0.0
  0
LINE
  8
MESURA
  6
BYBLOCK
 62
     0
 10
159.712137
 20
85.536383
 30
0.0
 11
159.912137
 21
85.736383
 31
0.0
  0
LINE
  8
MESURA
  6
BYBLOCK
 62
     0
 10
159.712137
 20
86.636383
 30
0.0
 11
159.912137
 21
86.836383
 31
0.0
  0
LINE
  8
MESURA
  6
BYBLOCK
 62
     0
 10
159.712137
 20
87.036383
 30
0.0
 11
159.912137
 21
87.236383
 31
0.0
  0
LINE
  8
0
 10
158.823399
 20
85.104168
 30
0.0
 11
159.623399
 21
85.104168
 31
0.0
  0
LINE
  8
0
 10
158.823399
 20
86.736383
 30
0.0
 11
158.823399
 21
85.104168
 31
0.0
  0
LINE
  8
0
 10
159.623399
 20
86.736383
 30
0.0
 11
159.623399
 21
85.104168
 31
0.0
  0
LINE
  8
0
 10
159.423399
 20
85.636383
 30
0.0
 11
159.423399
 21
85.393048
 31
0.0
  0
LINE
  8
0
 10
159.223399
 20
87.136383
 30
0.0
 11
160.567154
 21
87.136383
 31
0.0
  0
LINE
  8
0
 10
159.223399
 20
85.486383
 30
0.0
 11
160.567154
 21
85.486383
 31
0.0
  0
LINE
  8
0
 10
159.555646
 20
85.636383
 30
0.0
 11
159.812137
 21
85.636383
 31
0.0
  0
LINE
  8
0
 10
159.623399
 20
86.736383
 30
0.0
 11
159.812137
 21
86.736383
 31
0.0
  0
LINE
  8
0
 10
159.812137
 20
87.136383
 30
0.0
 11
159.812137
 21
85.486383
 31
0.0
  0
LINE
  8
0
 10
159.023399
 20
85.636383
 30
0.0
 11
159.023399
 21
85.393048
 31
0.0
  0
TEXT
  8
0
 10
159.939298
 20
92.60962
 30
0.0
 40
0.1
  1
2
  7
ROMANC
  0
LINE
  8
0
 10
158.823399
 20
86.736383
 30
0.0
 11
158.823399
 21
87.605431
 31
0.0
  0
LINE
  8
0
 10
159.623399
 20
86.736383
 30
0.0
 11
159.623399
 21
87.60305
 31
0.0
  0
LINE
  8
0
 10
158.823399
 20
87.605431
 30
0.0
 11
159.623399
 21
87.60305
 31
0.0
  0
LINE
  8
MESURA
  6
BYBLOCK
 62
     0
 10
158.723399
 20
87.505431
 30
0.0
 11
158.923399
 21
87.705431
 31
0.0
  0
LINE
  8
MESURA
  6
BYBLOCK
 62
     0
 10
159.523399
 20
87.50305
 30
0.0
 11
159.723399
 21
87.70305
 31
0.0
  0
TEXT
  8
0
 10
159.096535
 20
87.651694
 30
0.0
 40
0.1
  1
0.8
  7
ROMANC
  0
LINE
  8
0
 10
160.567154
 20
87.136383
 30
0.0
 11
160.567154
 21
85.486383
 31
0.0
  0
LINE
  8
MESURA
  6
BYBLOCK
 62
     0
 10
160.467154
 20
87.036383
 30
0.0
 11
160.667154
 21
87.236383
 31
0.0
  0
LINE
  8
MESURA
  6
BYBLOCK
 62
     0
 10
160.467154
 20
85.386383
 30
0.0
 11
160.667154
 21
85.586383
 31
0.0
  0
TEXT
  8
0
 10
160.677264
 20
86.277926
 30
0.0
 40
0.1
  1
1.65
  7
ROMANC
  0
ENDSEC
  0
EOF
