  0
SECTION
  2
HEADER
  9
$ACADVER
  1
AC1009
  9
$INSBASE
 10
105.464027
 20
-4.528761
 30
0.0
  9
$EXTMIN
 10
281.395795
 20
29.897444
 30
0.0
  9
$EXTMAX
 10
291.895795
 20
44.747444
 30
0.0
  9
$LIMMIN
 10
0.0
 20
0.0
  9
$LIMMAX
 10
410.0
 20
287.0
  9
$ORTHOMODE
 70
     1
  9
$REGENMODE
 70
     1
  9
$FILLMODE
 70
     1
  9
$QTEXTMODE
 70
     0
  9
$MIRRTEXT
 70
     1
  9
$DRAGMODE
 70
     2
  9
$LTSCALE
 40
25.0
  9
$OSMODE
 70
     0
  9
$ATTMODE
 70
     1
  9
$TEXTSIZE
 40
0.1
  9
$TRACEWID
 40
1.0
  9
$TEXTSTYLE
  7
ROMANC
  9
$CLAYER
  8
0
  9
$CELTYPE
  6
BYLAYER
  9
$CECOLOR
 62
   256
  9
$DIMSCALE
 40
1.5
  9
$DIMASZ
 40
0.1
  9
$DIMEXO
 40
0.01
  9
$DIMDLI
 40
7.0
  9
$DIMRND
 40
0.0
  9
$DIMDLE
 40
0.0
  9
$DIMEXE
 40
0.01
  9
$DIMTP
 40
0.0
  9
$DIMTM
 40
0.0
  9
$DIMTXT
 40
0.05
  9
$DIMCEN
 40
0.1
  9
$DIMTSZ
 40
0.0
  9
$DIMTOL
 70
     0
  9
$DIMLIM
 70
     0
  9
$DIMTIH
 70
     0
  9
$DIMTOH
 70
     0
  9
$DIMSE1
 70
     0
  9
$DIMSE2
 70
     0
  9
$DIMTAD
 70
     1
  9
$DIMZIN
 70
     0
  9
$DIMBLK
  1

  9
$DIMASO
 70
     1
  9
$DIMSHO
 70
     0
  9
$DIMPOST
  1

  9
$DIMAPOST
  1

  9
$DIMALT
 70
     0
  9
$DIMALTD
 70
     2
  9
$DIMALTF
 40
25.4
  9
$DIMLFAC
 40
1.0
  9
$DIMTOFL
 70
     1
  9
$DIMTVP
 40
0.0
  9
$DIMTIX
 70
     1
  9
$DIMSOXD
 70
     0
  9
$DIMSAH
 70
     0
  9
$DIMBLK1
  1

  9
$DIMBLK2
  1

  9
$DIMSTYLE
  2
SILVIA
  9
$DIMCLRD
 70
     0
  9
$DIMCLRE
 70
     0
  9
$DIMCLRT
 70
     0
  9
$DIMTFAC
 40
70.0
  9
$DIMGAP
 40
0.09
  9
$LUNITS
 70
     2
  9
$LUPREC
 70
     2
  9
$SKETCHINC
 40
1.0
  9
$FILLETRAD
 40
0.0
  9
$AUNITS
 70
     0
  9
$AUPREC
 70
     0
  9
$MENU
  1
acad
  9
$ELEVATION
 40
0.0
  9
$PELEVATION
 40
0.0
  9
$THICKNESS
 40
0.0
  9
$LIMCHECK
 70
     0
  9
$BLIPMODE
 70
     0
  9
$CHAMFERA
 40
0.0
  9
$CHAMFERB
 40
0.0
  9
$SKPOLY
 70
     0
  9
$TDCREATE
 40
2450043.719844329
  9
$TDUPDATE
 40
2450858.578338657
  9
$TDINDWG
 40
0.0404342593
  9
$TDUSRTIMER
 40
0.0404342593
  9
$USRTIMER
 70
     1
  9
$ANGBASE
 50
0.0
  9
$ANGDIR
 70
     0
  9
$PDMODE
 70
     0
  9
$PDSIZE
 40
0.0
  9
$PLINEWID
 40
0.0
  9
$COORDS
 70
     2
  9
$SPLFRAME
 70
     0
  9
$SPLINETYPE
 70
     6
  9
$SPLINESEGS
 70
     8
  9
$ATTDIA
 70
     0
  9
$ATTREQ
 70
     1
  9
$HANDLING
 70
     0
  9
$HANDSEED
  5
0
  9
$SURFTAB1
 70
     6
  9
$SURFTAB2
 70
     6
  9
$SURFTYPE
 70
     6
  9
$SURFU
 70
     6
  9
$SURFV
 70
     6
  9
$UCSNAME
  2

  9
$UCSORG
 10
0.0
 20
0.0
 30
0.0
  9
$UCSXDIR
 10
1.0
 20
0.0
 30
0.0
  9
$UCSYDIR
 10
0.0
 20
1.0
 30
0.0
  9
$PUCSNAME
  2

  9
$PUCSORG
 10
0.0
 20
0.0
 30
0.0
  9
$PUCSXDIR
 10
1.0
 20
0.0
 30
0.0
  9
$PUCSYDIR
 10
0.0
 20
1.0
 30
0.0
  9
$USERI1
 70
     0
  9
$USERI2
 70
     0
  9
$USERI3
 70
     0
  9
$USERI4
 70
     0
  9
$USERI5
 70
     0
  9
$USERR1
 40
0.0
  9
$USERR2
 40
0.0
  9
$USERR3
 40
0.0
  9
$USERR4
 40
0.0
  9
$USERR5
 40
0.0
  9
$WORLDVIEW
 70
     1
  9
$SHADEDGE
 70
     3
  9
$SHADEDIF
 70
    70
  9
$TILEMODE
 70
     1
  9
$MAXACTVP
 70
    16
  9
$PINSBASE
 10
0.0
 20
0.0
 30
0.0
  9
$PLIMCHECK
 70
     0
  9
$PEXTMIN
 10
1.000000E+20
 20
1.000000E+20
 30
1.000000E+20
  9
$PEXTMAX
 10
-1.000000E+20
 20
-1.000000E+20
 30
-1.000000E+20
  9
$PLIMMIN
 10
0.0
 20
0.0
  9
$PLIMMAX
 10
12.0
 20
9.0
  9
$UNITMODE
 70
     0
  9
$VISRETAIN
 70
     0
  9
$PLINEGEN
 70
     0
  9
$PSLTSCALE
 70
     0
  9
$TREEDEPTH
 70
  3020
  9
$DWGCODEPAGE
  3
iso8859-1
  0
ENDSEC
  0
SECTION
  2
TABLES
  0
TABLE
  2
VPORT
 70
     2
  0
VPORT
  2
*ACTIVE
 70
     0
 10
0.0
 20
0.0
 11
1.0
 21
1.0
 12
292.922009
 22
37.322444
 13
0.0
 23
0.0
 14
1.0
 24
1.0
 15
10.0
 25
10.0
 16
0.0
 26
0.0
 36
1.0
 17
0.0
 27
0.0
 37
0.0
 40
14.85
 41
1.552352
 42
50.0
 43
0.0
 44
0.0
 50
0.0
 51
0.0
 71
     0
 72
   100
 73
     1
 74
     0
 75
     0
 76
     0
 77
     0
 78
     1
  0
ENDTAB
  0
TABLE
  2
LTYPE
 70
     1
  0
LTYPE
  2
CONTINUOUS
 70
    64
  3
Solid line
 72
    65
 73
     0
 40
0.0
  0
ENDTAB
  0
TABLE
  2
LAYER
 70
     3
  0
LAYER
  2
0
 70
    64
 62
     7
  6
CONTINUOUS
  0
LAYER
  2
MESURA
 70
     0
 62
     7
  6
CONTINUOUS
  0
LAYER
  2
DEFPOINTS
 70
    64
 62
     7
  6
CONTINUOUS
  0
ENDTAB
  0
TABLE
  2
STYLE
 70
     2
  0
STYLE
  2
STANDARD
 70
     0
 40
0.0
 41
1.0
 50
0.0
 71
     0
 42
0.1
  3
txt
  4

  0
STYLE
  2
ROMANC
 70
    64
 40
0.0
 41
1.0
 50
0.0
 71
     0
 42
0.1
  3
romanc
  4

  0
ENDTAB
  0
TABLE
  2
VIEW
 70
     0
  0
ENDTAB
  0
TABLE
  2
UCS
 70
     0
  0
ENDTAB
  0
TABLE
  2
APPID
 70
     1
  0
APPID
  2
ACAD
 70
    64
  0
ENDTAB
  0
TABLE
  2
DIMSTYLE
 70
     1
  0
DIMSTYLE
  2
SILVIA
 70
    64
  3

  4

  5

  6

  7

 40
1.5
 41
0.1
 42
0.01
 43
7.0
 44
0.01
 45
0.0
 46
0.0
 47
0.0
 48
0.0
140
0.05
141
0.1
142
0.0
143
25.4
144
1.0
145
0.0
146
70.0
147
0.09
 71
     0
 72
     0
 73
     0
 74
     0
 75
     0
 76
     0
 77
     1
 78
     0
170
     0
171
     2
172
     1
173
     0
174
     1
175
     0
176
     0
177
     0
178
     0
  0
ENDTAB
  0
ENDSEC
  0
SECTION
  2
BLOCKS
  0
BLOCK
  8
0
  2
*D13
 70
    65
 10
0.0
 20
0.0
 30
0.0
  3
*D
  0
LINE
  8
0
  6
BYBLOCK
 62
     0
 10
284.724251
 20
34.709796
 30
0.0
 11
284.724251
 21
34.086194
 31
0.0
  0
LINE
  8
0
  6
BYBLOCK
 62
     0
 10
285.324251
 20
34.709796
 30
0.0
 11
285.324251
 21
34.086194
 31
0.0
  0
LINE
  8
0
  6
BYBLOCK
 62
     0
 10
284.574251
 20
34.101194
 30
0.0
 11
284.424251
 21
34.101194
 31
0.0
  0
LINE
  8
0
  6
BYBLOCK
 62
     0
 10
285.474251
 20
34.101194
 30
0.0
 11
285.624251
 21
34.101194
 31
0.0
  0
SOLID
  8
0
  6
BYBLOCK
 62
     0
 10
284.574251
 20
34.126194
 30
0.0
 11
284.574251
 21
34.076194
 31
0.0
 12
284.724251
 22
34.101194
 32
0.0
 13
284.724251
 23
34.101194
 33
0.0
  0
SOLID
  8
0
  6
BYBLOCK
 62
     0
 10
285.474251
 20
34.126194
 30
0.0
 11
285.474251
 21
34.076194
 31
0.0
 12
285.324251
 22
34.101194
 32
0.0
 13
285.324251
 23
34.101194
 33
0.0
  0
LINE
  8
0
  6
BYBLOCK
 62
     0
 10
284.724251
 20
34.101194
 30
0.0
 11
285.324251
 21
34.101194
 31
0.0
  0
TEXT
  8
0
  6
BYBLOCK
 62
     0
 10
284.899251
 20
34.138694
 30
0.0
 40
0.075
  1
0.60
  7
ROMANC
 72
     1
 11
285.024251
 21
34.176194
 31
0.0
 73
     2
  0
POINT
  8
DEFPOINTS
  6
BYBLOCK
 62
     0
 10
284.724251
 20
34.724796
 30
0.0
  0
POINT
  8
DEFPOINTS
  6
BYBLOCK
 62
     0
 10
285.324251
 20
34.724796
 30
0.0
  0
POINT
  8
DEFPOINTS
  6
BYBLOCK
 62
     0
 10
285.324251
 20
34.101194
 30
0.0
  0
ENDBLK
  8
0
  0
BLOCK
  8
0
  2
*D14
 70
    65
 10
0.0
 20
0.0
 30
0.0
  3
*D
  0
LINE
  8
0
  6
BYBLOCK
 62
     0
 10
285.324251
 20
34.709796
 30
0.0
 11
285.324251
 21
34.086194
 31
0.0
  0
LINE
  8
0
  6
BYBLOCK
 62
     0
 10
286.024251
 20
34.709796
 30
0.0
 11
286.024251
 21
34.086194
 31
0.0
  0
LINE
  8
0
  6
BYBLOCK
 62
     0
 10
285.174251
 20
34.101194
 30
0.0
 11
285.024251
 21
34.101194
 31
0.0
  0
LINE
  8
0
  6
BYBLOCK
 62
     0
 10
286.174251
 20
34.101194
 30
0.0
 11
286.324251
 21
34.101194
 31
0.0
  0
SOLID
  8
0
  6
BYBLOCK
 62
     0
 10
285.174251
 20
34.126194
 30
0.0
 11
285.174251
 21
34.076194
 31
0.0
 12
285.324251
 22
34.101194
 32
0.0
 13
285.324251
 23
34.101194
 33
0.0
  0
SOLID
  8
0
  6
BYBLOCK
 62
     0
 10
286.174251
 20
34.126194
 30
0.0
 11
286.174251
 21
34.076194
 31
0.0
 12
286.024251
 22
34.101194
 32
0.0
 13
286.024251
 23
34.101194
 33
0.0
  0
LINE
  8
0
  6
BYBLOCK
 62
     0
 10
285.324251
 20
34.101194
 30
0.0
 11
286.024251
 21
34.101194
 31
0.0
  0
TEXT
  8
0
  6
BYBLOCK
 62
     0
 10
285.549251
 20
34.138694
 30
0.0
 40
0.075
  1
0.70
  7
ROMANC
 72
     1
 11
285.674251
 21
34.176194
 31
0.0
 73
     2
  0
POINT
  8
DEFPOINTS
  6
BYBLOCK
 62
     0
 10
285.324251
 20
34.724796
 30
0.0
  0
POINT
  8
DEFPOINTS
  6
BYBLOCK
 62
     0
 10
286.024251
 20
34.724796
 30
0.0
  0
POINT
  8
DEFPOINTS
  6
BYBLOCK
 62
     0
 10
286.024251
 20
34.101194
 30
0.0
  0
ENDBLK
  8
0
  0
BLOCK
  8
0
  2
*D15
 70
    65
 10
0.0
 20
0.0
 30
0.0
  3
*D
  0
LINE
  8
0
  6
BYBLOCK
 62
     0
 10
286.024251
 20
34.709796
 30
0.0
 11
286.024251
 21
34.086194
 31
0.0
  0
LINE
  8
0
  6
BYBLOCK
 62
     0
 10
286.324251
 20
34.709796
 30
0.0
 11
286.324251
 21
34.086194
 31
0.0
  0
LINE
  8
0
  6
BYBLOCK
 62
     0
 10
285.874251
 20
34.101194
 30
0.0
 11
285.724251
 21
34.101194
 31
0.0
  0
LINE
  8
0
  6
BYBLOCK
 62
     0
 10
286.474251
 20
34.101194
 30
0.0
 11
286.624251
 21
34.101194
 31
0.0
  0
SOLID
  8
0
  6
BYBLOCK
 62
     0
 10
285.874251
 20
34.126194
 30
0.0
 11
285.874251
 21
34.076194
 31
0.0
 12
286.024251
 22
34.101194
 32
0.0
 13
286.024251
 23
34.101194
 33
0.0
  0
SOLID
  8
0
  6
BYBLOCK
 62
     0
 10
286.474251
 20
34.126194
 30
0.0
 11
286.474251
 21
34.076194
 31
0.0
 12
286.324251
 22
34.101194
 32
0.0
 13
286.324251
 23
34.101194
 33
0.0
  0
LINE
  8
0
  6
BYBLOCK
 62
     0
 10
286.024251
 20
34.101194
 30
0.0
 11
286.324251
 21
34.101194
 31
0.0
  0
TEXT
  8
0
  6
BYBLOCK
 62
     0
 10
286.049251
 20
34.138694
 30
0.0
 40
0.075
  1
0.30
  7
ROMANC
 72
     1
 11
286.174251
 21
34.176194
 31
0.0
 73
     2
  0
POINT
  8
DEFPOINTS
  6
BYBLOCK
 62
     0
 10
286.024251
 20
34.724796
 30
0.0
  0
POINT
  8
DEFPOINTS
  6
BYBLOCK
 62
     0
 10
286.324251
 20
34.724796
 30
0.0
  0
POINT
  8
DEFPOINTS
  6
BYBLOCK
 62
     0
 10
286.324251
 20
34.101194
 30
0.0
  0
ENDBLK
  8
0
  0
BLOCK
  8
0
  2
*D16
 70
    65
 10
0.0
 20
0.0
 30
0.0
  3
*D
  0
LINE
  8
0
  6
BYBLOCK
 62
     0
 10
286.324251
 20
34.709796
 30
0.0
 11
286.324251
 21
33.792194
 31
0.0
  0
LINE
  8
0
  6
BYBLOCK
 62
     0
 10
284.724251
 20
34.709796
 30
0.0
 11
284.724251
 21
33.792194
 31
0.0
  0
LINE
  8
0
  6
BYBLOCK
 62
     0
 10
286.174251
 20
33.807194
 30
0.0
 11
284.874251
 21
33.807194
 31
0.0
  0
SOLID
  8
0
  6
BYBLOCK
 62
     0
 10
286.174251
 20
33.832194
 30
0.0
 11
286.174251
 21
33.782194
 31
0.0
 12
286.324251
 22
33.807194
 32
0.0
 13
286.324251
 23
33.807194
 33
0.0
  0
SOLID
  8
0
  6
BYBLOCK
 62
     0
 10
284.874251
 20
33.832194
 30
0.0
 11
284.874251
 21
33.782194
 31
0.0
 12
284.724251
 22
33.807194
 32
0.0
 13
284.724251
 23
33.807194
 33
0.0
  0
TEXT
  8
0
  6
BYBLOCK
 62
     0
 10
285.393893
 20
33.844694
 30
0.0
 40
0.075
  1
1.60
  7
ROMANC
 72
     1
 11
285.524251
 21
33.882194
 31
0.0
 73
     2
  0
POINT
  8
DEFPOINTS
  6
BYBLOCK
 62
     0
 10
286.324251
 20
34.724796
 30
0.0
  0
POINT
  8
DEFPOINTS
  6
BYBLOCK
 62
     0
 10
284.724251
 20
34.724796
 30
0.0
  0
POINT
  8
DEFPOINTS
  6
BYBLOCK
 62
     0
 10
284.724251
 20
33.807194
 30
0.0
  0
ENDBLK
  8
0
  0
BLOCK
  8
0
  2
*D17
 70
    65
 10
0.0
 20
0.0
 30
0.0
  3
*D
  0
LINE
  8
0
  6
BYBLOCK
 62
     0
 10
284.724251
 20
35.659796
 30
0.0
 11
284.724251
 21
35.659796
 31
0.0
  0
LINE
  8
0
  6
BYBLOCK
 62
     0
 10
286.324251
 20
35.689796
 30
0.0
 11
286.324251
 21
35.689796
 31
0.0
  0
LINE
  8
0
  6
BYBLOCK
 62
     0
 10
284.874251
 20
35.674796
 30
0.0
 11
286.174251
 21
35.674796
 31
0.0
  0
SOLID
  8
0
  6
BYBLOCK
 62
     0
 10
284.874251
 20
35.699796
 30
0.0
 11
284.874251
 21
35.649796
 31
0.0
 12
284.724251
 22
35.674796
 32
0.0
 13
284.724251
 23
35.674796
 33
0.0
  0
SOLID
  8
0
  6
BYBLOCK
 62
     0
 10
286.174251
 20
35.699796
 30
0.0
 11
286.174251
 21
35.649796
 31
0.0
 12
286.324251
 22
35.674796
 32
0.0
 13
286.324251
 23
35.674796
 33
0.0
  0
TEXT
  8
0
  6
BYBLOCK
 62
     0
 10
285.393893
 20
35.712296
 30
0.0
 40
0.075
  1
1.60
  7
ROMANC
 72
     1
 11
285.524251
 21
35.749796
 31
0.0
 73
     2
  0
POINT
  8
DEFPOINTS
  6
BYBLOCK
 62
     0
 10
284.724251
 20
35.674796
 30
0.0
  0
POINT
  8
DEFPOINTS
  6
BYBLOCK
 62
     0
 10
286.324251
 20
35.674796
 30
0.0
  0
POINT
  8
DEFPOINTS
  6
BYBLOCK
 62
     0
 10
286.324251
 20
35.674796
 30
0.0
  0
ENDBLK
  8
0
  0
BLOCK
  8
0
  2
*D18
 70
    65
 10
0.0
 20
0.0
 30
0.0
  3
*D
  0
LINE
  8
0
  6
BYBLOCK
 62
     0
 10
285.689251
 20
34.324796
 30
0.0
 11
286.677885
 21
34.324796
 31
0.0
  0
LINE
  8
0
  6
BYBLOCK
 62
     0
 10
286.039251
 20
34.724796
 30
0.0
 11
286.677885
 21
34.724796
 31
0.0
  0
LINE
  8
0
  6
BYBLOCK
 62
     0
 10
286.662885
 20
34.174796
 30
0.0
 11
286.662885
 21
34.024796
 31
0.0
  0
LINE
  8
0
  6
BYBLOCK
 62
     0
 10
286.662885
 20
34.874796
 30
0.0
 11
286.662885
 21
35.024796
 31
0.0
  0
SOLID
  8
0
  6
BYBLOCK
 62
     0
 10
286.637885
 20
34.174796
 30
0.0
 11
286.687885
 21
34.174796
 31
0.0
 12
286.662885
 22
34.324796
 32
0.0
 13
286.662885
 23
34.324796
 33
0.0
  0
SOLID
  8
0
  6
BYBLOCK
 62
     0
 10
286.637885
 20
34.874796
 30
0.0
 11
286.687885
 21
34.874796
 31
0.0
 12
286.662885
 22
34.724796
 32
0.0
 13
286.662885
 23
34.724796
 33
0.0
  0
LINE
  8
0
  6
BYBLOCK
 62
     0
 10
286.662885
 20
34.324796
 30
0.0
 11
286.662885
 21
34.724796
 31
0.0
  0
TEXT
  8
0
  6
BYBLOCK
 62
     0
 10
286.625385
 20
34.399796
 30
0.0
 40
0.075
  1
0.40
 50
90.0
  7
ROMANC
 72
     1
 11
286.587885
 21
34.524796
 31
0.0
 73
     2
  0
POINT
  8
DEFPOINTS
  6
BYBLOCK
 62
     0
 10
285.674251
 20
34.324796
 30
0.0
  0
POINT
  8
DEFPOINTS
  6
BYBLOCK
 62
     0
 10
286.024251
 20
34.724796
 30
0.0
  0
POINT
  8
DEFPOINTS
  6
BYBLOCK
 62
     0
 10
286.662885
 20
34.724796
 30
0.0
  0
ENDBLK
  8
0
  0
BLOCK
  8
0
  2
*D19
 70
    65
 10
0.0
 20
0.0
 30
0.0
  3
*D
  0
LINE
  8
0
  6
BYBLOCK
 62
     0
 10
286.339251
 20
34.724796
 30
0.0
 11
286.677885
 21
34.724796
 31
0.0
  0
LINE
  8
0
  6
BYBLOCK
 62
     0
 10
286.339251
 20
35.674796
 30
0.0
 11
286.677885
 21
35.674796
 31
0.0
  0
LINE
  8
0
  6
BYBLOCK
 62
     0
 10
286.662885
 20
34.874796
 30
0.0
 11
286.662885
 21
35.524796
 31
0.0
  0
SOLID
  8
0
  6
BYBLOCK
 62
     0
 10
286.637885
 20
34.874796
 30
0.0
 11
286.687885
 21
34.874796
 31
0.0
 12
286.662885
 22
34.724796
 32
0.0
 13
286.662885
 23
34.724796
 33
0.0
  0
SOLID
  8
0
  6
BYBLOCK
 62
     0
 10
286.637885
 20
35.524796
 30
0.0
 11
286.687885
 21
35.524796
 31
0.0
 12
286.662885
 22
35.674796
 32
0.0
 13
286.662885
 23
35.674796
 33
0.0
  0
TEXT
  8
0
  6
BYBLOCK
 62
     0
 10
286.625385
 20
35.074796
 30
0.0
 40
0.075
  1
0.95
 50
90.0
  7
ROMANC
 72
     1
 11
286.587885
 21
35.199796
 31
0.0
 73
     2
  0
POINT
  8
DEFPOINTS
  6
BYBLOCK
 62
     0
 10
286.324251
 20
34.724796
 30
0.0
  0
POINT
  8
DEFPOINTS
  6
BYBLOCK
 62
     0
 10
286.324251
 20
35.674796
 30
0.0
  0
POINT
  8
DEFPOINTS
  6
BYBLOCK
 62
     0
 10
286.662885
 20
35.674796
 30
0.0
  0
ENDBLK
  8
0
  0
BLOCK
  8
0
  2
*D20
 70
    65
 10
0.0
 20
0.0
 30
0.0
  3
*D
  0
LINE
  8
0
  6
BYBLOCK
 62
     0
 10
285.689251
 20
34.324796
 30
0.0
 11
287.074099
 21
34.324796
 31
0.0
  0
LINE
  8
0
  6
BYBLOCK
 62
     0
 10
285.539251
 20
36.774796
 30
0.0
 11
287.074099
 21
36.774796
 31
0.0
  0
LINE
  8
0
  6
BYBLOCK
 62
     0
 10
287.059099
 20
34.474796
 30
0.0
 11
287.059099
 21
36.624796
 31
0.0
  0
SOLID
  8
0
  6
BYBLOCK
 62
     0
 10
287.034099
 20
34.474796
 30
0.0
 11
287.084099
 21
34.474796
 31
0.0
 12
287.059099
 22
34.324796
 32
0.0
 13
287.059099
 23
34.324796
 33
0.0
  0
SOLID
  8
0
  6
BYBLOCK
 62
     0
 10
287.034099
 20
36.624796
 30
0.0
 11
287.084099
 21
36.624796
 31
0.0
 12
287.059099
 22
36.774796
 32
0.0
 13
287.059099
 23
36.774796
 33
0.0
  0
TEXT
  8
0
  6
BYBLOCK
 62
     0
 10
287.021599
 20
35.424796
 30
0.0
 40
0.075
  1
2.45
 50
90.0
  7
ROMANC
 72
     1
 11
286.984099
 21
35.549796
 31
0.0
 73
     2
  0
POINT
  8
DEFPOINTS
  6
BYBLOCK
 62
     0
 10
285.674251
 20
34.324796
 30
0.0
  0
POINT
  8
DEFPOINTS
  6
BYBLOCK
 62
     0
 10
285.524251
 20
36.774796
 30
0.0
  0
POINT
  8
DEFPOINTS
  6
BYBLOCK
 62
     0
 10
287.059099
 20
36.774796
 30
0.0
  0
ENDBLK
  8
0
  0
BLOCK
  8
0
  2
*D21
 70
    65
 10
0.0
 20
0.0
 30
0.0
  3
*D
  0
LINE
  8
0
  6
BYBLOCK
 62
     0
 10
284.725545
 20
35.553125
 30
0.0
 11
284.725545
 21
35.248887
 31
0.0
  0
LINE
  8
0
  6
BYBLOCK
 62
     0
 10
284.925545
 20
35.553125
 30
0.0
 11
284.925545
 21
35.248887
 31
0.0
  0
LINE
  8
0
  6
BYBLOCK
 62
     0
 10
284.575545
 20
35.263887
 30
0.0
 11
284.425545
 21
35.263887
 31
0.0
  0
LINE
  8
0
  6
BYBLOCK
 62
     0
 10
285.075545
 20
35.263887
 30
0.0
 11
285.225545
 21
35.263887
 31
0.0
  0
SOLID
  8
0
  6
BYBLOCK
 62
     0
 10
284.575545
 20
35.288887
 30
0.0
 11
284.575545
 21
35.238887
 31
0.0
 12
284.725545
 22
35.263887
 32
0.0
 13
284.725545
 23
35.263887
 33
0.0
  0
SOLID
  8
0
  6
BYBLOCK
 62
     0
 10
285.075545
 20
35.288887
 30
0.0
 11
285.075545
 21
35.238887
 31
0.0
 12
284.925545
 22
35.263887
 32
0.0
 13
284.925545
 23
35.263887
 33
0.0
  0
LINE
  8
0
  6
BYBLOCK
 62
     0
 10
284.725545
 20
35.263887
 30
0.0
 11
284.925545
 21
35.263887
 31
0.0
  0
TEXT
  8
0
  6
BYBLOCK
 62
     0
 10
284.700545
 20
35.301387
 30
0.0
 40
0.075
  1
0.20
  7
ROMANC
 72
     1
 11
284.825545
 21
35.338887
 31
0.0
 73
     2
  0
POINT
  8
DEFPOINTS
  6
BYBLOCK
 62
     0
 10
284.725545
 20
35.568125
 30
0.0
  0
POINT
  8
DEFPOINTS
  6
BYBLOCK
 62
     0
 10
284.925545
 20
35.568125
 30
0.0
  0
POINT
  8
DEFPOINTS
  6
BYBLOCK
 62
     0
 10
284.925545
 20
35.263887
 30
0.0
  0
ENDBLK
  8
0
  0
BLOCK
  8
0
  2
*D22
 70
    65
 10
0.0
 20
0.0
 30
0.0
  3
*D
  0
LINE
  8
0
  6
BYBLOCK
 62
     0
 10
284.725545
 20
35.553125
 30
0.0
 11
284.725545
 21
35.196727
 31
0.0
  0
LINE
  8
0
  6
BYBLOCK
 62
     0
 10
284.925545
 20
35.553125
 30
0.0
 11
284.925545
 21
35.196727
 31
0.0
  0
LINE
  8
0
  6
BYBLOCK
 62
     0
 10
284.575545
 20
35.211727
 30
0.0
 11
284.425545
 21
35.211727
 31
0.0
  0
LINE
  8
0
  6
BYBLOCK
 62
     0
 10
285.075545
 20
35.211727
 30
0.0
 11
285.225545
 21
35.211727
 31
0.0
  0
SOLID
  8
0
  6
BYBLOCK
 62
     0
 10
284.575545
 20
35.236727
 30
0.0
 11
284.575545
 21
35.186727
 31
0.0
 12
284.725545
 22
35.211727
 32
0.0
 13
284.725545
 23
35.211727
 33
0.0
  0
SOLID
  8
0
  6
BYBLOCK
 62
     0
 10
285.075545
 20
35.236727
 30
0.0
 11
285.075545
 21
35.186727
 31
0.0
 12
284.925545
 22
35.211727
 32
0.0
 13
284.925545
 23
35.211727
 33
0.0
  0
LINE
  8
0
  6
BYBLOCK
 62
     0
 10
284.725545
 20
35.211727
 30
0.0
 11
284.925545
 21
35.211727
 31
0.0
  0
TEXT
  8
0
  6
BYBLOCK
 62
     0
 10
284.700545
 20
35.249227
 30
0.0
 40
0.075
  1
0.20
  7
ROMANC
 72
     1
 11
284.825545
 21
35.286727
 31
0.0
 73
     2
  0
POINT
  8
DEFPOINTS
  6
BYBLOCK
 62
     0
 10
284.725545
 20
35.568125
 30
0.0
  0
POINT
  8
DEFPOINTS
  6
BYBLOCK
 62
     0
 10
284.925545
 20
35.568125
 30
0.0
  0
POINT
  8
DEFPOINTS
  6
BYBLOCK
 62
     0
 10
284.925545
 20
35.211727
 30
0.0
  0
ENDBLK
  8
0
  0
BLOCK
  8
0
  2
*D23
 70
    65
 10
0.0
 20
0.0
 30
0.0
  3
*D
  0
LINE
  8
0
  6
BYBLOCK
 62
     0
 10
284.725545
 20
35.553125
 30
0.0
 11
284.725545
 21
35.196727
 31
0.0
  0
LINE
  8
0
  6
BYBLOCK
 62
     0
 10
284.925545
 20
35.553125
 30
0.0
 11
284.925545
 21
35.196727
 31
0.0
  0
LINE
  8
0
  6
BYBLOCK
 62
     0
 10
284.575545
 20
35.211727
 30
0.0
 11
284.425545
 21
35.211727
 31
0.0
  0
LINE
  8
0
  6
BYBLOCK
 62
     0
 10
285.075545
 20
35.211727
 30
0.0
 11
285.225545
 21
35.211727
 31
0.0
  0
SOLID
  8
0
  6
BYBLOCK
 62
     0
 10
284.575545
 20
35.236727
 30
0.0
 11
284.575545
 21
35.186727
 31
0.0
 12
284.725545
 22
35.211727
 32
0.0
 13
284.725545
 23
35.211727
 33
0.0
  0
SOLID
  8
0
  6
BYBLOCK
 62
     0
 10
285.075545
 20
35.236727
 30
0.0
 11
285.075545
 21
35.186727
 31
0.0
 12
284.925545
 22
35.211727
 32
0.0
 13
284.925545
 23
35.211727
 33
0.0
  0
LINE
  8
0
  6
BYBLOCK
 62
     0
 10
284.725545
 20
35.211727
 30
0.0
 11
284.925545
 21
35.211727
 31
0.0
  0
TEXT
  8
0
  6
BYBLOCK
 62
     0
 10
284.458489
 20
35.249227
 30
0.0
 40
0.075
  1
0.20
  7
ROMANC
 72
     1
 11
284.583489
 21
35.286727
 31
0.0
 73
     2
  0
POINT
  8
DEFPOINTS
  6
BYBLOCK
 62
     0
 10
284.725545
 20
35.568125
 30
0.0
  0
POINT
  8
DEFPOINTS
  6
BYBLOCK
 62
     0
 10
284.925545
 20
35.568125
 30
0.0
  0
POINT
  8
DEFPOINTS
  6
BYBLOCK
 62
     0
 10
284.925545
 20
35.211727
 30
0.0
  0
ENDBLK
  8
0
  0
BLOCK
  8
0
  2
*D24
 70
    65
 10
0.0
 20
0.0
 30
0.0
  3
*D
  0
LINE
  8
0
  6
BYBLOCK
 62
     0
 10
284.925545
 20
35.553125
 30
0.0
 11
284.925545
 21
35.196727
 31
0.0
  0
LINE
  8
0
  6
BYBLOCK
 62
     0
 10
285.325545
 20
35.553125
 30
0.0
 11
285.325545
 21
35.196727
 31
0.0
  0
LINE
  8
0
  6
BYBLOCK
 62
     0
 10
284.775545
 20
35.211727
 30
0.0
 11
284.625545
 21
35.211727
 31
0.0
  0
LINE
  8
0
  6
BYBLOCK
 62
     0
 10
285.475545
 20
35.211727
 30
0.0
 11
285.625545
 21
35.211727
 31
0.0
  0
SOLID
  8
0
  6
BYBLOCK
 62
     0
 10
284.775545
 20
35.236727
 30
0.0
 11
284.775545
 21
35.186727
 31
0.0
 12
284.925545
 22
35.211727
 32
0.0
 13
284.925545
 23
35.211727
 33
0.0
  0
SOLID
  8
0
  6
BYBLOCK
 62
     0
 10
285.475545
 20
35.236727
 30
0.0
 11
285.475545
 21
35.186727
 31
0.0
 12
285.325545
 22
35.211727
 32
0.0
 13
285.325545
 23
35.211727
 33
0.0
  0
LINE
  8
0
  6
BYBLOCK
 62
     0
 10
284.925545
 20
35.211727
 30
0.0
 11
285.325545
 21
35.211727
 31
0.0
  0
TEXT
  8
0
  6
BYBLOCK
 62
     0
 10
285.000545
 20
35.249227
 30
0.0
 40
0.075
  1
0.40
  7
ROMANC
 72
     1
 11
285.125545
 21
35.286727
 31
0.0
 73
     2
  0
POINT
  8
DEFPOINTS
  6
BYBLOCK
 62
     0
 10
284.925545
 20
35.568125
 30
0.0
  0
POINT
  8
DEFPOINTS
  6
BYBLOCK
 62
     0
 10
285.325545
 20
35.568125
 30
0.0
  0
POINT
  8
DEFPOINTS
  6
BYBLOCK
 62
     0
 10
285.325545
 20
35.211727
 30
0.0
  0
ENDBLK
  8
0
  0
BLOCK
  8
0
  2
*D25
 70
    65
 10
0.0
 20
0.0
 30
0.0
  3
*D
  0
LINE
  8
0
  6
BYBLOCK
 62
     0
 10
285.325545
 20
35.553125
 30
0.0
 11
285.325545
 21
35.196727
 31
0.0
  0
LINE
  8
0
  6
BYBLOCK
 62
     0
 10
285.525545
 20
35.553125
 30
0.0
 11
285.525545
 21
35.196727
 31
0.0
  0
LINE
  8
0
  6
BYBLOCK
 62
     0
 10
285.175545
 20
35.211727
 30
0.0
 11
285.025545
 21
35.211727
 31
0.0
  0
LINE
  8
0
  6
BYBLOCK
 62
     0
 10
285.675545
 20
35.211727
 30
0.0
 11
285.825545
 21
35.211727
 31
0.0
  0
SOLID
  8
0
  6
BYBLOCK
 62
     0
 10
285.175545
 20
35.236727
 30
0.0
 11
285.175545
 21
35.186727
 31
0.0
 12
285.325545
 22
35.211727
 32
0.0
 13
285.325545
 23
35.211727
 33
0.0
  0
SOLID
  8
0
  6
BYBLOCK
 62
     0
 10
285.675545
 20
35.236727
 30
0.0
 11
285.675545
 21
35.186727
 31
0.0
 12
285.525545
 22
35.211727
 32
0.0
 13
285.525545
 23
35.211727
 33
0.0
  0
LINE
  8
0
  6
BYBLOCK
 62
     0
 10
285.325545
 20
35.211727
 30
0.0
 11
285.525545
 21
35.211727
 31
0.0
  0
TEXT
  8
0
  6
BYBLOCK
 62
     0
 10
285.300545
 20
35.249227
 30
0.0
 40
0.075
  1
0.20
  7
ROMANC
 72
     1
 11
285.425545
 21
35.286727
 31
0.0
 73
     2
  0
POINT
  8
DEFPOINTS
  6
BYBLOCK
 62
     0
 10
285.325545
 20
35.568125
 30
0.0
  0
POINT
  8
DEFPOINTS
  6
BYBLOCK
 62
     0
 10
285.525545
 20
35.568125
 30
0.0
  0
POINT
  8
DEFPOINTS
  6
BYBLOCK
 62
     0
 10
285.525545
 20
35.211727
 30
0.0
  0
ENDBLK
  8
0
  0
BLOCK
  8
0
  2
*D26
 70
    65
 10
0.0
 20
0.0
 30
0.0
  3
*D
  0
LINE
  8
0
  6
BYBLOCK
 62
     0
 10
285.325545
 20
35.553125
 30
0.0
 11
285.325545
 21
35.196727
 31
0.0
  0
LINE
  8
0
  6
BYBLOCK
 62
     0
 10
285.525545
 20
35.553125
 30
0.0
 11
285.525545
 21
35.196727
 31
0.0
  0
LINE
  8
0
  6
BYBLOCK
 62
     0
 10
285.175545
 20
35.211727
 30
0.0
 11
285.025545
 21
35.211727
 31
0.0
  0
LINE
  8
0
  6
BYBLOCK
 62
     0
 10
285.675545
 20
35.211727
 30
0.0
 11
285.825545
 21
35.211727
 31
0.0
  0
SOLID
  8
0
  6
BYBLOCK
 62
     0
 10
285.175545
 20
35.236727
 30
0.0
 11
285.175545
 21
35.186727
 31
0.0
 12
285.325545
 22
35.211727
 32
0.0
 13
285.325545
 23
35.211727
 33
0.0
  0
SOLID
  8
0
  6
BYBLOCK
 62
     0
 10
285.675545
 20
35.236727
 30
0.0
 11
285.675545
 21
35.186727
 31
0.0
 12
285.525545
 22
35.211727
 32
0.0
 13
285.525545
 23
35.211727
 33
0.0
  0
LINE
  8
0
  6
BYBLOCK
 62
     0
 10
285.325545
 20
35.211727
 30
0.0
 11
285.525545
 21
35.211727
 31
0.0
  0
TEXT
  8
0
  6
BYBLOCK
 62
     0
 10
285.562485
 20
35.249227
 30
0.0
 40
0.075
  1
0.20
  7
ROMANC
 72
     1
 11
285.687485
 21
35.286727
 31
0.0
 73
     2
  0
POINT
  8
DEFPOINTS
  6
BYBLOCK
 62
     0
 10
285.325545
 20
35.568125
 30
0.0
  0
POINT
  8
DEFPOINTS
  6
BYBLOCK
 62
     0
 10
285.525545
 20
35.568125
 30
0.0
  0
POINT
  8
DEFPOINTS
  6
BYBLOCK
 62
     0
 10
285.525545
 20
35.211727
 30
0.0
  0
ENDBLK
  8
0
  0
BLOCK
  8
0
  2
*D27
 70
    65
 10
0.0
 20
0.0
 30
0.0
  3
*D
  0
LINE
  8
0
  6
BYBLOCK
 62
     0
 10
284.725545
 20
35.553125
 30
0.0
 11
284.725545
 21
34.943948
 31
0.0
  0
LINE
  8
0
  6
BYBLOCK
 62
     0
 10
285.525545
 20
35.553125
 30
0.0
 11
285.525545
 21
34.943948
 31
0.0
  0
LINE
  8
0
  6
BYBLOCK
 62
     0
 10
284.875545
 20
34.958948
 30
0.0
 11
285.375545
 21
34.958948
 31
0.0
  0
SOLID
  8
0
  6
BYBLOCK
 62
     0
 10
284.875545
 20
34.983948
 30
0.0
 11
284.875545
 21
34.933948
 31
0.0
 12
284.725545
 22
34.958948
 32
0.0
 13
284.725545
 23
34.958948
 33
0.0
  0
SOLID
  8
0
  6
BYBLOCK
 62
     0
 10
285.375545
 20
34.983948
 30
0.0
 11
285.375545
 21
34.933948
 31
0.0
 12
285.525545
 22
34.958948
 32
0.0
 13
285.525545
 23
34.958948
 33
0.0
  0
TEXT
  8
0
  6
BYBLOCK
 62
     0
 10
285.000545
 20
34.996448
 30
0.0
 40
0.075
  1
0.80
  7
ROMANC
 72
     1
 11
285.125545
 21
35.033948
 31
0.0
 73
     2
  0
POINT
  8
DEFPOINTS
  6
BYBLOCK
 62
     0
 10
284.725545
 20
35.568125
 30
0.0
  0
POINT
  8
DEFPOINTS
  6
BYBLOCK
 62
     0
 10
285.525545
 20
35.568125
 30
0.0
  0
POINT
  8
DEFPOINTS
  6
BYBLOCK
 62
     0
 10
285.525545
 20
34.958948
 30
0.0
  0
ENDBLK
  8
0
  0
BLOCK
  8
0
  2
*D28
 70
    65
 10
0.0
 20
0.0
 30
0.0
  3
*D
  0
LINE
  8
0
  6
BYBLOCK
 62
     0
 10
285.140545
 20
35.418125
 30
0.0
 11
286.035691
 21
35.418125
 31
0.0
  0
LINE
  8
0
  6
BYBLOCK
 62
     0
 10
285.340545
 20
35.568125
 30
0.0
 11
286.035691
 21
35.568125
 31
0.0
  0
LINE
  8
0
  6
BYBLOCK
 62
     0
 10
286.020691
 20
35.268125
 30
0.0
 11
286.020691
 21
35.118125
 31
0.0
  0
LINE
  8
0
  6
BYBLOCK
 62
     0
 10
286.020691
 20
35.718125
 30
0.0
 11
286.020691
 21
35.868125
 31
0.0
  0
SOLID
  8
0
  6
BYBLOCK
 62
     0
 10
285.995691
 20
35.268125
 30
0.0
 11
286.045691
 21
35.268125
 31
0.0
 12
286.020691
 22
35.418125
 32
0.0
 13
286.020691
 23
35.418125
 33
0.0
  0
SOLID
  8
0
  6
BYBLOCK
 62
     0
 10
285.995691
 20
35.718125
 30
0.0
 11
286.045691
 21
35.718125
 31
0.0
 12
286.020691
 22
35.568125
 32
0.0
 13
286.020691
 23
35.568125
 33
0.0
  0
LINE
  8
0
  6
BYBLOCK
 62
     0
 10
286.020691
 20
35.418125
 30
0.0
 11
286.020691
 21
35.568125
 31
0.0
  0
TEXT
  8
0
  6
BYBLOCK
 62
     0
 10
285.983191
 20
35.368125
 30
0.0
 40
0.075
  1
0.15
 50
90.0
  7
ROMANC
 72
     1
 11
285.945691
 21
35.493125
 31
0.0
 73
     2
  0
POINT
  8
DEFPOINTS
  6
BYBLOCK
 62
     0
 10
285.125545
 20
35.418125
 30
0.0
  0
POINT
  8
DEFPOINTS
  6
BYBLOCK
 62
     0
 10
285.325545
 20
35.568125
 30
0.0
  0
POINT
  8
DEFPOINTS
  6
BYBLOCK
 62
     0
 10
286.020691
 20
35.568125
 30
0.0
  0
ENDBLK
  8
0
  0
BLOCK
  8
0
  2
*D29
 70
    65
 10
0.0
 20
0.0
 30
0.0
  3
*D
  0
LINE
  8
0
  6
BYBLOCK
 62
     0
 10
285.140545
 20
35.418125
 30
0.0
 11
286.035691
 21
35.418125
 31
0.0
  0
LINE
  8
0
  6
BYBLOCK
 62
     0
 10
285.340545
 20
35.568125
 30
0.0
 11
286.035691
 21
35.568125
 31
0.0
  0
LINE
  8
0
  6
BYBLOCK
 62
     0
 10
286.020691
 20
35.268125
 30
0.0
 11
286.020691
 21
35.118125
 31
0.0
  0
LINE
  8
0
  6
BYBLOCK
 62
     0
 10
286.020691
 20
35.718125
 30
0.0
 11
286.020691
 21
35.868125
 31
0.0
  0
SOLID
  8
0
  6
BYBLOCK
 62
     0
 10
285.995691
 20
35.268125
 30
0.0
 11
286.045691
 21
35.268125
 31
0.0
 12
286.020691
 22
35.418125
 32
0.0
 13
286.020691
 23
35.418125
 33
0.0
  0
SOLID
  8
0
  6
BYBLOCK
 62
     0
 10
285.995691
 20
35.718125
 30
0.0
 11
286.045691
 21
35.718125
 31
0.0
 12
286.020691
 22
35.568125
 32
0.0
 13
286.020691
 23
35.568125
 33
0.0
  0
LINE
  8
0
  6
BYBLOCK
 62
     0
 10
286.020691
 20
35.418125
 30
0.0
 11
286.020691
 21
35.568125
 31
0.0
  0
TEXT
  8
0
  6
BYBLOCK
 62
     0
 10
285.983191
 20
35.106788
 30
0.0
 40
0.075
  1
0.15
 50
90.0
  7
ROMANC
 72
     1
 11
285.945691
 21
35.231788
 31
0.0
 73
     2
  0
POINT
  8
DEFPOINTS
  6
BYBLOCK
 62
     0
 10
285.125545
 20
35.418125
 30
0.0
  0
POINT
  8
DEFPOINTS
  6
BYBLOCK
 62
     0
 10
285.325545
 20
35.568125
 30
0.0
  0
POINT
  8
DEFPOINTS
  6
BYBLOCK
 62
     0
 10
286.020691
 20
35.568125
 30
0.0
  0
ENDBLK
  8
0
  0
BLOCK
  8
0
  2
*D30
 70
    65
 10
0.0
 20
0.0
 30
0.0
  3
*D
  0
LINE
  8
0
  6
BYBLOCK
 62
     0
 10
285.540545
 20
35.568125
 30
0.0
 11
286.035691
 21
35.568125
 31
0.0
  0
LINE
  8
0
  6
BYBLOCK
 62
     0
 10
285.640545
 20
36.318125
 30
0.0
 11
286.035691
 21
36.318125
 31
0.0
  0
LINE
  8
0
  6
BYBLOCK
 62
     0
 10
286.020691
 20
35.418125
 30
0.0
 11
286.020691
 21
35.268125
 31
0.0
  0
LINE
  8
0
  6
BYBLOCK
 62
     0
 10
286.020691
 20
36.468125
 30
0.0
 11
286.020691
 21
36.618125
 31
0.0
  0
SOLID
  8
0
  6
BYBLOCK
 62
     0
 10
285.995691
 20
35.418125
 30
0.0
 11
286.045691
 21
35.418125
 31
0.0
 12
286.020691
 22
35.568125
 32
0.0
 13
286.020691
 23
35.568125
 33
0.0
  0
SOLID
  8
0
  6
BYBLOCK
 62
     0
 10
285.995691
 20
36.468125
 30
0.0
 11
286.045691
 21
36.468125
 31
0.0
 12
286.020691
 22
36.318125
 32
0.0
 13
286.020691
 23
36.318125
 33
0.0
  0
LINE
  8
0
  6
BYBLOCK
 62
     0
 10
286.020691
 20
35.568125
 30
0.0
 11
286.020691
 21
36.318125
 31
0.0
  0
TEXT
  8
0
  6
BYBLOCK
 62
     0
 10
285.983191
 20
35.818125
 30
0.0
 40
0.075
  1
0.75
 50
90.0
  7
ROMANC
 72
     1
 11
285.945691
 21
35.943125
 31
0.0
 73
     2
  0
POINT
  8
DEFPOINTS
  6
BYBLOCK
 62
     0
 10
285.525545
 20
35.568125
 30
0.0
  0
POINT
  8
DEFPOINTS
  6
BYBLOCK
 62
     0
 10
285.625545
 20
36.318125
 30
0.0
  0
POINT
  8
DEFPOINTS
  6
BYBLOCK
 62
     0
 10
286.020691
 20
36.318125
 30
0.0
  0
ENDBLK
  8
0
  0
BLOCK
  8
0
  2
*D31
 70
    65
 10
0.0
 20
0.0
 30
0.0
  3
*D
  0
LINE
  8
0
  6
BYBLOCK
 62
     0
 10
285.140545
 20
35.418125
 30
0.0
 11
286.344809
 21
35.418125
 31
0.0
  0
LINE
  8
0
  6
BYBLOCK
 62
     0
 10
285.140545
 20
36.818125
 30
0.0
 11
286.344809
 21
36.818125
 31
0.0
  0
LINE
  8
0
  6
BYBLOCK
 62
     0
 10
286.329809
 20
35.568125
 30
0.0
 11
286.329809
 21
36.668125
 31
0.0
  0
SOLID
  8
0
  6
BYBLOCK
 62
     0
 10
286.304809
 20
35.568125
 30
0.0
 11
286.354809
 21
35.568125
 31
0.0
 12
286.329809
 22
35.418125
 32
0.0
 13
286.329809
 23
35.418125
 33
0.0
  0
SOLID
  8
0
  6
BYBLOCK
 62
     0
 10
286.304809
 20
36.668125
 30
0.0
 11
286.354809
 21
36.668125
 31
0.0
 12
286.329809
 22
36.818125
 32
0.0
 13
286.329809
 23
36.818125
 33
0.0
  0
TEXT
  8
0
  6
BYBLOCK
 62
     0
 10
286.292309
 20
35.987768
 30
0.0
 40
0.075
  1
1.40
 50
90.0
  7
ROMANC
 72
     1
 11
286.254809
 21
36.118125
 31
0.0
 73
     2
  0
POINT
  8
DEFPOINTS
  6
BYBLOCK
 62
     0
 10
285.125545
 20
35.418125
 30
0.0
  0
POINT
  8
DEFPOINTS
  6
BYBLOCK
 62
     0
 10
285.125545
 20
36.818125
 30
0.0
  0
POINT
  8
DEFPOINTS
  6
BYBLOCK
 62
     0
 10
286.329809
 20
36.818125
 30
0.0
  0
ENDBLK
  8
0
  0
BLOCK
  8
0
  2
*D32
 70
    65
 10
0.0
 20
0.0
 30
0.0
  3
*D
  0
LINE
  8
0
  6
BYBLOCK
 62
     0
 10
284.625545
 20
36.333125
 30
0.0
 11
284.625545
 21
36.333125
 31
0.0
  0
LINE
  8
0
  6
BYBLOCK
 62
     0
 10
285.625545
 20
36.333125
 30
0.0
 11
285.625545
 21
36.333125
 31
0.0
  0
LINE
  8
0
  6
BYBLOCK
 62
     0
 10
284.775545
 20
36.318125
 30
0.0
 11
285.475545
 21
36.318125
 31
0.0
  0
SOLID
  8
0
  6
BYBLOCK
 62
     0
 10
284.775545
 20
36.343125
 30
0.0
 11
284.775545
 21
36.293125
 31
0.0
 12
284.625545
 22
36.318125
 32
0.0
 13
284.625545
 23
36.318125
 33
0.0
  0
SOLID
  8
0
  6
BYBLOCK
 62
     0
 10
285.475545
 20
36.343125
 30
0.0
 11
285.475545
 21
36.293125
 31
0.0
 12
285.625545
 22
36.318125
 32
0.0
 13
285.625545
 23
36.318125
 33
0.0
  0
TEXT
  8
0
  6
BYBLOCK
 62
     0
 10
284.995188
 20
36.355625
 30
0.0
 40
0.075
  1
1.00
  7
ROMANC
 72
     1
 11
285.125545
 21
36.393125
 31
0.0
 73
     2
  0
POINT
  8
DEFPOINTS
  6
BYBLOCK
 62
     0
 10
284.625545
 20
36.318125
 30
0.0
  0
POINT
  8
DEFPOINTS
  6
BYBLOCK
 62
     0
 10
285.625545
 20
36.318125
 30
0.0
  0
POINT
  8
DEFPOINTS
  6
BYBLOCK
 62
     0
 10
285.625545
 20
36.318125
 30
0.0
  0
ENDBLK
  8
0
  0
ENDSEC
  0
SECTION
  2
ENTITIES
  0
LINE
  8
0
 10
291.895795
 20
29.897444
 30
0.0
 11
291.895795
 21
44.747444
 31
0.0
  0
TEXT
  8
0
 10
283.887846
 20
40.56142
 30
0.0
 40
0.3
  1
P = 40.4 dm
  7
ROMANC
  0
LINE
  8
0
 10
281.395795
 20
44.747444
 30
0.0
 11
281.395795
 21
29.897444
 31
0.0
  0
LINE
  8
0
 10
281.395795
 20
29.897444
 30
0.0
 11
291.895795
 21
29.897444
 31
0.0
  0
LINE
  8
0
 10
291.895795
 20
44.747444
 30
0.0
 11
281.395795
 21
44.747444
 31
0.0
  0
TEXT
  8
0
 10
287.122271
 20
41.564915
 30
0.0
 40
0.1
  1
2
  7
ROMANC
  0
TEXT
  8
0
 10
283.925768
 20
41.857589
 30
0.0
 40
0.3
  1
ESCALA  1:50
  7
ROMANC
  0
TEXT
  8
0
 10
283.925768
 20
42.343303
 30
0.0
 40
0.3
  1
TIPUS  NT111A
  7
ROMANC
  0
TEXT
  8
0
 10
283.938862
 20
41.258999
 30
0.0
 40
0.3
  1
S=  111 dm
  7
ROMANC
  0
LINE
  8
0
  6
BYBLOCK
 62
     0
 10
284.625545
 20
36.333125
 30
0.0
 11
284.625545
 21
36.333125
 31
0.0
  0
LINE
  8
0
  6
BYBLOCK
 62
     0
 10
285.625545
 20
36.333125
 30
0.0
 11
285.625545
 21
36.333125
 31
0.0
  0
LINE
  8
0
  6
BYBLOCK
 62
     0
 10
284.775545
 20
36.318125
 30
0.0
 11
285.475545
 21
36.318125
 31
0.0
  0
SOLID
  8
0
  6
BYBLOCK
 62
     0
 10
284.775545
 20
36.343125
 30
0.0
 11
284.775545
 21
36.293125
 31
0.0
 12
284.625545
 22
36.318125
 32
0.0
 13
284.625545
 23
36.318125
 33
0.0
  0
SOLID
  8
0
  6
BYBLOCK
 62
     0
 10
285.475545
 20
36.343125
 30
0.0
 11
285.475545
 21
36.293125
 31
0.0
 12
285.625545
 22
36.318125
 32
0.0
 13
285.625545
 23
36.318125
 33
0.0
  0
TEXT
  8
0
  6
BYBLOCK
 62
     0
 10
284.995188
 20
36.355625
 30
0.0
 40
0.075
  1
1.00
  7
ROMANC
 72
     1
 11
285.125545
 21
36.393125
 31
0.0
 73
     2
  0
POINT
  8
DEFPOINTS
  6
BYBLOCK
 62
     0
 10
284.625545
 20
36.318125
 30
0.0
  0
POINT
  8
DEFPOINTS
  6
BYBLOCK
 62
     0
 10
285.625545
 20
36.318125
 30
0.0
  0
POINT
  8
DEFPOINTS
  6
BYBLOCK
 62
     0
 10
285.625545
 20
36.318125
 30
0.0
  0
LINE
  8
0
 10
284.911421
 20
35.553125
 30
0.0
 11
284.712412
 21
35.553125
 31
0.0
  0
LINE
  8
0
 10
284.712412
 20
35.553125
 30
0.0
 11
284.610546
 21
36.317123
 31
0.0
  0
ARC
  8
0
 10
285.125545
 20
36.318125
 30
0.0
 40
0.515
 50
359.888421
 51
180.111579
  0
LINE
  8
0
 10
285.640544
 20
36.317123
 30
0.0
 11
285.538678
 21
35.553125
 31
0.0
  0
LINE
  8
0
 10
285.538678
 20
35.553125
 30
0.0
 11
285.339669
 21
35.553125
 31
0.0
  0
ARC
  8
0
 10
285.211702
 20
35.568125
 30
0.0
 40
0.128843
 50
331.088799
 51
353.314431
  0
ARC
  8
0
 10
285.170245
 20
35.591021
 30
0.0
 40
0.176203
 50
306.869898
 51
331.088799
  0
ARC
  8
0
 10
285.143204
 20
35.627076
 30
0.0
 40
0.221271
 50
287.257939
 51
306.869898
  0
ARC
  8
0
 10
285.125545
 20
35.683919
 30
0.0
 40
0.280793
 50
270.0
 51
287.257939
  0
ARC
  8
0
 10
285.125545
 20
35.683919
 30
0.0
 40
0.280793
 50
252.742061
 51
270.0
  0
ARC
  8
0
 10
285.107886
 20
35.627076
 30
0.0
 40
0.221271
 50
233.130102
 51
252.742061
  0
ARC
  8
0
 10
285.080845
 20
35.591021
 30
0.0
 40
0.176203
 50
208.911201
 51
233.130102
  0
ARC
  8
0
 10
285.039388
 20
35.568125
 30
0.0
 40
0.128843
 50
186.685568
 51
208.911201
  0
LINE
  8
0
 10
284.918277
 20
35.560625
 30
0.0
 11
284.718979
 21
35.560625
 31
0.0
  0
LINE
  8
0
 10
284.718979
 20
35.560625
 30
0.0
 11
284.618045
 21
36.317626
 31
0.0
  0
ARC
  8
0
 10
285.125545
 20
36.318125
 30
0.0
 40
0.5075
 50
359.943591
 51
180.056409
  0
LINE
  8
0
 10
285.633045
 20
36.317626
 30
0.0
 11
285.532112
 21
35.560625
 31
0.0
  0
LINE
  8
0
 10
285.532112
 20
35.560625
 30
0.0
 11
285.332813
 21
35.560625
 31
0.0
  0
ARC
  8
0
 10
285.211702
 20
35.568125
 30
0.0
 40
0.121343
 50
331.088799
 51
356.456395
  0
ARC
  8
0
 10
285.170245
 20
35.591021
 30
0.0
 40
0.168703
 50
306.869898
 51
331.088799
  0
ARC
  8
0
 10
285.143204
 20
35.627076
 30
0.0
 40
0.213771
 50
287.257939
 51
306.869898
  0
ARC
  8
0
 10
285.125545
 20
35.683919
 30
0.0
 40
0.273293
 50
270.0
 51
287.257939
  0
ARC
  8
0
 10
285.125545
 20
35.683919
 30
0.0
 40
0.273293
 50
252.742061
 51
270.0
  0
ARC
  8
0
 10
285.107886
 20
35.627076
 30
0.0
 40
0.213771
 50
233.130102
 51
252.742061
  0
ARC
  8
0
 10
285.080845
 20
35.591021
 30
0.0
 40
0.168703
 50
208.911201
 51
233.130102
  0
ARC
  8
0
 10
285.039388
 20
35.568125
 30
0.0
 40
0.121343
 50
183.543605
 51
208.911201
  0
LINE
  8
0
  6
BYBLOCK
 62
     0
 10
285.140545
 20
35.418125
 30
0.0
 11
286.344809
 21
35.418125
 31
0.0
  0
LINE
  8
0
  6
BYBLOCK
 62
     0
 10
285.140545
 20
36.818125
 30
0.0
 11
286.344809
 21
36.818125
 31
0.0
  0
LINE
  8
0
  6
BYBLOCK
 62
     0
 10
286.329809
 20
35.568125
 30
0.0
 11
286.329809
 21
36.668125
 31
0.0
  0
SOLID
  8
0
  6
BYBLOCK
 62
     0
 10
286.304809
 20
35.568125
 30
0.0
 11
286.354809
 21
35.568125
 31
0.0
 12
286.329809
 22
35.418125
 32
0.0
 13
286.329809
 23
35.418125
 33
0.0
  0
SOLID
  8
0
  6
BYBLOCK
 62
     0
 10
286.304809
 20
36.668125
 30
0.0
 11
286.354809
 21
36.668125
 31
0.0
 12
286.329809
 22
36.818125
 32
0.0
 13
286.329809
 23
36.818125
 33
0.0
  0
TEXT
  8
0
  6
BYBLOCK
 62
     0
 10
286.292309
 20
35.987768
 30
0.0
 40
0.075
  1
1.40
 50
90.0
  7
ROMANC
 72
     1
 11
286.254809
 21
36.118125
 31
0.0
 73
     2
  0
POINT
  8
DEFPOINTS
  6
BYBLOCK
 62
     0
 10
285.125545
 20
35.418125
 30
0.0
  0
POINT
  8
DEFPOINTS
  6
BYBLOCK
 62
     0
 10
285.125545
 20
36.818125
 30
0.0
  0
POINT
  8
DEFPOINTS
  6
BYBLOCK
 62
     0
 10
286.329809
 20
36.818125
 30
0.0
  0
LINE
  8
0
  6
BYBLOCK
 62
     0
 10
285.540545
 20
35.568125
 30
0.0
 11
286.035691
 21
35.568125
 31
0.0
  0
LINE
  8
0
  6
BYBLOCK
 62
     0
 10
285.640545
 20
36.318125
 30
0.0
 11
286.035691
 21
36.318125
 31
0.0
  0
LINE
  8
0
  6
BYBLOCK
 62
     0
 10
286.020691
 20
35.418125
 30
0.0
 11
286.020691
 21
35.268125
 31
0.0
  0
LINE
  8
0
  6
BYBLOCK
 62
     0
 10
286.020691
 20
36.468125
 30
0.0
 11
286.020691
 21
36.618125
 31
0.0
  0
SOLID
  8
0
  6
BYBLOCK
 62
     0
 10
285.995691
 20
35.418125
 30
0.0
 11
286.045691
 21
35.418125
 31
0.0
 12
286.020691
 22
35.568125
 32
0.0
 13
286.020691
 23
35.568125
 33
0.0
  0
SOLID
  8
0
  6
BYBLOCK
 62
     0
 10
285.995691
 20
36.468125
 30
0.0
 11
286.045691
 21
36.468125
 31
0.0
 12
286.020691
 22
36.318125
 32
0.0
 13
286.020691
 23
36.318125
 33
0.0
  0
LINE
  8
0
  6
BYBLOCK
 62
     0
 10
286.020691
 20
35.568125
 30
0.0
 11
286.020691
 21
36.318125
 31
0.0
  0
TEXT
  8
0
  6
BYBLOCK
 62
     0
 10
285.983191
 20
35.818125
 30
0.0
 40
0.075
  1
0.75
 50
90.0
  7
ROMANC
 72
     1
 11
285.945691
 21
35.943125
 31
0.0
 73
     2
  0
POINT
  8
DEFPOINTS
  6
BYBLOCK
 62
     0
 10
285.525545
 20
35.568125
 30
0.0
  0
POINT
  8
DEFPOINTS
  6
BYBLOCK
 62
     0
 10
285.625545
 20
36.318125
 30
0.0
  0
POINT
  8
DEFPOINTS
  6
BYBLOCK
 62
     0
 10
286.020691
 20
36.318125
 30
0.0
  0
LINE
  8
0
  6
BYBLOCK
 62
     0
 10
285.140545
 20
35.418125
 30
0.0
 11
286.035691
 21
35.418125
 31
0.0
  0
LINE
  8
0
  6
BYBLOCK
 62
     0
 10
285.340545
 20
35.568125
 30
0.0
 11
286.035691
 21
35.568125
 31
0.0
  0
LINE
  8
0
  6
BYBLOCK
 62
     0
 10
286.020691
 20
35.268125
 30
0.0
 11
286.020691
 21
35.118125
 31
0.0
  0
LINE
  8
0
  6
BYBLOCK
 62
     0
 10
286.020691
 20
35.718125
 30
0.0
 11
286.020691
 21
35.868125
 31
0.0
  0
SOLID
  8
0
  6
BYBLOCK
 62
     0
 10
285.995691
 20
35.268125
 30
0.0
 11
286.045691
 21
35.268125
 31
0.0
 12
286.020691
 22
35.418125
 32
0.0
 13
286.020691
 23
35.418125
 33
0.0
  0
SOLID
  8
0
  6
BYBLOCK
 62
     0
 10
285.995691
 20
35.718125
 30
0.0
 11
286.045691
 21
35.718125
 31
0.0
 12
286.020691
 22
35.568125
 32
0.0
 13
286.020691
 23
35.568125
 33
0.0
  0
LINE
  8
0
  6
BYBLOCK
 62
     0
 10
286.020691
 20
35.418125
 30
0.0
 11
286.020691
 21
35.568125
 31
0.0
  0
TEXT
  8
0
  6
BYBLOCK
 62
     0
 10
285.983191
 20
35.106788
 30
0.0
 40
0.075
  1
0.15
 50
90.0
  7
ROMANC
 72
     1
 11
285.945691
 21
35.231788
 31
0.0
 73
     2
  0
POINT
  8
DEFPOINTS
  6
BYBLOCK
 62
     0
 10
285.125545
 20
35.418125
 30
0.0
  0
POINT
  8
DEFPOINTS
  6
BYBLOCK
 62
     0
 10
285.325545
 20
35.568125
 30
0.0
  0
POINT
  8
DEFPOINTS
  6
BYBLOCK
 62
     0
 10
286.020691
 20
35.568125
 30
0.0
  0
LINE
  8
0
  6
BYBLOCK
 62
     0
 10
284.725545
 20
35.553125
 30
0.0
 11
284.725545
 21
34.943948
 31
0.0
  0
LINE
  8
0
  6
BYBLOCK
 62
     0
 10
285.525545
 20
35.553125
 30
0.0
 11
285.525545
 21
34.943948
 31
0.0
  0
LINE
  8
0
  6
BYBLOCK
 62
     0
 10
284.875545
 20
34.958948
 30
0.0
 11
285.375545
 21
34.958948
 31
0.0
  0
SOLID
  8
0
  6
BYBLOCK
 62
     0
 10
284.875545
 20
34.983948
 30
0.0
 11
284.875545
 21
34.933948
 31
0.0
 12
284.725545
 22
34.958948
 32
0.0
 13
284.725545
 23
34.958948
 33
0.0
  0
SOLID
  8
0
  6
BYBLOCK
 62
     0
 10
285.375545
 20
34.983948
 30
0.0
 11
285.375545
 21
34.933948
 31
0.0
 12
285.525545
 22
34.958948
 32
0.0
 13
285.525545
 23
34.958948
 33
0.0
  0
TEXT
  8
0
  6
BYBLOCK
 62
     0
 10
285.000545
 20
34.996448
 30
0.0
 40
0.075
  1
0.80
  7
ROMANC
 72
     1
 11
285.125545
 21
35.033948
 31
0.0
 73
     2
  0
POINT
  8
DEFPOINTS
  6
BYBLOCK
 62
     0
 10
284.725545
 20
35.568125
 30
0.0
  0
POINT
  8
DEFPOINTS
  6
BYBLOCK
 62
     0
 10
285.525545
 20
35.568125
 30
0.0
  0
POINT
  8
DEFPOINTS
  6
BYBLOCK
 62
     0
 10
285.525545
 20
34.958948
 30
0.0
  0
LINE
  8
0
  6
BYBLOCK
 62
     0
 10
285.325545
 20
35.553125
 30
0.0
 11
285.325545
 21
35.196727
 31
0.0
  0
LINE
  8
0
  6
BYBLOCK
 62
     0
 10
285.525545
 20
35.553125
 30
0.0
 11
285.525545
 21
35.196727
 31
0.0
  0
LINE
  8
0
  6
BYBLOCK
 62
     0
 10
285.175545
 20
35.211727
 30
0.0
 11
285.025545
 21
35.211727
 31
0.0
  0
LINE
  8
0
  6
BYBLOCK
 62
     0
 10
285.675545
 20
35.211727
 30
0.0
 11
285.825545
 21
35.211727
 31
0.0
  0
SOLID
  8
0
  6
BYBLOCK
 62
     0
 10
285.175545
 20
35.236727
 30
0.0
 11
285.175545
 21
35.186727
 31
0.0
 12
285.325545
 22
35.211727
 32
0.0
 13
285.325545
 23
35.211727
 33
0.0
  0
SOLID
  8
0
  6
BYBLOCK
 62
     0
 10
285.675545
 20
35.236727
 30
0.0
 11
285.675545
 21
35.186727
 31
0.0
 12
285.525545
 22
35.211727
 32
0.0
 13
285.525545
 23
35.211727
 33
0.0
  0
LINE
  8
0
  6
BYBLOCK
 62
     0
 10
285.325545
 20
35.211727
 30
0.0
 11
285.525545
 21
35.211727
 31
0.0
  0
TEXT
  8
0
  6
BYBLOCK
 62
     0
 10
285.562485
 20
35.249227
 30
0.0
 40
0.075
  1
0.20
  7
ROMANC
 72
     1
 11
285.687485
 21
35.286727
 31
0.0
 73
     2
  0
POINT
  8
DEFPOINTS
  6
BYBLOCK
 62
     0
 10
285.325545
 20
35.568125
 30
0.0
  0
POINT
  8
DEFPOINTS
  6
BYBLOCK
 62
     0
 10
285.525545
 20
35.568125
 30
0.0
  0
POINT
  8
DEFPOINTS
  6
BYBLOCK
 62
     0
 10
285.525545
 20
35.211727
 30
0.0
  0
LINE
  8
0
  6
BYBLOCK
 62
     0
 10
284.925545
 20
35.553125
 30
0.0
 11
284.925545
 21
35.196727
 31
0.0
  0
LINE
  8
0
  6
BYBLOCK
 62
     0
 10
285.325545
 20
35.553125
 30
0.0
 11
285.325545
 21
35.196727
 31
0.0
  0
LINE
  8
0
  6
BYBLOCK
 62
     0
 10
284.775545
 20
35.211727
 30
0.0
 11
284.625545
 21
35.211727
 31
0.0
  0
LINE
  8
0
  6
BYBLOCK
 62
     0
 10
285.475545
 20
35.211727
 30
0.0
 11
285.625545
 21
35.211727
 31
0.0
  0
SOLID
  8
0
  6
BYBLOCK
 62
     0
 10
284.775545
 20
35.236727
 30
0.0
 11
284.775545
 21
35.186727
 31
0.0
 12
284.925545
 22
35.211727
 32
0.0
 13
284.925545
 23
35.211727
 33
0.0
  0
SOLID
  8
0
  6
BYBLOCK
 62
     0
 10
285.475545
 20
35.236727
 30
0.0
 11
285.475545
 21
35.186727
 31
0.0
 12
285.325545
 22
35.211727
 32
0.0
 13
285.325545
 23
35.211727
 33
0.0
  0
LINE
  8
0
  6
BYBLOCK
 62
     0
 10
284.925545
 20
35.211727
 30
0.0
 11
285.325545
 21
35.211727
 31
0.0
  0
TEXT
  8
0
  6
BYBLOCK
 62
     0
 10
285.000545
 20
35.249227
 30
0.0
 40
0.075
  1
0.40
  7
ROMANC
 72
     1
 11
285.125545
 21
35.286727
 31
0.0
 73
     2
  0
POINT
  8
DEFPOINTS
  6
BYBLOCK
 62
     0
 10
284.925545
 20
35.568125
 30
0.0
  0
POINT
  8
DEFPOINTS
  6
BYBLOCK
 62
     0
 10
285.325545
 20
35.568125
 30
0.0
  0
POINT
  8
DEFPOINTS
  6
BYBLOCK
 62
     0
 10
285.325545
 20
35.211727
 30
0.0
  0
LINE
  8
0
  6
BYBLOCK
 62
     0
 10
284.725545
 20
35.553125
 30
0.0
 11
284.725545
 21
35.196727
 31
0.0
  0
LINE
  8
0
  6
BYBLOCK
 62
     0
 10
284.925545
 20
35.553125
 30
0.0
 11
284.925545
 21
35.196727
 31
0.0
  0
LINE
  8
0
  6
BYBLOCK
 62
     0
 10
284.575545
 20
35.211727
 30
0.0
 11
284.425545
 21
35.211727
 31
0.0
  0
LINE
  8
0
  6
BYBLOCK
 62
     0
 10
285.075545
 20
35.211727
 30
0.0
 11
285.225545
 21
35.211727
 31
0.0
  0
SOLID
  8
0
  6
BYBLOCK
 62
     0
 10
284.575545
 20
35.236727
 30
0.0
 11
284.575545
 21
35.186727
 31
0.0
 12
284.725545
 22
35.211727
 32
0.0
 13
284.725545
 23
35.211727
 33
0.0
  0
SOLID
  8
0
  6
BYBLOCK
 62
     0
 10
285.075545
 20
35.236727
 30
0.0
 11
285.075545
 21
35.186727
 31
0.0
 12
284.925545
 22
35.211727
 32
0.0
 13
284.925545
 23
35.211727
 33
0.0
  0
LINE
  8
0
  6
BYBLOCK
 62
     0
 10
284.725545
 20
35.211727
 30
0.0
 11
284.925545
 21
35.211727
 31
0.0
  0
TEXT
  8
0
  6
BYBLOCK
 62
     0
 10
284.458489
 20
35.249227
 30
0.0
 40
0.075
  1
0.20
  7
ROMANC
 72
     1
 11
284.583489
 21
35.286727
 31
0.0
 73
     2
  0
POINT
  8
DEFPOINTS
  6
BYBLOCK
 62
     0
 10
284.725545
 20
35.568125
 30
0.0
  0
POINT
  8
DEFPOINTS
  6
BYBLOCK
 62
     0
 10
284.925545
 20
35.568125
 30
0.0
  0
POINT
  8
DEFPOINTS
  6
BYBLOCK
 62
     0
 10
284.925545
 20
35.211727
 30
0.0
  0
LINE
  8
0
 10
284.925545
 20
35.568125
 30
0.0
 11
284.725545
 21
35.568125
 31
0.0
  0
LINE
  8
0
 10
284.725545
 20
35.568125
 30
0.0
 11
284.625545
 21
36.318125
 31
0.0
  0
ARC
  8
0
 10
285.125545
 20
36.318125
 30
0.0
 40
0.5
 50
0.0
 51
180.0
  0
LINE
  8
0
 10
285.625545
 20
36.318125
 30
0.0
 11
285.525545
 21
35.568125
 31
0.0
  0
LINE
  8
0
 10
285.525545
 20
35.568125
 30
0.0
 11
285.325545
 21
35.568125
 31
0.0
  0
ARC
  8
0
 10
285.211702
 20
35.568125
 30
0.0
 40
0.113843
 50
331.088799
 51
0.0
  0
ARC
  8
0
 10
285.170245
 20
35.591021
 30
0.0
 40
0.161203
 50
306.869898
 51
331.088799
  0
ARC
  8
0
 10
285.143204
 20
35.627076
 30
0.0
 40
0.206271
 50
287.257939
 51
306.869898
  0
ARC
  8
0
 10
285.125545
 20
35.683919
 30
0.0
 40
0.265793
 50
270.0
 51
287.257939
  0
ARC
  8
0
 10
285.125545
 20
35.683919
 30
0.0
 40
0.265793
 50
252.742061
 51
270.0
  0
ARC
  8
0
 10
285.107886
 20
35.627076
 30
0.0
 40
0.206271
 50
233.130102
 51
252.742061
  0
ARC
  8
0
 10
285.080845
 20
35.591021
 30
0.0
 40
0.161203
 50
208.911201
 51
233.130102
  0
ARC
  8
0
 10
285.039388
 20
35.568125
 30
0.0
 40
0.113843
 50
180.0
 51
208.911201
  0
ENDSEC
  0
EOF
