  0
SECTION
  2
HEADER
  9
$ACADVER
  1
AC1009
  9
$INSBASE
 10
68.043455
 20
27.725383
 30
0.0
  9
$EXTMIN
 10
68.043455
 20
27.725383
 30
0.0
  9
$EXTMAX
 10
78.543455
 20
42.575383
 30
0.0
  9
$LIMMIN
 10
0.0
 20
0.0
  9
$LIMMAX
 10
410.0
 20
287.0
  9
$ORTHOMODE
 70
     0
  9
$REGENMODE
 70
     1
  9
$FILLMODE
 70
     1
  9
$QTEXTMODE
 70
     0
  9
$MIRRTEXT
 70
     1
  9
$DRAGMODE
 70
     2
  9
$LTSCALE
 40
25.0
  9
$OSMODE
 70
    32
  9
$ATTMODE
 70
     1
  9
$TEXTSIZE
 40
0.1
  9
$TRACEWID
 40
1.0
  9
$TEXTSTYLE
  7
ROMANC
  9
$CLAYER
  8
0
  9
$CELTYPE
  6
BYLAYER
  9
$CECOLOR
 62
   256
  9
$DIMSCALE
 40
0.0
  9
$DIMASZ
 40
0.0
  9
$DIMEXO
 40
0.1
  9
$DIMDLI
 40
7.0
  9
$DIMRND
 40
0.0
  9
$DIMDLE
 40
0.0
  9
$DIMEXE
 40
1.8
  9
$DIMTP
 40
0.0
  9
$DIMTM
 40
0.0
  9
$DIMTXT
 40
0.03
  9
$DIMCEN
 40
1.5
  9
$DIMTSZ
 40
1.0
  9
$DIMTOL
 70
     0
  9
$DIMLIM
 70
     0
  9
$DIMTIH
 70
     0
  9
$DIMTOH
 70
     0
  9
$DIMSE1
 70
     0
  9
$DIMSE2
 70
     0
  9
$DIMTAD
 70
     0
  9
$DIMZIN
 70
     0
  9
$DIMBLK
  1

  9
$DIMASO
 70
     1
  9
$DIMSHO
 70
     0
  9
$DIMPOST
  1

  9
$DIMAPOST
  1

  9
$DIMALT
 70
     0
  9
$DIMALTD
 70
     2
  9
$DIMALTF
 40
25.4
  9
$DIMLFAC
 40
1.0
  9
$DIMTOFL
 70
     1
  9
$DIMTVP
 40
0.0
  9
$DIMTIX
 70
     1
  9
$DIMSOXD
 70
     0
  9
$DIMSAH
 70
     0
  9
$DIMBLK1
  1

  9
$DIMBLK2
  1

  9
$DIMSTYLE
  2
*UNNAMED
  9
$DIMCLRD
 70
     0
  9
$DIMCLRE
 70
     0
  9
$DIMCLRT
 70
     0
  9
$DIMTFAC
 40
116.666667
  9
$DIMGAP
 40
0.09
  9
$LUNITS
 70
     2
  9
$LUPREC
 70
     2
  9
$SKETCHINC
 40
1.0
  9
$FILLETRAD
 40
0.0
  9
$AUNITS
 70
     0
  9
$AUPREC
 70
     0
  9
$MENU
  1
acad
  9
$ELEVATION
 40
0.0
  9
$PELEVATION
 40
0.0
  9
$THICKNESS
 40
0.0
  9
$LIMCHECK
 70
     0
  9
$BLIPMODE
 70
     0
  9
$CHAMFERA
 40
0.0
  9
$CHAMFERB
 40
0.0
  9
$SKPOLY
 70
     0
  9
$TDCREATE
 40
2449967.554639352
  9
$TDUPDATE
 40
2450723.487185879
  9
$TDINDWG
 40
0.0404357639
  9
$TDUSRTIMER
 40
0.0404357639
  9
$USRTIMER
 70
     1
  9
$ANGBASE
 50
0.0
  9
$ANGDIR
 70
     0
  9
$PDMODE
 70
     0
  9
$PDSIZE
 40
0.0
  9
$PLINEWID
 40
0.0
  9
$COORDS
 70
     2
  9
$SPLFRAME
 70
     0
  9
$SPLINETYPE
 70
     6
  9
$SPLINESEGS
 70
     8
  9
$ATTDIA
 70
     0
  9
$ATTREQ
 70
     1
  9
$HANDLING
 70
     0
  9
$HANDSEED
  5
0
  9
$SURFTAB1
 70
     6
  9
$SURFTAB2
 70
     6
  9
$SURFTYPE
 70
     6
  9
$SURFU
 70
     6
  9
$SURFV
 70
     6
  9
$UCSNAME
  2

  9
$UCSORG
 10
0.0
 20
0.0
 30
0.0
  9
$UCSXDIR
 10
1.0
 20
0.0
 30
0.0
  9
$UCSYDIR
 10
0.0
 20
1.0
 30
0.0
  9
$PUCSNAME
  2

  9
$PUCSORG
 10
0.0
 20
0.0
 30
0.0
  9
$PUCSXDIR
 10
1.0
 20
0.0
 30
0.0
  9
$PUCSYDIR
 10
0.0
 20
1.0
 30
0.0
  9
$USERI1
 70
     0
  9
$USERI2
 70
     0
  9
$USERI3
 70
     0
  9
$USERI4
 70
     0
  9
$USERI5
 70
     0
  9
$USERR1
 40
0.0
  9
$USERR2
 40
0.0
  9
$USERR3
 40
0.0
  9
$USERR4
 40
0.0
  9
$USERR5
 40
0.0
  9
$WORLDVIEW
 70
     1
  9
$SHADEDGE
 70
     3
  9
$SHADEDIF
 70
    70
  9
$TILEMODE
 70
     1
  9
$MAXACTVP
 70
    16
  9
$PINSBASE
 10
0.0
 20
0.0
 30
0.0
  9
$PLIMCHECK
 70
     0
  9
$PEXTMIN
 10
1.000000E+20
 20
1.000000E+20
 30
1.000000E+20
  9
$PEXTMAX
 10
-1.000000E+20
 20
-1.000000E+20
 30
-1.000000E+20
  9
$PLIMMIN
 10
0.0
 20
0.0
  9
$PLIMMAX
 10
12.0
 20
9.0
  9
$UNITMODE
 70
     0
  9
$VISRETAIN
 70
     0
  9
$PLINEGEN
 70
     0
  9
$PSLTSCALE
 70
     0
  9
$TREEDEPTH
 70
  3020
  9
$DWGCODEPAGE
  3
iso8859-1
  0
ENDSEC
  0
SECTION
  2
TABLES
  0
TABLE
  2
VPORT
 70
     2
  0
VPORT
  2
*ACTIVE
 70
     0
 10
0.0
 20
0.0
 11
1.0
 21
1.0
 12
80.005305
 22
35.150383
 13
0.0
 23
0.0
 14
1.0
 24
1.0
 15
10.0
 25
10.0
 16
0.0
 26
0.0
 36
1.0
 17
0.0
 27
0.0
 37
0.0
 40
14.85
 41
1.611024
 42
50.0
 43
0.0
 44
0.0
 50
0.0
 51
0.0
 71
     0
 72
   100
 73
     1
 74
     0
 75
     0
 76
     0
 77
     0
 78
     1
  0
ENDTAB
  0
TABLE
  2
LTYPE
 70
     1
  0
LTYPE
  2
CONTINUOUS
 70
    64
  3
Solid line
 72
    65
 73
     0
 40
0.0
  0
ENDTAB
  0
TABLE
  2
LAYER
 70
     1
  0
LAYER
  2
0
 70
    64
 62
     7
  6
CONTINUOUS
  0
ENDTAB
  0
TABLE
  2
STYLE
 70
     2
  0
STYLE
  2
STANDARD
 70
     0
 40
0.0
 41
1.0
 50
0.0
 71
     0
 42
0.1
  3
txt
  4

  0
STYLE
  2
ROMANC
 70
    64
 40
0.0
 41
1.0
 50
0.0
 71
     0
 42
0.1
  3
romanc
  4

  0
ENDTAB
  0
TABLE
  2
VIEW
 70
     0
  0
ENDTAB
  0
TABLE
  2
UCS
 70
     0
  0
ENDTAB
  0
TABLE
  2
APPID
 70
     1
  0
APPID
  2
ACAD
 70
    64
  0
ENDTAB
  0
TABLE
  2
DIMSTYLE
 70
     0
  0
ENDTAB
  0
ENDSEC
  0
SECTION
  2
BLOCKS
  0
ENDSEC
  0
SECTION
  2
ENTITIES
  0
LINE
  8
0
 10
78.543455
 20
42.575383
 30
0.0
 11
68.043455
 21
42.575383
 31
0.0
  0
LINE
  8
0
 10
68.043455
 20
27.725383
 30
0.0
 11
78.543455
 21
27.725383
 31
0.0
  0
LINE
  8
0
 10
68.043455
 20
42.575383
 30
0.0
 11
68.043455
 21
27.725383
 31
0.0
  0
LINE
  8
0
 10
78.543455
 20
27.725383
 30
0.0
 11
78.543455
 21
42.575383
 31
0.0
  0
TEXT
  8
0
 10
70.583694
 20
38.41344
 30
0.0
 40
0.3
  1
P = 137.7 dm
  7
ROMANC
  0
LINE
  8
0
 10
70.200662
 20
33.875411
 30
0.0
 11
70.200662
 21
31.275411
 31
0.0
  0
LINE
  8
0
 10
70.702891
 20
30.714668
 30
0.0
 11
75.202891
 21
30.714668
 31
0.0
  0
LINE
  8
0
 10
70.168109
 20
31.245819
 30
0.0
 11
70.229469
 21
31.301598
 31
0.0
  0
LINE
  8
0
 10
70.670338
 20
30.685076
 30
0.0
 11
70.731699
 21
30.740855
 31
0.0
  0
TEXT
  8
0
 10
72.396321
 20
30.462235
 30
0.0
 40
0.1
  1
3.6
  7
ROMANC
  0
LINE
  8
0
 10
70.702891
 20
31.275411
 30
0.0
 11
70.200662
 21
31.275411
 31
0.0
  0
LINE
  8
0
 10
70.702891
 20
31.275411
 30
0.0
 11
70.702891
 21
30.714668
 31
0.0
  0
LINE
  8
0
 10
74.270338
 20
30.685076
 30
0.0
 11
74.331699
 21
30.740855
 31
0.0
  0
LINE
  8
0
 10
75.170338
 20
30.685076
 30
0.0
 11
75.231699
 21
30.740855
 31
0.0
  0
LINE
  8
0
 10
75.62811
 20
31.645819
 30
0.0
 11
75.68947
 21
31.701598
 31
0.0
  0
LINE
  8
0
 10
75.62811
 20
31.245819
 30
0.0
 11
75.68947
 21
31.301598
 31
0.0
  0
TEXT
  8
0
 10
75.864684
 20
31.46226
 30
0.0
 40
0.1
  1
0.4
  7
ROMANC
  0
LINE
  8
0
 10
74.302891
 20
31.275411
 30
0.0
 11
74.302891
 21
30.714668
 31
0.0
  0
LINE
  8
0
 10
75.202891
 20
31.675411
 30
0.0
 11
75.202891
 21
30.714668
 31
0.0
  0
LINE
  8
0
 10
74.302891
 20
31.275411
 30
0.0
 11
75.660663
 21
31.275411
 31
0.0
  0
LINE
  8
0
 10
75.202891
 20
31.675411
 30
0.0
 11
75.660663
 21
31.675411
 31
0.0
  0
LINE
  8
0
 10
75.660663
 20
31.675411
 30
0.0
 11
75.660663
 21
31.275411
 31
0.0
  0
LINE
  8
0
 10
70.670338
 20
34.180311
 30
0.0
 11
70.731699
 21
34.23609
 31
0.0
  0
LINE
  8
0
 10
71.170338
 20
34.180311
 30
0.0
 11
71.231699
 21
34.23609
 31
0.0
  0
LINE
  8
0
 10
70.168109
 20
33.845819
 30
0.0
 11
70.229469
 21
33.901598
 31
0.0
  0
LINE
  8
0
 10
70.168109
 20
33.545819
 30
0.0
 11
70.229469
 21
33.601598
 31
0.0
  0
TEXT
  8
0
 10
70.861303
 20
34.268157
 30
0.0
 40
0.1
  1
0.5
  7
ROMANC
  0
TEXT
  8
0
 10
69.883502
 20
32.349463
 30
0.0
 40
0.1
  1
2.3
  7
ROMANC
  0
LINE
  8
0
 10
70.702891
 20
33.575411
 30
0.0
 11
70.702891
 21
34.209903
 31
0.0
  0
LINE
  8
0
 10
71.202891
 20
33.875411
 30
0.0
 11
71.202891
 21
34.209903
 31
0.0
  0
LINE
  8
0
 10
71.202891
 20
33.875411
 30
0.0
 11
70.200662
 21
33.875411
 31
0.0
  0
LINE
  8
0
 10
70.702891
 20
33.575411
 30
0.0
 11
70.200662
 21
33.575411
 31
0.0
  0
LINE
  8
0
 10
70.702891
 20
34.209903
 30
0.0
 11
71.202891
 21
34.209903
 31
0.0
  0
TEXT
  8
0
 10
70.586522
 20
39.086938
 30
0.0
 40
0.3
  1
S = 1119 dm
  7
ROMANC
  0
TEXT
  8
0
 10
70.573428
 20
40.171242
 30
0.0
 40
0.3
  1
TIPUS   NT1119A
  7
ROMANC
  0
TEXT
  8
0
 10
70.573428
 20
39.685528
 30
0.0
 40
0.3
  1
ESCALA  1:50
  7
ROMANC
  0
TEXT
  8
0
 10
74.094353
 20
39.392854
 30
0.0
 40
0.1
  1
2
  7
ROMANC
  0
LINE
  8
0
 10
74.302891
 20
31.275411
 30
0.0
 11
74.302891
 21
31.675411
 31
0.0
  0
LINE
  8
0
 10
74.302891
 20
31.675411
 30
0.0
 11
75.202891
 21
31.675411
 31
0.0
  0
LINE
  8
0
 10
75.202891
 20
31.675411
 30
0.0
 11
75.202891
 21
33.575411
 31
0.0
  0
LINE
  8
0
 10
75.202891
 20
33.575411
 30
0.0
 11
74.702891
 21
33.875411
 31
0.0
  0
LINE
  8
0
 10
74.702891
 20
33.875411
 30
0.0
 11
71.202891
 21
33.875411
 31
0.0
  0
LINE
  8
0
 10
71.202891
 20
33.875411
 30
0.0
 11
70.702891
 21
33.575411
 31
0.0
  0
LINE
  8
0
 10
70.702891
 20
33.575411
 30
0.0
 11
70.702891
 21
31.275411
 31
0.0
  0
LINE
  8
0
 10
70.702891
 20
31.275411
 30
0.0
 11
74.302891
 21
31.275411
 31
0.0
  0
LINE
  8
0
 10
74.312891
 20
31.265411
 30
0.0
 11
74.312891
 21
31.665411
 31
0.0
  0
LINE
  8
0
 10
74.312891
 20
31.665411
 30
0.0
 11
75.212891
 21
31.665411
 31
0.0
  0
LINE
  8
0
 10
75.212891
 20
31.665411
 30
0.0
 11
75.212891
 21
33.581073
 31
0.0
  0
LINE
  8
0
 10
75.212891
 20
33.581073
 30
0.0
 11
74.705661
 21
33.885411
 31
0.0
  0
LINE
  8
0
 10
74.705661
 20
33.885411
 30
0.0
 11
71.200121
 21
33.885411
 31
0.0
  0
LINE
  8
0
 10
71.200121
 20
33.885411
 30
0.0
 11
70.692891
 21
33.581073
 31
0.0
  0
LINE
  8
0
 10
70.692891
 20
33.581073
 30
0.0
 11
70.692891
 21
31.265411
 31
0.0
  0
LINE
  8
0
 10
70.692891
 20
31.265411
 30
0.0
 11
74.312891
 21
31.265411
 31
0.0
  0
LINE
  8
0
 10
74.292891
 20
31.285411
 30
0.0
 11
74.292891
 21
31.685411
 31
0.0
  0
LINE
  8
0
 10
74.292891
 20
31.685411
 30
0.0
 11
75.192891
 21
31.685411
 31
0.0
  0
LINE
  8
0
 10
75.192891
 20
31.685411
 30
0.0
 11
75.192891
 21
33.569749
 31
0.0
  0
LINE
  8
0
 10
75.192891
 20
33.569749
 30
0.0
 11
74.700121
 21
33.865411
 31
0.0
  0
LINE
  8
0
 10
74.700121
 20
33.865411
 30
0.0
 11
71.205661
 21
33.865411
 31
0.0
  0
LINE
  8
0
 10
71.205661
 20
33.865411
 30
0.0
 11
70.712891
 21
33.569749
 31
0.0
  0
LINE
  8
0
 10
70.712891
 20
33.569749
 30
0.0
 11
70.712891
 21
31.285411
 31
0.0
  0
LINE
  8
0
 10
70.712891
 20
31.285411
 30
0.0
 11
74.292891
 21
31.285411
 31
0.0
  0
LINE
  8
0
 10
69.698433
 20
33.875411
 30
0.0
 11
69.698433
 21
31.275411
 31
0.0
  0
LINE
  8
0
 10
70.200662
 20
31.275411
 30
0.0
 11
69.698433
 21
31.275411
 31
0.0
  0
LINE
  8
0
 10
69.665879
 20
31.245819
 30
0.0
 11
69.72724
 21
31.301598
 31
0.0
  0
LINE
  8
0
 10
70.700662
 20
33.875411
 30
0.0
 11
69.698433
 21
33.875411
 31
0.0
  0
TEXT
  8
0
 10
69.330359
 20
32.671724
 30
0.0
 40
0.1
  1
2.6
  7
ROMANC
  0
TEXT
  8
0
 10
69.883153
 20
33.654034
 30
0.0
 40
0.1
  1
0.3
  7
ROMANC
  0
LINE
  8
0
 10
69.665879
 20
33.845819
 30
0.0
 11
69.72724
 21
33.901598
 31
0.0
  0
LINE
  8
0
 10
75.202891
 20
31.114668
 30
0.0
 11
75.202891
 21
30.153925
 31
0.0
  0
LINE
  8
0
 10
70.702891
 20
30.153925
 30
0.0
 11
75.202891
 21
30.153925
 31
0.0
  0
LINE
  8
0
 10
70.702891
 20
30.714668
 30
0.0
 11
70.702891
 21
30.153925
 31
0.0
  0
LINE
  8
0
 10
70.670338
 20
30.124333
 30
0.0
 11
70.731699
 21
30.180112
 31
0.0
  0
LINE
  8
0
 10
75.170338
 20
30.124333
 30
0.0
 11
75.231699
 21
30.180112
 31
0.0
  0
TEXT
  8
0
 10
72.922429
 20
29.943895
 30
0.0
 40
0.1
  1
4.5
  7
ROMANC
  0
TEXT
  8
0
 10
74.636867
 20
30.489107
 30
0.0
 40
0.1
  1
0.9
  7
ROMANC
  0
ENDSEC
  0
EOF
