  0
SECTION
  2
HEADER
  9
$ACADVER
  1
AC1009
  9
$INSBASE
 10
0.0
 20
0.0
 30
0.0
  9
$EXTMIN
 10
-0.525
 20
-0.7425
 30
107374.1824
  9
$EXTMAX
 10
0.525
 20
0.7425
 30
107374.1824
  9
$LIMMIN
 10
0.0
 20
0.0
  9
$LIMMAX
 10
12.0
 20
9.0
  9
$ORTHOMODE
 70
     0
  9
$REGENMODE
 70
     1
  9
$FILLMODE
 70
     1
  9
$QTEXTMODE
 70
     0
  9
$MIRRTEXT
 70
     1
  9
$DRAGMODE
 70
     2
  9
$LTSCALE
 40
1.0
  9
$OSMODE
 70
     0
  9
$ATTMODE
 70
     1
  9
$TEXTSIZE
 40
0.2
  9
$TRACEWID
 40
0.05
  9
$TEXTSTYLE
  7
STANDARD
  9
$CLAYER
  8
0
  9
$CELTYPE
  6
CONTINUOUS
  9
$CECOLOR
 62
   256
  9
$DIMSCALE
 40
1.0
  9
$DIMASZ
 40
0.18
  9
$DIMEXO
 40
0.0625
  9
$DIMDLI
 40
0.38
  9
$DIMRND
 40
0.0
  9
$DIMDLE
 40
0.0
  9
$DIMEXE
 40
0.18
  9
$DIMTP
 40
0.0
  9
$DIMTM
 40
0.0
  9
$DIMTXT
 40
0.18
  9
$DIMCEN
 40
0.09
  9
$DIMTSZ
 40
0.0
  9
$DIMTOL
 70
     0
  9
$DIMLIM
 70
     0
  9
$DIMTIH
 70
     1
  9
$DIMTOH
 70
     1
  9
$DIMSE1
 70
     0
  9
$DIMSE2
 70
     0
  9
$DIMTAD
 70
     0
  9
$DIMZIN
 70
     0
  9
$DIMBLK
  1

  9
$DIMASO
 70
     1
  9
$DIMSHO
 70
     1
  9
$DIMPOST
  1

  9
$DIMAPOST
  1

  9
$DIMALT
 70
     0
  9
$DIMALTD
 70
     2
  9
$DIMALTF
 40
25.4
  9
$DIMLFAC
 40
1.0
  9
$DIMTOFL
 70
     0
  9
$DIMTVP
 40
0.0
  9
$DIMTIX
 70
     0
  9
$DIMSOXD
 70
     0
  9
$DIMSAH
 70
     0
  9
$DIMBLK1
  1

  9
$DIMBLK2
  1

  9
$DIMSTYLE
  2
STANDARD
  9
$DIMCLRD
 70
     0
  9
$DIMCLRE
 70
     0
  9
$DIMCLRT
 70
     0
  9
$DIMTFAC
 40
1.0
  9
$DIMGAP
 40
0.09
  9
$LUNITS
 70
     2
  9
$LUPREC
 70
     4
  9
$AXISMODE
 70
     0
  9
$AXISUNIT
 10
0.0
 20
0.0
  9
$SKETCHINC
 40
0.1
  9
$FILLETRAD
 40
0.0
  9
$AUNITS
 70
     0
  9
$AUPREC
 70
     0
  9
$MENU
  1
acad
  9
$ELEVATION
 40
0.0
  9
$PELEVATION
 40
0.0
  9
$THICKNESS
 40
0.0
  9
$LIMCHECK
 70
     0
  9
$BLIPMODE
 70
     1
  9
$CHAMFERA
 40
0.0
  9
$CHAMFERB
 40
0.0
  9
$SKPOLY
 70
     0
  9
$TDCREATE
 40
2451474.556898148
  9
$TDUPDATE
 40
2451474.556898148
  9
$TDINDWG
 40
0.0000000000
  9
$TDUSRTIMER
 40
0.0000000000
  9
$USRTIMER
 70
     1
  9
$ANGBASE
 50
0.0
  9
$ANGDIR
 70
     0
  9
$PDMODE
 70
     0
  9
$PDSIZE
 40
0.0
  9
$PLINEWID
 40
0.0
  9
$COORDS
 70
     0
  9
$SPLFRAME
 70
     0
  9
$SPLINETYPE
 70
     6
  9
$SPLINESEGS
 70
    10
  9
$ATTDIA
 70
     0
  9
$ATTREQ
 70
     1
  9
$HANDLING
 70
     1
  9
$HANDSEED
  5
74
  9
$SURFTAB1
 70
     6
  9
$SURFTAB2
 70
     6
  9
$SURFTYPE
 70
     6
  9
$SURFU
 70
     6
  9
$SURFV
 70
     6
  9
$UCSNAME
  2

  9
$UCSORG
 10
0.0
 20
0.0
 30
0.0
  9
$UCSXDIR
 10
1.0
 20
0.0
 30
0.0
  9
$UCSYDIR
 10
0.0
 20
1.0
 30
0.0
  9
$PUCSNAME
  2

  9
$PUCSORG
 10
0.0
 20
0.0
 30
0.0
  9
$PUCSXDIR
 10
1.0
 20
0.0
 30
0.0
  9
$PUCSYDIR
 10
0.0
 20
1.0
 30
0.0
  9
$USERI1
 70
     0
  9
$USERI2
 70
     0
  9
$USERI3
 70
     0
  9
$USERI4
 70
     0
  9
$USERI5
 70
     0
  9
$USERR1
 40
0.0
  9
$USERR2
 40
0.0
  9
$USERR3
 40
0.0
  9
$USERR4
 40
0.0
  9
$USERR5
 40
0.0
  9
$WORLDVIEW
 70
     1
  9
$SHADEDGE
 70
     3
  9
$SHADEDIF
 70
    70
  9
$TILEMODE
 70
     1
  9
$MAXACTVP
 70
    16
  9
$PINSBASE
 10
0.0
 20
0.0
 30
0.0
  9
$PLIMCHECK
 70
     0
  9
$PEXTMIN
 10
-1.000000E+20
 20
-1.000000E+20
 30
-1.000000E+20
  9
$PEXTMAX
 10
-1.000000E+20
 20
-1.000000E+20
 30
-1.000000E+20
  9
$PLIMMIN
 10
0.0
 20
0.0
  9
$PLIMMAX
 10
12.0
 20
9.0
  9
$UNITMODE
 70
     0
  9
$VISRETAIN
 70
     0
  9
$PLINEGEN
 70
     1
  9
$PSLTSCALE
 70
     0
  9
$TREEDEPTH
 70
  3020
  9
$DWGCODEPAGE
  3
ansi_1252
  0
ENDSEC
  0
SECTION
  2
TABLES
  0
TABLE
  2
VPORT
 70
     1
  0
VPORT
  2
*ACTIVE
 70
     0
 10
0.0
 20
0.0
 11
1.0
 21
1.0
 12
0.0
 22
0.0
 13
0.0
 23
0.0
 14
0.0
 24
0.0
 15
0.0
 25
0.0
 16
0.0
 26
0.0
 36
1.0
 17
-0.038678
 27
0.0
 37
107374.1824
 40
1.5444
 41
1.422977
 42
50.0
 43
0.05
 44
-0.05
 50
0.0
 51
0.0
 71
    22
 72
   100
 73
     1
 74
     0
 75
     0
 76
     0
 77
     0
 78
     0
  0
ENDTAB
  0
TABLE
  2
LTYPE
 70
     7
  0
LTYPE
  2
CONTINUOUS
 70
     0
  3
Solid line
 72
    65
 73
     0
 40
0.0
  0
LTYPE
  2
DOT
 70
    64
  3
. . . . . . . . . . . . . . . . . . . . . . . . . . . . . . . . .
 72
    65
 73
     2
 40
0.25
 49
0.0
 49
-0.25
  0
LTYPE
  2
HIDDEN
 70
    64
  3
__ __ __ __ __ __ __ __ __ __ __ __ __ __ __ __ __ __ __ __ __ 
 72
    65
 73
     2
 40
0.375
 49
0.25
 49
-0.125
  0
LTYPE
  2
DASHED
 70
    64
  3
__ __ __ __ __ __ __ __ __ __ __ __ __ __ __ __ __ __ __ __ __
 72
    65
 73
     2
 40
0.75
 49
0.5
 49
-0.25
  0
LTYPE
  2
DASHDOT
 70
    64
  3
__ . __ . __ . __ . __ . __ . __ . __ . __ . __ . __ . __ . _
 72
    65
 73
     4
 40
1.0
 49
0.5
 49
-0.25
 49
0.0
 49
-0.25
  0
LTYPE
  2
DIVIDE
 70
    64
  3
____ . . ____ . . ____ . . ____ . . ____ . . ____ . . ____ . .
 72
    65
 73
     6
 40
1.25
 49
0.5
 49
-0.25
 49
0.0
 49
-0.25
 49
0.0
 49
-0.25
  0
LTYPE
  2
CENTER
 70
    64
  3
____ _ ____ _ ____ _ ____ _ ____ _ ____ _ ____ _ ____ _ ____ _
 72
    65
 73
     4
 40
2.0
 49
1.25
 49
-0.25
 49
0.25
 49
-0.25
  0
ENDTAB
  0
TABLE
  2
LAYER
 70
     4
  0
LAYER
  2
0
 70
    64
 62
     7
  6
CONTINUOUS
  0
LAYER
  2
CONSTRUCTION_CLASS
 70
     0
 62
     7
  6
CONTINUOUS
  0
LAYER
  2
PATTERN_CLASS
 70
     0
 62
     7
  6
CONTINUOUS
  0
LAYER
  2
1
 70
    64
 62
     7
  6
CONTINUOUS
  0
ENDTAB
  0
TABLE
  2
STYLE
 70
     2
  0
STYLE
  2
STANDARD
 70
     0
 40
0.0
 41
1.0
 50
0.0
 71
     0
 42
0.0
  3
txt
  4

  0
STYLE
  2
ROMANC
 70
     0
 40
0.2
 41
1.0
 50
0.0
 71
     0
 42
0.2
  3
ROMANC
  4

  0
ENDTAB
  0
TABLE
  2
VIEW
 70
     0
  0
ENDTAB
  0
TABLE
  2
UCS
 70
     0
  0
ENDTAB
  0
TABLE
  2
APPID
 70
     1
  0
APPID
  2
ACAD
 70
     0
  0
ENDTAB
  0
TABLE
  2
DIMSTYLE
 70
     1
  0
DIMSTYLE
  2
STANDARD
 70
     0
  3

  4

  5

  6

  7

 40
1.0
 41
0.18
 42
0.0625
 43
0.38
 44
0.18
 45
0.0
 46
0.0
 47
0.0
 48
0.0
140
0.18
141
0.09
142
0.0
143
25.4
144
1.0
145
0.0
146
1.0
147
0.09
 71
     0
 72
     0
 73
     1
 74
     1
 75
     0
 76
     0
 77
     0
 78
     0
170
     0
171
     2
172
     0
173
     0
174
     0
175
     0
176
     0
177
     0
178
     0
  0
ENDTAB
  0
ENDSEC
  0
SECTION
  2
BLOCKS
  0
ENDSEC
  0
SECTION
  2
ENTITIES
  0
TEXT
  8
0
  6
CONTINUOUS
 62
     7
  5
29
 10
0.0362
 20
0.4016
 30
107374.1824
 40
0.01
  1
2
  7
ROMANC
210
0.0
220
0.0
230
1.0
  0
TEXT
  8
0
  6
CONTINUOUS
 62
     7
  5
2A
 10
-0.272
 20
0.4446
 30
107374.1824
 40
0.03
  1
ESCALA  1:50
  7
ROMANC
210
0.0
220
0.0
230
1.0
  0
POLYLINE
  8
0
  6
CONTINUOUS
 62
     7
  5
2B
 66
     1
 10
0.0
 20
0.0
 30
107374.1824
 70
     1
210
0.0
220
0.0
230
1.0
  0
VERTEX
  8
0
  6
CONTINUOUS
 62
     7
  5
2C
 10
-0.525
 20
0.7425
 30
107374.1824
  0
VERTEX
  8
0
  6
CONTINUOUS
 62
     7
  5
2D
 10
0.525
 20
0.7425
 30
107374.1824
  0
VERTEX
  8
0
  6
CONTINUOUS
 62
     7
  5
2E
 10
0.525
 20
-0.7425
 30
107374.1824
  0
VERTEX
  8
0
  6
CONTINUOUS
 62
     7
  5
2F
 10
-0.525
 20
-0.7425
 30
107374.1824
  0
SEQEND
  8
0
  6
CONTINUOUS
 62
     7
  5
30
  0
TEXT
  8
0
  6
CONTINUOUS
 62
     7
  5
31
 10
-0.2701
 20
0.3777
 30
107374.1824
 40
0.03
  1
S = 110 dm
  7
ROMANC
210
0.0
220
0.0
230
1.0
  0
TEXT
  8
0
  6
CONTINUOUS
 62
     7
  5
32
 10
-0.2724
 20
0.3207
 30
107374.1824
 40
0.03
  1
P = 42 dm
  7
ROMANC
210
0.0
220
0.0
230
1.0
  0
TEXT
  8
0
  6
CONTINUOUS
 62
     7
  5
33
 10
-0.272
 20
0.5059
 30
107374.1824
 40
0.03
  1
TIPUS   NT110C
  7
ROMANC
210
0.0
220
0.0
230
1.0
  0
LINE
  8
1
  6
CONTINUOUS
 62
     7
  5
35
 10
0.0069
 20
-0.1439
 30
107374.1824
 11
0.0019
 21
-0.1439
 31
107374.1824
  0
LINE
  8
1
  6
CONTINUOUS
 62
     7
  5
36
 10
-0.0381
 20
-0.1439
 30
107374.1824
 11
-0.0431
 21
-0.1439
 31
107374.1824
  0
LINE
  8
1
  6
CONTINUOUS
 62
     7
  5
37
 10
-0.0439
 20
-0.1449
 30
107374.1824
 11
-0.0641
 21
-0.0391
 31
107374.1824
  0
LINE
  8
1
  6
CONTINUOUS
 62
     7
  5
38
 10
-0.0448
 20
-0.1459
 30
107374.1824
 11
-0.0651
 21
-0.0393
 31
107374.1824
  0
ARC
  8
1
  6
CONTINUOUS
 62
     7
  5
39
 10
-0.0181
 20
-0.0389
 30
107374.1824
 40
0.046
 50
0.0
 51
180.0
210
0.0
220
0.0
230
1.0
  0
ARC
  8
1
  6
CONTINUOUS
 62
     7
  5
3A
 10
-0.0181
 20
-0.0389
 30
107374.1824
 40
0.047
 50
0.0
 51
180.0
210
0.0
220
0.0
230
1.0
  0
LINE
  8
1
  6
CONTINUOUS
 62
     7
  5
3B
 10
0.0278
 20
-0.0391
 30
107374.1824
 11
0.0076
 21
-0.1449
 31
107374.1824
  0
LINE
  8
1
  6
CONTINUOUS
 62
     7
  5
3C
 10
0.0288
 20
-0.0393
 30
107374.1824
 11
0.0085
 21
-0.1459
 31
107374.1824
  0
LINE
  8
1
  6
CONTINUOUS
 62
     7
  5
3D
 10
0.0076
 20
-0.1449
 30
107374.1824
 11
0.0026
 21
-0.1449
 31
107374.1824
  0
LINE
  8
1
  6
CONTINUOUS
 62
     7
  5
3E
 10
0.0085
 20
-0.1459
 30
107374.1824
 11
0.0033
 21
-0.1459
 31
107374.1824
  0
LINE
  8
1
  6
CONTINUOUS
 62
     7
  5
3F
 10
-0.0388
 20
-0.1449
 30
107374.1824
 11
-0.0439
 21
-0.1449
 31
107374.1824
  0
LINE
  8
1
  6
CONTINUOUS
 62
     7
  5
40
 10
-0.0395
 20
-0.1459
 30
107374.1824
 11
-0.0448
 21
-0.1459
 31
107374.1824
  0
ARC
  8
1
  6
CONTINUOUS
 62
     7
  5
41
 10
-0.0181
 20
-0.138067
 30
107374.1824
 40
0.021833
 50
198.238736
 51
341.761264
210
0.0
220
0.0
230
1.0
  0
ARC
  8
1
  6
CONTINUOUS
 62
     7
  5
42
 10
-0.0181
 20
-0.138067
 30
107374.1824
 40
0.022833
 50
200.063764
 51
339.936236
210
0.0
220
0.0
230
1.0
  0
ARC
  8
1
  6
CONTINUOUS
 62
     7
  5
43
 10
-0.0181
 20
-0.138067
 30
107374.1824
 40
0.020833
 50
196.260206
 51
343.739797
210
0.0
220
0.0
230
1.0
  0
TEXT
  8
1
  6
CONTINUOUS
 62
     7
  5
44
 10
-0.0303
 20
-0.1838
 30
107374.1824
 40
0.0075
  1
0.40
  7
ROMANC
210
0.0
220
0.0
230
1.0
  0
LINE
  8
1
  6
CONTINUOUS
 62
     7
  5
45
 10
-0.0531
 20
-0.1801
 30
107374.1824
 11
-0.0381
 21
-0.1801
 31
107374.1824
  0
LINE
  8
1
  6
CONTINUOUS
 62
     7
  5
46
 10
0.0169
 20
-0.1801
 30
107374.1824
 11
0.0019
 21
-0.1801
 31
107374.1824
  0
LINE
  8
1
  6
CONTINUOUS
 62
     7
  5
47
 10
-0.0344
 20
-0.1782
 30
107374.1824
 11
-0.0418
 21
-0.182
 31
107374.1824
  0
LINE
  8
1
  6
CONTINUOUS
 62
     7
  5
48
 10
-0.0018
 20
-0.182
 30
107374.1824
 11
0.0056
 21
-0.1782
 31
107374.1824
  0
LINE
  8
1
  6
CONTINUOUS
 62
     7
  5
49
 10
-0.0381
 20
-0.1477
 30
107374.1824
 11
-0.0381
 21
-0.1839
 31
107374.1824
  0
LINE
  8
1
  6
CONTINUOUS
 62
     7
  5
4A
 10
0.0019
 20
-0.1477
 30
107374.1824
 11
0.0019
 21
-0.1839
 31
107374.1824
  0
LINE
  8
1
  6
CONTINUOUS
 62
     7
  5
4B
 10
-0.0431
 20
-0.1439
 30
107374.1824
 11
-0.0631
 21
-0.0389
 31
107374.1824
  0
LINE
  8
1
  6
CONTINUOUS
 62
     7
  5
4C
 10
0.0269
 20
-0.0389
 30
107374.1824
 11
0.0069
 21
-0.1439
 31
107374.1824
  0
TEXT
  8
1
  6
CONTINUOUS
 62
     7
  5
4D
 10
-0.03
 20
-0.2112
 30
107374.1824
 40
0.0075
  1
0.50
  7
ROMANC
210
0.0
220
0.0
230
1.0
  0
LINE
  8
1
  6
CONTINUOUS
 62
     7
  5
4E
 10
-0.0581
 20
-0.2075
 30
107374.1824
 11
-0.0431
 21
-0.2075
 31
107374.1824
  0
LINE
  8
1
  6
CONTINUOUS
 62
     7
  5
4F
 10
0.0219
 20
-0.2075
 30
107374.1824
 11
0.0069
 21
-0.2075
 31
107374.1824
  0
LINE
  8
1
  6
CONTINUOUS
 62
     7
  5
50
 10
-0.0394
 20
-0.2056
 30
107374.1824
 11
-0.0468
 21
-0.2094
 31
107374.1824
  0
LINE
  8
1
  6
CONTINUOUS
 62
     7
  5
51
 10
0.0032
 20
-0.2094
 30
107374.1824
 11
0.0106
 21
-0.2056
 31
107374.1824
  0
LINE
  8
1
  6
CONTINUOUS
 62
     7
  5
52
 10
-0.0431
 20
-0.1477
 30
107374.1824
 11
-0.0431
 21
-0.2113
 31
107374.1824
  0
LINE
  8
1
  6
CONTINUOUS
 62
     7
  5
53
 10
0.0069
 20
-0.1477
 30
107374.1824
 11
0.0069
 21
-0.2113
 31
107374.1824
  0
TEXT
  8
1
  6
CONTINUOUS
 62
     7
  5
54
 10
-0.0708
 20
-0.1252
 30
107374.1824
 40
0.0075
  1
0.15
 50
90.0
  7
ROMANC
210
0.0
220
0.0
230
1.0
  0
LINE
  8
1
  6
CONTINUOUS
 62
     7
  5
55
 10
-0.0745
 20
-0.1366
 30
107374.1824
 11
-0.0745
 21
-0.1439
 31
107374.1824
  0
LINE
  8
1
  6
CONTINUOUS
 62
     7
  5
56
 10
-0.0745
 20
-0.1739
 30
107374.1824
 11
-0.0745
 21
-0.1589
 31
107374.1824
  0
LINE
  8
1
  6
CONTINUOUS
 62
     7
  5
57
 10
-0.0726
 20
-0.1476
 30
107374.1824
 11
-0.0764
 21
-0.1402
 31
107374.1824
  0
LINE
  8
1
  6
CONTINUOUS
 62
     7
  5
58
 10
-0.0764
 20
-0.1552
 30
107374.1824
 11
-0.0726
 21
-0.1626
 31
107374.1824
  0
LINE
  8
1
  6
CONTINUOUS
 62
     7
  5
59
 10
-0.0469
 20
-0.1439
 30
107374.1824
 11
-0.0783
 21
-0.1439
 31
107374.1824
  0
LINE
  8
1
  6
CONTINUOUS
 62
     7
  5
5A
 10
-0.0215
 20
-0.1589
 30
107374.1824
 11
-0.0783
 21
-0.1589
 31
107374.1824
  0
TEXT
  8
1
  6
CONTINUOUS
 62
     7
  5
5B
 10
-0.1084
 20
-0.1024
 30
107374.1824
 40
0.0075
  1
1.05
 50
90.0
  7
ROMANC
210
0.0
220
0.0
230
1.0
  0
LINE
  8
1
  6
CONTINUOUS
 62
     7
  5
5C
 10
-0.1122
 20
-0.1062
 30
107374.1824
 11
-0.1122
 21
-0.1439
 31
107374.1824
  0
LINE
  8
1
  6
CONTINUOUS
 62
     7
  5
5D
 10
-0.1122
 20
-0.0767
 30
107374.1824
 11
-0.1122
 21
-0.0389
 31
107374.1824
  0
LINE
  8
1
  6
CONTINUOUS
 62
     7
  5
5E
 10
-0.1103
 20
-0.1476
 30
107374.1824
 11
-0.1141
 21
-0.1402
 31
107374.1824
  0
LINE
  8
1
  6
CONTINUOUS
 62
     7
  5
5F
 10
-0.1141
 20
-0.0352
 30
107374.1824
 11
-0.1103
 21
-0.0426
 31
107374.1824
  0
LINE
  8
1
  6
CONTINUOUS
 62
     7
  5
60
 10
-0.0469
 20
-0.1439
 30
107374.1824
 11
-0.116
 21
-0.1439
 31
107374.1824
  0
LINE
  8
1
  6
CONTINUOUS
 62
     7
  5
61
 10
-0.0669
 20
-0.0389
 30
107374.1824
 11
-0.116
 21
-0.0389
 31
107374.1824
  0
ARC
  8
1
  6
CONTINUOUS
 62
     7
  5
62
 10
-0.0181
 20
-0.0389
 30
107374.1824
 40
0.045
 50
0.0
 51
180.0
210
0.0
220
0.0
230
1.0
  0
TEXT
  8
1
  6
CONTINUOUS
 62
     7
  5
63
 10
0.0592
 20
-0.0874
 30
107374.1824
 40
0.0075
  1
1.65
 50
90.0
  7
ROMANC
210
0.0
220
0.0
230
1.0
  0
LINE
  8
1
  6
CONTINUOUS
 62
     7
  5
64
 10
0.0555
 20
-0.0912
 30
107374.1824
 11
0.0555
 21
-0.1589
 31
107374.1824
  0
LINE
  8
1
  6
CONTINUOUS
 62
     7
  5
65
 10
0.0555
 20
-0.0617
 30
107374.1824
 11
0.0555
 21
0.0061
 31
107374.1824
  0
LINE
  8
1
  6
CONTINUOUS
 62
     7
  5
66
 10
0.0574
 20
-0.1626
 30
107374.1824
 11
0.0536
 21
-0.1552
 31
107374.1824
  0
LINE
  8
1
  6
CONTINUOUS
 62
     7
  5
67
 10
0.0536
 20
0.0098
 30
107374.1824
 11
0.0574
 21
0.0024
 31
107374.1824
  0
LINE
  8
1
  6
CONTINUOUS
 62
     7
  5
68
 10
-0.0177
 20
-0.1589
 30
107374.1824
 11
0.0593
 21
-0.1589
 31
107374.1824
  0
LINE
  8
1
  6
CONTINUOUS
 62
     7
  5
69
 10
-0.0143
 20
0.0061
 30
107374.1824
 11
0.0593
 21
0.0061
 31
107374.1824
  0
TEXT
  8
1
  6
CONTINUOUS
 62
     7
  5
6A
 10
-0.03
 20
0.0422
 30
107374.1824
 40
0.0075
  1
0.90
  7
ROMANC
210
0.0
220
0.0
230
1.0
  0
LINE
  8
1
  6
CONTINUOUS
 62
     7
  5
6B
 10
-0.0338
 20
0.046
 30
107374.1824
 11
-0.0631
 21
0.046
 31
107374.1824
  0
LINE
  8
1
  6
CONTINUOUS
 62
     7
  5
6C
 10
-0.0026
 20
0.046
 30
107374.1824
 11
0.0269
 21
0.046
 31
107374.1824
  0
LINE
  8
1
  6
CONTINUOUS
 62
     7
  5
6D
 10
-0.0668
 20
0.0441
 30
107374.1824
 11
-0.0594
 21
0.0479
 31
107374.1824
  0
LINE
  8
1
  6
CONTINUOUS
 62
     7
  5
6E
 10
0.0306
 20
0.0479
 30
107374.1824
 11
0.0232
 21
0.0441
 31
107374.1824
  0
LINE
  8
1
  6
CONTINUOUS
 62
     7
  5
6F
 10
-0.0631
 20
-0.0351
 30
107374.1824
 11
-0.0631
 21
0.0498
 31
107374.1824
  0
LINE
  8
1
  6
CONTINUOUS
 62
     7
  5
70
 10
0.0269
 20
-0.0351
 30
107374.1824
 11
0.0269
 21
0.0498
 31
107374.1824
  0
ENDSEC
  0
EOF
