  0
SECTION
  2
HEADER
  9
$ACADVER
  1
AC1014
  9
$ACADMAINTVER
 70
     9
  9
$DWGCODEPAGE
  3
ANSI_1252
  9
$INSBASE
 10
0.0
 20
0.0
 30
0.0
  9
$EXTMIN
 10
-0.5249999999999995
 20
-0.7425000000000006
 30
107374.1823999999
  9
$EXTMAX
 10
9.975000000000001
 20
14.1075
 30
107374.1824
  9
$LIMMIN
 10
0.0
 20
0.0
  9
$LIMMAX
 10
12.0
 20
9.0
  9
$ORTHOMODE
 70
     0
  9
$REGENMODE
 70
     1
  9
$FILLMODE
 70
     1
  9
$QTEXTMODE
 70
     0
  9
$MIRRTEXT
 70
     1
  9
$DRAGMODE
 70
     2
  9
$LTSCALE
 40
1.0
  9
$OSMODE
 70
   943
  9
$ATTMODE
 70
     1
  9
$TEXTSIZE
 40
0.0
  9
$TRACEWID
 40
0.05
  9
$TEXTSTYLE
  7
STANDARD
  9
$CLAYER
  8
0
  9
$CELTYPE
  6
CONTINUOUS
  9
$CECOLOR
 62
   256
  9
$CELTSCALE
 40
1.0
  9
$DELOBJ
 70
     1
  9
$DISPSILH
 70
     0
  9
$DIMSCALE
 40
1.0
  9
$DIMASZ
 40
0.18
  9
$DIMEXO
 40
0.0625
  9
$DIMDLI
 40
0.38
  9
$DIMRND
 40
0.0
  9
$DIMDLE
 40
0.0
  9
$DIMEXE
 40
0.18
  9
$DIMTP
 40
0.0
  9
$DIMTM
 40
0.0
  9
$DIMTXT
 40
0.18
  9
$DIMCEN
 40
0.09
  9
$DIMTSZ
 40
0.0
  9
$DIMTOL
 70
     0
  9
$DIMLIM
 70
     0
  9
$DIMTIH
 70
     1
  9
$DIMTOH
 70
     1
  9
$DIMSE1
 70
     0
  9
$DIMSE2
 70
     0
  9
$DIMTAD
 70
     0
  9
$DIMZIN
 70
     0
  9
$DIMBLK
  1

  9
$DIMASO
 70
     1
  9
$DIMSHO
 70
     1
  9
$DIMPOST
  1

  9
$DIMAPOST
  1

  9
$DIMALT
 70
     0
  9
$DIMALTD
 70
     2
  9
$DIMALTF
 40
25.4
  9
$DIMLFAC
 40
1.0
  9
$DIMTOFL
 70
     0
  9
$DIMTVP
 40
0.0
  9
$DIMTIX
 70
     0
  9
$DIMSOXD
 70
     0
  9
$DIMSAH
 70
     0
  9
$DIMBLK1
  1

  9
$DIMBLK2
  1

  9
$DIMSTYLE
  2
STANDARD
  9
$DIMCLRD
 70
     0
  9
$DIMCLRE
 70
     0
  9
$DIMCLRT
 70
     0
  9
$DIMTFAC
 40
1.0
  9
$DIMGAP
 40
0.09
  9
$DIMJUST
 70
     0
  9
$DIMSD1
 70
     0
  9
$DIMSD2
 70
     0
  9
$DIMTOLJ
 70
     1
  9
$DIMTZIN
 70
     0
  9
$DIMALTZ
 70
     0
  9
$DIMALTTZ
 70
     0
  9
$DIMFIT
 70
     3
  9
$DIMUPT
 70
     0
  9
$DIMUNIT
 70
     2
  9
$DIMDEC
 70
     4
  9
$DIMTDEC
 70
     4
  9
$DIMALTU
 70
     2
  9
$DIMALTTD
 70
     2
  9
$DIMTXSTY
  7
STANDARD
  9
$DIMAUNIT
 70
     0
  9
$LUNITS
 70
     2
  9
$LUPREC
 70
     4
  9
$SKETCHINC
 40
0.1
  9
$FILLETRAD
 40
0.0
  9
$AUNITS
 70
     0
  9
$AUPREC
 70
     0
  9
$MENU
  1
acad
  9
$ELEVATION
 40
0.0
  9
$PELEVATION
 40
0.0
  9
$THICKNESS
 40
0.0
  9
$LIMCHECK
 70
     0
  9
$BLIPMODE
 70
     0
  9
$CHAMFERA
 40
0.0
  9
$CHAMFERB
 40
0.0
  9
$CHAMFERC
 40
0.0
  9
$CHAMFERD
 40
0.0
  9
$SKPOLY
 70
     0
  9
$TDCREATE
 40
2452328.505567130
  9
$TDUPDATE
 40
2452328.513173125
  9
$TDINDWG
 40
0.0039433796
  9
$TDUSRTIMER
 40
0.0039432060
  9
$USRTIMER
 70
     1
  9
$ANGBASE
 50
0.0
  9
$ANGDIR
 70
     0
  9
$PDMODE
 70
     0
  9
$PDSIZE
 40
0.0
  9
$PLINEWID
 40
0.0
  9
$COORDS
 70
     1
  9
$SPLFRAME
 70
     0
  9
$SPLINETYPE
 70
     6
  9
$SPLINESEGS
 70
    10
  9
$ATTDIA
 70
     0
  9
$ATTREQ
 70
     1
  9
$HANDLING
 70
 10241
  9
$HANDSEED
  5
12D
  9
$SURFTAB1
 70
     6
  9
$SURFTAB2
 70
     6
  9
$SURFTYPE
 70
     6
  9
$SURFU
 70
     6
  9
$SURFV
 70
     6
  9
$UCSNAME
  2

  9
$UCSORG
 10
0.0
 20
0.0
 30
0.0
  9
$UCSXDIR
 10
1.0
 20
0.0
 30
0.0
  9
$UCSYDIR
 10
0.0
 20
1.0
 30
0.0
  9
$PUCSNAME
  2

  9
$PUCSORG
 10
0.0
 20
0.0
 30
0.0
  9
$PUCSXDIR
 10
1.0
 20
0.0
 30
0.0
  9
$PUCSYDIR
 10
0.0
 20
1.0
 30
0.0
  9
$USERI1
 70
     0
  9
$USERI2
 70
     0
  9
$USERI3
 70
     0
  9
$USERI4
 70
     0
  9
$USERI5
 70
     0
  9
$USERR1
 40
0.0
  9
$USERR2
 40
0.0
  9
$USERR3
 40
0.0
  9
$USERR4
 40
0.0
  9
$USERR5
 40
0.0
  9
$WORLDVIEW
 70
     1
  9
$SHADEDGE
 70
     3
  9
$SHADEDIF
 70
    70
  9
$TILEMODE
 70
     1
  9
$MAXACTVP
 70
    16
  9
$PINSBASE
 10
0.0
 20
0.0
 30
0.0
  9
$PLIMCHECK
 70
     0
  9
$PEXTMIN
 10
-1.000000000000000E+20
 20
-1.000000000000000E+20
 30
-1.000000000000000E+20
  9
$PEXTMAX
 10
-1.000000000000000E+20
 20
-1.000000000000000E+20
 30
-1.000000000000000E+20
  9
$PLIMMIN
 10
0.0
 20
0.0
  9
$PLIMMAX
 10
12.0
 20
9.0
  9
$UNITMODE
 70
     0
  9
$VISRETAIN
 70
     0
  9
$PLINEGEN
 70
     1
  9
$PSLTSCALE
 70
     0
  9
$TREEDEPTH
 70
  3020
  9
$PICKSTYLE
 70
     1
  9
$CMLSTYLE
  2
STANDARD
  9
$CMLJUST
 70
     0
  9
$CMLSCALE
 40
1.0
  9
$PROXYGRAPHICS
 70
     1
  9
$MEASUREMENT
 70
     0
  0
ENDSEC
  0
SECTION
  2
CLASSES
  0
CLASS
  1
ACDBDICTIONARYWDFLT
  2
AcDbDictionaryWithDefault
  3
AutoCAD 2000
 90
        0
280
     0
281
     0
  0
CLASS
  1
ACDBPLACEHOLDER
  2
AcDbPlaceHolder
  3
AutoCAD 2000
 90
        0
280
     0
281
     0
  0
CLASS
  1
LAYOUT
  2
AcDbLayout
  3
AutoCAD 2000
 90
        0
280
     0
281
     0
  0
CLASS
  1
LONG_TRANSACTION
  2
AcDbLongTransaction
  3
AutoCAD 2000
 90
        0
280
     0
281
     0
  0
CLASS
  1
LWPOLYLINE
  2
AcDbPolyline
  3
AutoCAD 2000
 90
        0
280
     0
281
     1
  0
CLASS
  1
HATCH
  2
AcDbHatch
  3
AutoCAD 2000
 90
        0
280
     0
281
     1
  0
CLASS
  1
XRECORD
  2
AcDbXrecord
  3
AutoCAD 2000
 90
        0
280
     0
281
     0
  0
ENDSEC
  0
SECTION
  2
TABLES
  0
TABLE
  2
VPORT
  5
89
330
0
100
AcDbSymbolTable
 70
     2
  0
VPORT
  5
108
330
89
100
AcDbSymbolTableRecord
100
AcDbViewportTableRecord
  2
*ACTIVE
 70
     0
 10
0.0
 20
0.0
 11
1.0
 21
1.0
 12
4.759845000000001
 22
6.6825
 13
0.0
 23
0.0
 14
0.0
 24
0.0
 15
0.0
 25
0.0
 16
0.0
 26
0.0
 36
1.0
 17
-0.034845
 27
0.0
 37
107374.1824
 40
14.9495530726257
 41
1.683445190156599
 42
50.0
 43
0.05
 44
-0.05
 50
0.0
 51
0.0
 71
    22
 72
   100
 73
     1
 74
     0
 75
     0
 76
     0
 77
     0
 78
     0
  0
ENDTAB
  0
TABLE
  2
LTYPE
  5
86
330
0
100
AcDbSymbolTable
 70
     7
  0
LTYPE
  5
94
330
86
100
AcDbSymbolTableRecord
100
AcDbLinetypeTableRecord
  2
BYBLOCK
 70
     0
  3

 72
    65
 73
     0
 40
0.0
  0
LTYPE
  5
95
330
86
100
AcDbSymbolTableRecord
100
AcDbLinetypeTableRecord
  2
BYLAYER
 70
     0
  3

 72
    65
 73
     0
 40
0.0
  0
LTYPE
  5
96
330
86
100
AcDbSymbolTableRecord
100
AcDbLinetypeTableRecord
  2
CONTINUOUS
 70
     0
  3
Solid line
 72
    65
 73
     0
 40
0.0
  0
LTYPE
  5
A4
330
86
100
AcDbSymbolTableRecord
100
AcDbLinetypeTableRecord
  2
DOT
 70
     0
  3
. . . . . . . . . . . . . . . . . . . . . . . . . . . . . . . . .
 72
    65
 73
     2
 40
0.25
 49
0.0
 74
     0
 49
-0.25
 74
     0
  0
LTYPE
  5
A5
330
86
100
AcDbSymbolTableRecord
100
AcDbLinetypeTableRecord
  2
HIDDEN
 70
     0
  3
__ __ __ __ __ __ __ __ __ __ __ __ __ __ __ __ __ __ __ __ __ 
 72
    65
 73
     2
 40
0.375
 49
0.25
 74
     0
 49
-0.125
 74
     0
  0
LTYPE
  5
A6
330
86
100
AcDbSymbolTableRecord
100
AcDbLinetypeTableRecord
  2
DASHED
 70
     0
  3
__ __ __ __ __ __ __ __ __ __ __ __ __ __ __ __ __ __ __ __ __
 72
    65
 73
     2
 40
0.75
 49
0.5
 74
     0
 49
-0.25
 74
     0
  0
LTYPE
  5
A7
330
86
100
AcDbSymbolTableRecord
100
AcDbLinetypeTableRecord
  2
DASHDOT
 70
     0
  3
__ . __ . __ . __ . __ . __ . __ . __ . __ . __ . __ . __ . _
 72
    65
 73
     4
 40
1.0
 49
0.5
 74
     0
 49
-0.25
 74
     0
 49
0.0
 74
     0
 49
-0.25
 74
     0
  0
LTYPE
  5
A8
330
86
100
AcDbSymbolTableRecord
100
AcDbLinetypeTableRecord
  2
DIVIDE
 70
     0
  3
____ . . ____ . . ____ . . ____ . . ____ . . ____ . . ____ . .
 72
    65
 73
     6
 40
1.25
 49
0.5
 74
     0
 49
-0.25
 74
     0
 49
0.0
 74
     0
 49
-0.25
 74
     0
 49
0.0
 74
     0
 49
-0.25
 74
     0
  0
LTYPE
  5
A9
330
86
100
AcDbSymbolTableRecord
100
AcDbLinetypeTableRecord
  2
CENTER
 70
     0
  3
____ _ ____ _ ____ _ ____ _ ____ _ ____ _ ____ _ ____ _ ____ _
 72
    65
 73
     4
 40
2.0
 49
1.25
 74
     0
 49
-0.25
 74
     0
 49
0.25
 74
     0
 49
-0.25
 74
     0
  0
ENDTAB
  0
TABLE
  2
LAYER
  5
83
330
0
100
AcDbSymbolTable
 70
     5
  0
LAYER
  5
91
330
83
100
AcDbSymbolTableRecord
100
AcDbLayerTableRecord
  2
0
 70
     0
 62
     7
  6
CONTINUOUS
  0
LAYER
  5
AA
330
83
100
AcDbSymbolTableRecord
100
AcDbLayerTableRecord
  2
CONSTRUCTION_CLASS
 70
     0
 62
     7
  6
CONTINUOUS
  0
LAYER
  5
AB
330
83
100
AcDbSymbolTableRecord
100
AcDbLayerTableRecord
  2
PATTERN_CLASS
 70
     0
 62
     7
  6
CONTINUOUS
  0
LAYER
  5
AC
330
83
100
AcDbSymbolTableRecord
100
AcDbLayerTableRecord
  2
1
 70
     0
 62
     7
  6
CONTINUOUS
  0
LAYER
  5
107
330
83
100
AcDbSymbolTableRecord
100
AcDbLayerTableRecord
  2
NO_PRINT
 70
     0
 62
     7
  6
CONTINUOUS
  0
ENDTAB
  0
TABLE
  2
STYLE
  5
84
330
0
100
AcDbSymbolTable
 70
     2
  0
STYLE
  5
92
330
84
100
AcDbSymbolTableRecord
100
AcDbTextStyleTableRecord
  2
STANDARD
 70
     0
 40
0.0
 41
1.0
 50
0.0
 71
     0
 42
0.0
  3
txt
  4

  0
STYLE
  5
AD
330
84
100
AcDbSymbolTableRecord
100
AcDbTextStyleTableRecord
  2
ROMANC
 70
     0
 40
0.2
 41
1.0
 50
0.0
 71
     0
 42
0.2
  3
ROMANC
  4

  0
ENDTAB
  0
TABLE
  2
VIEW
  5
87
330
0
100
AcDbSymbolTable
 70
     0
  0
ENDTAB
  0
TABLE
  2
UCS
  5
88
330
0
100
AcDbSymbolTable
 70
     0
  0
ENDTAB
  0
TABLE
  2
APPID
  5
8A
330
0
100
AcDbSymbolTable
 70
     1
  0
APPID
  5
93
330
8A
100
AcDbSymbolTableRecord
100
AcDbRegAppTableRecord
  2
ACAD
 70
     0
  0
ENDTAB
  0
TABLE
  2
DIMSTYLE
  5
8B
330
0
100
AcDbSymbolTable
 70
     1
  0
DIMSTYLE
105
AE
330
8B
100
AcDbSymbolTableRecord
100
AcDbDimStyleTableRecord
  2
STANDARD
 70
     0
  3

  4

  5

  6

  7

 40
1.0
 41
0.18
 42
0.0625
 43
0.38
 44
0.18
 45
0.0
 46
0.0
 47
0.0
 48
0.0
140
0.18
141
0.09
142
0.0
143
25.4
144
1.0
145
0.0
146
1.0
147
0.09
 71
     0
 72
     0
 73
     1
 74
     1
 75
     0
 76
     0
 77
     0
 78
     0
170
     0
171
     2
172
     0
173
     0
174
     0
175
     0
176
     0
177
     0
178
     0
270
     2
271
     4
272
     4
273
     2
274
     2
340
92
275
     0
280
     0
281
     0
282
     0
283
     1
284
     0
285
     0
286
     0
287
     5
288
     0
  0
ENDTAB
  0
TABLE
  2
BLOCK_RECORD
  5
82
330
0
100
AcDbSymbolTable
 70
     0
  0
BLOCK_RECORD
  5
9F
102
{ACAD_XDICTIONARY
360
12B
102
}
330
82
100
AcDbSymbolTableRecord
100
AcDbBlockTableRecord
  2
*MODEL_SPACE
  0
BLOCK_RECORD
  5
9B
102
{ACAD_XDICTIONARY
360
129
102
}
330
82
100
AcDbSymbolTableRecord
100
AcDbBlockTableRecord
  2
*PAPER_SPACE
  0
ENDTAB
  0
ENDSEC
  0
SECTION
  2
BLOCKS
  0
BLOCK
  5
A0
330
9F
100
AcDbEntity
  8
0
100
AcDbBlockBegin
  2
*MODEL_SPACE
 70
     0
 10
0.0
 20
0.0
 30
0.0
  3
*MODEL_SPACE
  1

  0
ENDBLK
  5
A1
330
9F
100
AcDbEntity
  8
0
100
AcDbBlockEnd
  0
BLOCK
  5
9C
330
9B
100
AcDbEntity
 67
     1
  8
0
100
AcDbBlockBegin
  2
*PAPER_SPACE
 70
     0
 10
0.0
 20
0.0
 30
0.0
  3
*PAPER_SPACE
  1

  0
ENDBLK
  5
9D
330
9B
100
AcDbEntity
 67
     1
  8
0
100
AcDbBlockEnd
  0
ENDSEC
  0
SECTION
  2
ENTITIES
  0
TEXT
  5
B1
330
9F
100
AcDbEntity
  8
0
  6
CONTINUOUS
 62
     7
100
AcDbText
 10
4.897
 20
10.7075
 30
107374.1824
 40
0.1
  1
2
  7
ROMANC
100
AcDbText
  0
TEXT
  5
B2
330
9F
100
AcDbEntity
  8
0
  6
CONTINUOUS
 62
     7
100
AcDbText
 10
2.005
 20
11.1285
 30
107374.1824
 40
0.3
  1
ESCALA  1:50
  7
ROMANC
100
AcDbText
  0
LWPOLYLINE
  5
B3
330
9F
100
AcDbEntity
  8
0
  6
CONTINUOUS
 62
     7
100
AcDbPolyline
 90
        4
 70
     1
 43
0.0
 38
107374.1823999999
 10
-0.5249999999999995
 20
14.1075
 10
9.975000000000001
 20
14.1075
 10
9.975000000000001
 20
-0.7425000000000006
 10
-0.5249999999999995
 20
-0.7425000000000006
  0
TEXT
  5
B9
330
9F
100
AcDbEntity
  8
0
  6
CONTINUOUS
 62
     7
100
AcDbText
 10
2.024
 20
10.4595
 30
107374.1824
 40
0.3
  1
S = 110 dm
  7
ROMANC
100
AcDbText
  0
TEXT
  5
BA
330
9F
100
AcDbEntity
  8
0
  6
CONTINUOUS
 62
     7
100
AcDbText
 10
2.001
 20
9.889500000000001
 30
107374.1824
 40
0.3
  1
P = 42 dm
  7
ROMANC
100
AcDbText
  0
TEXT
  5
BB
330
9F
100
AcDbEntity
  8
0
  6
CONTINUOUS
 62
     7
100
AcDbText
 10
2.005
 20
11.7415
 30
107374.1824
 40
0.3
  1
TIPUS   NT110B
  7
ROMANC
100
AcDbText
  0
LINE
  5
BC
330
9F
100
AcDbEntity
  8
1
  6
CONTINUOUS
 62
     7
100
AcDbLine
 10
3.727
 20
6.385500000000001
 30
107374.1824
 11
3.878
 21
5.377500000000001
 31
107374.1824
  0
LINE
  5
BD
330
9F
100
AcDbEntity
  8
1
  6
CONTINUOUS
 62
     7
100
AcDbLine
 10
3.717
 20
6.3845
 30
107374.1824
 11
3.869999999999999
 21
5.367499999999999
 31
107374.1824
  0
ARC
  5
BE
330
9F
100
AcDbEntity
  8
1
  6
CONTINUOUS
 62
     7
100
AcDbCircle
 10
4.186999999999999
 20
6.387500000000001
 30
107374.1824
 40
0.46
100
AcDbArc
 50
0.0
 51
180.0
  0
ARC
  5
BF
330
9F
100
AcDbEntity
  8
1
  6
CONTINUOUS
 62
     7
100
AcDbCircle
 10
4.186999999999999
 20
6.387500000000001
 30
107374.1824
 40
0.47
100
AcDbArc
 50
0.0
 51
180.0
  0
LINE
  5
C0
330
9F
100
AcDbEntity
  8
1
  6
CONTINUOUS
 62
     7
100
AcDbLine
 10
4.494999999999999
 20
5.377500000000001
 30
107374.1824
 11
4.645999999999999
 21
6.385500000000001
 31
107374.1824
  0
LINE
  5
C1
330
9F
100
AcDbEntity
  8
1
  6
CONTINUOUS
 62
     7
100
AcDbLine
 10
4.503
 20
5.367499999999999
 30
107374.1824
 11
4.655999999999999
 21
6.3845
 31
107374.1824
  0
LINE
  5
C2
330
9F
100
AcDbEntity
  8
1
  6
CONTINUOUS
 62
     7
100
AcDbLine
 10
4.198
 20
5.377500000000001
 30
107374.1824
 11
4.494999999999999
 21
5.377500000000001
 31
107374.1824
  0
LINE
  5
C3
330
9F
100
AcDbEntity
  8
1
  6
CONTINUOUS
 62
     7
100
AcDbLine
 10
4.208999999999999
 20
5.367499999999999
 30
107374.1824
 11
4.503
 21
5.367499999999999
 31
107374.1824
  0
ARC
  5
C4
330
9F
100
AcDbEntity
  8
1
  6
CONTINUOUS
 62
     7
100
AcDbCircle
 10
4.061999999999999
 20
5.36458
 30
107374.1824
 40
0.13708
100
AcDbArc
 50
174.5932889999999
 51
5.406711
  0
ARC
  5
C5
330
9F
100
AcDbEntity
  8
1
  6
CONTINUOUS
 62
     7
100
AcDbCircle
 10
4.061999999999999
 20
5.36458
 30
107374.1824
 40
0.14708
100
AcDbArc
 50
178.8637469999999
 51
1.136252999999999
  0
LINE
  5
C6
330
9F
100
AcDbEntity
  8
1
  6
CONTINUOUS
 62
     7
100
AcDbLine
 10
3.878
 20
5.377500000000001
 30
107374.1824
 11
3.926
 21
5.377500000000001
 31
107374.1824
  0
LINE
  5
C7
330
9F
100
AcDbEntity
  8
1
  6
CONTINUOUS
 62
     7
100
AcDbLine
 10
3.869999999999999
 20
5.367499999999999
 30
107374.1824
 11
3.915
 21
5.367499999999999
 31
107374.1824
  0
LINE
  5
C8
330
9F
100
AcDbEntity
  8
1
  6
CONTINUOUS
 62
     7
100
AcDbLine
 10
3.887
 20
5.3875
 30
107374.1824
 11
3.937
 21
5.3875
 31
107374.1824
  0
LINE
  5
C9
330
9F
100
AcDbEntity
  8
1
  6
CONTINUOUS
 62
     7
100
AcDbLine
 10
3.737
 20
6.387500000000001
 30
107374.1824
 11
3.887
 21
5.3875
 31
107374.1824
  0
TEXT
  5
CA
330
9F
100
AcDbEntity
  8
1
  6
CONTINUOUS
 62
     7
100
AcDbText
 10
3.516
 20
5.0525
 30
107374.1824
 40
0.075
  1
0.05
  7
ROMANC
100
AcDbText
  0
LINE
  5
CB
330
9F
100
AcDbEntity
  8
1
  6
CONTINUOUS
 62
     7
100
AcDbLine
 10
4.086999999999999
 20
5.089500000000001
 30
107374.1824
 11
3.937
 21
5.089500000000001
 31
107374.1824
  0
LINE
  5
CC
330
9F
100
AcDbEntity
  8
1
  6
CONTINUOUS
 62
     7
100
AcDbLine
 10
3.789999999999999
 20
5.089500000000001
 30
107374.1824
 11
3.887
 21
5.089500000000001
 31
107374.1824
  0
LINE
  5
CD
330
9F
100
AcDbEntity
  8
1
  6
CONTINUOUS
 62
     7
100
AcDbLine
 10
3.899
 20
5.0705
 30
107374.1824
 11
3.975
 21
5.108500000000001
 31
107374.1824
  0
LINE
  5
CE
330
9F
100
AcDbEntity
  8
1
  6
CONTINUOUS
 62
     7
100
AcDbLine
 10
3.925
 20
5.108500000000001
 30
107374.1824
 11
3.849
 21
5.0705
 31
107374.1824
  0
LINE
  5
CF
330
9F
100
AcDbEntity
  8
1
  6
CONTINUOUS
 62
     7
100
AcDbLine
 10
3.937
 20
5.3495
 30
107374.1824
 11
3.937
 21
5.0515
 31
107374.1824
  0
LINE
  5
D0
330
9F
100
AcDbEntity
  8
1
  6
CONTINUOUS
 62
     7
100
AcDbLine
 10
3.887
 20
5.3495
 30
107374.1824
 11
3.887
 21
5.0515
 31
107374.1824
  0
ARC
  5
D1
330
9F
100
AcDbEntity
  8
1
  6
CONTINUOUS
 62
     7
100
AcDbCircle
 10
4.061999999999999
 20
5.36458
 30
107374.1824
 40
0.12708
100
AcDbArc
 50
169.611142
 51
10.388858
  0
TEXT
  5
D2
330
9F
100
AcDbEntity
  8
1
  6
CONTINUOUS
 62
     7
100
AcDbText
 10
3.513
 20
4.854500000000001
 30
107374.1824
 40
0.075
  1
0.25
  7
ROMANC
100
AcDbText
  0
LINE
  5
D3
330
9F
100
AcDbEntity
  8
1
  6
CONTINUOUS
 62
     7
100
AcDbLine
 10
3.862999999999999
 20
4.892500000000001
 30
107374.1824
 11
3.937
 21
4.892500000000001
 31
107374.1824
  0
LINE
  5
D4
330
9F
100
AcDbEntity
  8
1
  6
CONTINUOUS
 62
     7
100
AcDbLine
 10
4.336999999999999
 20
4.892500000000001
 30
107374.1824
 11
4.186999999999999
 21
4.892500000000001
 31
107374.1824
  0
LINE
  5
D5
330
9F
100
AcDbEntity
  8
1
  6
CONTINUOUS
 62
     7
100
AcDbLine
 10
3.975
 20
4.9115
 30
107374.1824
 11
3.899
 21
4.873500000000001
 31
107374.1824
  0
LINE
  5
D6
330
9F
100
AcDbEntity
  8
1
  6
CONTINUOUS
 62
     7
100
AcDbLine
 10
4.149
 20
4.873500000000001
 30
107374.1824
 11
4.224999999999999
 21
4.9115
 31
107374.1824
  0
LINE
  5
D7
330
9F
100
AcDbEntity
  8
1
  6
CONTINUOUS
 62
     7
100
AcDbLine
 10
3.937
 20
5.3495
 30
107374.1824
 11
3.937
 21
4.854500000000001
 31
107374.1824
  0
LINE
  5
D8
330
9F
100
AcDbEntity
  8
1
  6
CONTINUOUS
 62
     7
100
AcDbLine
 10
4.186999999999999
 20
5.3495
 30
107374.1824
 11
4.186999999999999
 21
4.854500000000001
 31
107374.1824
  0
LINE
  5
D9
330
9F
100
AcDbEntity
  8
1
  6
CONTINUOUS
 62
     7
100
AcDbLine
 10
4.186999999999999
 20
5.3875
 30
107374.1824
 11
4.486999999999999
 21
5.3875
 31
107374.1824
  0
TEXT
  5
DA
330
9F
100
AcDbEntity
  8
1
  6
CONTINUOUS
 62
     7
100
AcDbText
 10
4.66
 20
4.986500000000001
 30
107374.1824
 40
0.075
  1
0.30
  7
ROMANC
100
AcDbText
  0
LINE
  5
DB
330
9F
100
AcDbEntity
  8
1
  6
CONTINUOUS
 62
     7
100
AcDbLine
 10
4.036999999999999
 20
5.0235
 30
107374.1824
 11
4.186999999999999
 21
5.0235
 31
107374.1824
  0
LINE
  5
DC
330
9F
100
AcDbEntity
  8
1
  6
CONTINUOUS
 62
     7
100
AcDbLine
 10
4.621999999999999
 20
5.0235
 30
107374.1824
 11
4.486999999999999
 21
5.0235
 31
107374.1824
  0
LINE
  5
DD
330
9F
100
AcDbEntity
  8
1
  6
CONTINUOUS
 62
     7
100
AcDbLine
 10
4.224999999999999
 20
5.0425
 30
107374.1824
 11
4.149
 21
5.0045
 31
107374.1824
  0
LINE
  5
DE
330
9F
100
AcDbEntity
  8
1
  6
CONTINUOUS
 62
     7
100
AcDbLine
 10
4.448999999999999
 20
5.0045
 30
107374.1824
 11
4.524999999999999
 21
5.0425
 31
107374.1824
  0
LINE
  5
DF
330
9F
100
AcDbEntity
  8
1
  6
CONTINUOUS
 62
     7
100
AcDbLine
 10
4.186999999999999
 20
5.3495
 30
107374.1824
 11
4.186999999999999
 21
4.9855
 31
107374.1824
  0
LINE
  5
E0
330
9F
100
AcDbEntity
  8
1
  6
CONTINUOUS
 62
     7
100
AcDbLine
 10
4.486999999999999
 20
5.3495
 30
107374.1824
 11
4.486999999999999
 21
4.9855
 31
107374.1824
  0
TEXT
  5
E1
330
9F
100
AcDbEntity
  8
1
  6
CONTINUOUS
 62
     7
100
AcDbText
 10
4.067999999999999
 20
4.6065
 30
107374.1824
 40
0.075
  1
0.60
  7
ROMANC
100
AcDbText
  0
LINE
  5
E2
330
9F
100
AcDbEntity
  8
1
  6
CONTINUOUS
 62
     7
100
AcDbLine
 10
3.737
 20
4.643500000000001
 30
107374.1824
 11
3.887
 21
4.643500000000001
 31
107374.1824
  0
LINE
  5
E3
330
9F
100
AcDbEntity
  8
1
  6
CONTINUOUS
 62
     7
100
AcDbLine
 10
4.636999999999999
 20
4.643500000000001
 30
107374.1824
 11
4.486999999999999
 21
4.643500000000001
 31
107374.1824
  0
LINE
  5
E4
330
9F
100
AcDbEntity
  8
1
  6
CONTINUOUS
 62
     7
100
AcDbLine
 10
3.925
 20
4.662500000000001
 30
107374.1824
 11
3.849
 21
4.624500000000001
 31
107374.1824
  0
LINE
  5
E5
330
9F
100
AcDbEntity
  8
1
  6
CONTINUOUS
 62
     7
100
AcDbLine
 10
4.448999999999999
 20
4.624500000000001
 30
107374.1824
 11
4.524999999999999
 21
4.662500000000001
 31
107374.1824
  0
LINE
  5
E6
330
9F
100
AcDbEntity
  8
1
  6
CONTINUOUS
 62
     7
100
AcDbLine
 10
3.887
 20
5.3495
 30
107374.1824
 11
3.887
 21
4.605500000000001
 31
107374.1824
  0
LINE
  5
E7
330
9F
100
AcDbEntity
  8
1
  6
CONTINUOUS
 62
     7
100
AcDbLine
 10
4.486999999999999
 20
5.3495
 30
107374.1824
 11
4.486999999999999
 21
4.605500000000001
 31
107374.1824
  0
TEXT
  5
E8
330
9F
100
AcDbEntity
  8
1
  6
CONTINUOUS
 62
     7
100
AcDbText
 10
3.429
 20
5.5745
 30
107374.1824
 40
0.075
  1
0.15
 50
90.0
  7
ROMANC
100
AcDbText
  0
LINE
  5
E9
330
9F
100
AcDbEntity
  8
1
  6
CONTINUOUS
 62
     7
100
AcDbLine
 10
3.391
 20
5.460500000000001
 30
107374.1824
 11
3.391
 21
5.3875
 31
107374.1824
  0
LINE
  5
EA
330
9F
100
AcDbEntity
  8
1
  6
CONTINUOUS
 62
     7
100
AcDbLine
 10
3.391
 20
5.087500000000001
 30
107374.1824
 11
3.391
 21
5.2375
 31
107374.1824
  0
LINE
  5
EB
330
9F
100
AcDbEntity
  8
1
  6
CONTINUOUS
 62
     7
100
AcDbLine
 10
3.41
 20
5.350500000000001
 30
107374.1824
 11
3.372
 21
5.4245
 31
107374.1824
  0
LINE
  5
EC
330
9F
100
AcDbEntity
  8
1
  6
CONTINUOUS
 62
     7
100
AcDbLine
 10
3.372
 20
5.2745
 30
107374.1824
 11
3.41
 21
5.2005
 31
107374.1824
  0
LINE
  5
ED
330
9F
100
AcDbEntity
  8
1
  6
CONTINUOUS
 62
     7
100
AcDbLine
 10
3.849
 20
5.3875
 30
107374.1824
 11
3.353
 21
5.3875
 31
107374.1824
  0
LINE
  5
EE
330
9F
100
AcDbEntity
  8
1
  6
CONTINUOUS
 62
     7
100
AcDbLine
 10
4.035
 20
5.2375
 30
107374.1824
 11
3.353
 21
5.2375
 31
107374.1824
  0
LINE
  5
EF
330
9F
100
AcDbEntity
  8
1
  6
CONTINUOUS
 62
     7
100
AcDbLine
 10
4.486999999999999
 20
5.3875
 30
107374.1824
 11
4.636999999999999
 21
6.387500000000001
 31
107374.1824
  0
TEXT
  5
F0
330
9F
100
AcDbEntity
  8
1
  6
CONTINUOUS
 62
     7
100
AcDbText
 10
5.030999999999999
 20
5.7775
 30
107374.1824
 40
0.075
  1
1.00
 50
90.0
  7
ROMANC
100
AcDbText
  0
LINE
  5
F1
330
9F
100
AcDbEntity
  8
1
  6
CONTINUOUS
 62
     7
100
AcDbLine
 10
4.993999999999999
 20
5.739500000000001
 30
107374.1824
 11
4.993999999999999
 21
5.3875
 31
107374.1824
  0
LINE
  5
F2
330
9F
100
AcDbEntity
  8
1
  6
CONTINUOUS
 62
     7
100
AcDbLine
 10
4.993999999999999
 20
6.034500000000001
 30
107374.1824
 11
4.993999999999999
 21
6.387500000000001
 31
107374.1824
  0
LINE
  5
F3
330
9F
100
AcDbEntity
  8
1
  6
CONTINUOUS
 62
     7
100
AcDbLine
 10
5.012999999999999
 20
5.350500000000001
 30
107374.1824
 11
4.974999999999999
 21
5.4245
 31
107374.1824
  0
LINE
  5
F4
330
9F
100
AcDbEntity
  8
1
  6
CONTINUOUS
 62
     7
100
AcDbLine
 10
4.974999999999999
 20
6.4245
 30
107374.1824
 11
5.012999999999999
 21
6.3505
 31
107374.1824
  0
LINE
  5
F5
330
9F
100
AcDbEntity
  8
1
  6
CONTINUOUS
 62
     7
100
AcDbLine
 10
4.524999999999999
 20
5.3875
 30
107374.1824
 11
5.031999999999999
 21
5.3875
 31
107374.1824
  0
LINE
  5
F6
330
9F
100
AcDbEntity
  8
1
  6
CONTINUOUS
 62
     7
100
AcDbLine
 10
4.674999999999999
 20
6.387500000000001
 30
107374.1824
 11
5.031999999999999
 21
6.387500000000001
 31
107374.1824
  0
ARC
  5
F7
330
9F
100
AcDbEntity
  8
1
  6
CONTINUOUS
 62
     7
100
AcDbCircle
 10
4.186999999999999
 20
6.387500000000001
 30
107374.1824
 40
0.45
100
AcDbArc
 50
0.0
 51
180.0
  0
TEXT
  5
F8
330
9F
100
AcDbEntity
  8
1
  6
CONTINUOUS
 62
     7
100
AcDbText
 10
5.317
 20
5.9275
 30
107374.1824
 40
0.075
  1
1.60
 50
90.0
  7
ROMANC
100
AcDbText
  0
LINE
  5
F9
330
9F
100
AcDbEntity
  8
1
  6
CONTINUOUS
 62
     7
100
AcDbLine
 10
5.278999999999999
 20
5.889499999999999
 30
107374.1824
 11
5.278999999999999
 21
5.2375
 31
107374.1824
  0
LINE
  5
FA
330
9F
100
AcDbEntity
  8
1
  6
CONTINUOUS
 62
     7
100
AcDbLine
 10
5.278999999999999
 20
6.184500000000001
 30
107374.1824
 11
5.278999999999999
 21
6.8375
 31
107374.1824
  0
LINE
  5
FB
330
9F
100
AcDbEntity
  8
1
  6
CONTINUOUS
 62
     7
100
AcDbLine
 10
5.298
 20
5.2005
 30
107374.1824
 11
5.259999999999999
 21
5.2745
 31
107374.1824
  0
LINE
  5
FC
330
9F
100
AcDbEntity
  8
1
  6
CONTINUOUS
 62
     7
100
AcDbLine
 10
5.259999999999999
 20
6.874500000000001
 30
107374.1824
 11
5.298
 21
6.800500000000001
 31
107374.1824
  0
LINE
  5
FD
330
9F
100
AcDbEntity
  8
1
  6
CONTINUOUS
 62
     7
100
AcDbLine
 10
4.073
 20
5.2375
 30
107374.1824
 11
5.317
 21
5.2375
 31
107374.1824
  0
LINE
  5
FE
330
9F
100
AcDbEntity
  8
1
  6
CONTINUOUS
 62
     7
100
AcDbLine
 10
4.224999999999999
 20
6.8375
 30
107374.1824
 11
5.317
 21
6.8375
 31
107374.1824
  0
TEXT
  5
FF
330
9F
100
AcDbEntity
  8
1
  6
CONTINUOUS
 62
     7
100
AcDbText
 10
4.067999999999999
 20
7.206500000000001
 30
107374.1824
 40
0.075
  1
0.90
  7
ROMANC
100
AcDbText
  0
LINE
  5
100
330
9F
100
AcDbEntity
  8
1
  6
CONTINUOUS
 62
     7
100
AcDbLine
 10
4.029999999999999
 20
7.2435
 30
107374.1824
 11
3.737
 21
7.2435
 31
107374.1824
  0
LINE
  5
101
330
9F
100
AcDbEntity
  8
1
  6
CONTINUOUS
 62
     7
100
AcDbLine
 10
4.341999999999999
 20
7.2435
 30
107374.1824
 11
4.636999999999999
 21
7.2435
 31
107374.1824
  0
LINE
  5
102
330
9F
100
AcDbEntity
  8
1
  6
CONTINUOUS
 62
     7
100
AcDbLine
 10
3.699
 20
7.2245
 30
107374.1824
 11
3.775
 21
7.262499999999999
 31
107374.1824
  0
LINE
  5
103
330
9F
100
AcDbEntity
  8
1
  6
CONTINUOUS
 62
     7
100
AcDbLine
 10
4.674999999999999
 20
7.262499999999999
 30
107374.1824
 11
4.598999999999999
 21
7.2245
 31
107374.1824
  0
LINE
  5
104
330
9F
100
AcDbEntity
  8
1
  6
CONTINUOUS
 62
     7
100
AcDbLine
 10
3.737
 20
6.425500000000001
 30
107374.1824
 11
3.737
 21
7.281500000000001
 31
107374.1824
  0
LINE
  5
105
330
9F
100
AcDbEntity
  8
1
  6
CONTINUOUS
 62
     7
100
AcDbLine
 10
4.636999999999999
 20
6.425500000000001
 30
107374.1824
 11
4.636999999999999
 21
7.281500000000001
 31
107374.1824
  0
ENDSEC
  0
SECTION
  2
OBJECTS
  0
DICTIONARY
  5
8D
330
0
100
AcDbDictionary
  3
ACAD_GROUP
350
8E
  3
ACAD_PLOTSTYLENAME
350
8F
  3
ACAD_MLINESTYLE
350
97
  3
ACAD_PLOTSETTINGS
350
99
  3
ACAD_LAYOUT
350
9A
  3
ACDBHEADERROUNDTRIPXREC
350
109
  0
DICTIONARY
  5
12B
330
9F
100
AcDbDictionary
280
     1
  3
ACAD_LAYOUTSELFREF
360
12C
  0
DICTIONARY
  5
129
330
9B
100
AcDbDictionary
280
     1
  3
ACAD_LAYOUTSELFREF
360
12A
  0
DICTIONARY
  5
8E
102
{ACAD_REACTORS
330
8D
102
}
330
8D
100
AcDbDictionary
  0
ACDBDICTIONARYWDFLT
  5
8F
102
{ACAD_REACTORS
330
8D
102
}
330
8D
100
AcDbDictionary
281
     1
  3
Normal
350
90
100
AcDbDictionaryWithDefault
340
90
  0
DICTIONARY
  5
97
102
{ACAD_REACTORS
330
8D
102
}
330
8D
100
AcDbDictionary
  3
STANDARD
350
98
  0
DICTIONARY
  5
99
102
{ACAD_REACTORS
330
8D
102
}
330
8D
100
AcDbDictionary
  0
DICTIONARY
  5
9A
102
{ACAD_REACTORS
330
8D
102
}
330
8D
100
AcDbDictionary
  0
DICTIONARY
  5
109
102
{ACAD_REACTORS
330
8D
102
}
330
8D
100
AcDbDictionary
  3
TSTACKALIGN
350
10A
  3
TSTACKSIZE
350
10B
  3
HYPERLINKBASE
350
10C
  3
STYLESHEET
350
10D
  3
LAYOUTDICT
350
10E
  3
PLOTSETDICT
350
10F
  3
PLOTSTYLNAMDICT
350
110
  3
LWETCUNION
350
111
  3
INSUNITS
350
112
  3
CEPSNTYPE
350
113
  3
FINGERPRINTGUID
350
114
  3
VERSIONGUID
350
115
  3
PSVPSCALE
350
116
  3
PUCSORTHOREF
350
117
  3
PUCSORTHOVIEW
350
118
  3
PUCSBASE
350
119
  3
PUCSORGTOP
350
11A
  3
PUCSORGBOTTOM
350
11B
  3
PUCSORGLEFT
350
11C
  3
PUCSORGRIGHT
350
11D
  3
PUCSORGFRONT
350
11E
  3
PUCSORGBACK
350
11F
  3
UCSORTHOREF
350
120
  3
UCSORTHOVIEW
350
121
  3
UCSBASE
350
122
  3
UCSORGTOP
350
123
  3
UCSORGBOTTOM
350
124
  3
UCSORGLEFT
350
125
  3
UCSORGRIGHT
350
126
  3
UCSORGFRONT
350
127
  3
UCSORGBACK
350
128
  0
XRECORD
  5
12C
102
{ACAD_REACTORS
330
12B
102
}
330
12B
100
AcDbXrecord
340
9F
  0
XRECORD
  5
12A
102
{ACAD_REACTORS
330
129
102
}
330
129
100
AcDbXrecord
340
9B
  0
ACDBPLACEHOLDER
  5
90
102
{ACAD_REACTORS
330
8F
102
}
330
8F
100
AcDbPlaceHolder
280
     0
  0
MLINESTYLE
  5
98
102
{ACAD_REACTORS
330
97
102
}
330
97
100
AcDbMlineStyle
  2
STANDARD
 70
     0
  3

 62
   256
 51
90.0
 52
90.0
 71
     2
 49
0.5
 62
   256
  6
BYLAYER
 49
-0.5
 62
   256
  6
BYLAYER
  0
XRECORD
  5
10A
102
{ACAD_REACTORS
330
109
102
}
330
109
100
AcDbXrecord
 90
        1
  0
XRECORD
  5
10B
102
{ACAD_REACTORS
330
109
102
}
330
109
100
AcDbXrecord
 90
       70
  0
XRECORD
  5
10C
102
{ACAD_REACTORS
330
109
102
}
330
109
100
AcDbXrecord
  1

  0
XRECORD
  5
10D
102
{ACAD_REACTORS
330
109
102
}
330
109
100
AcDbXrecord
  1

  0
XRECORD
  5
10E
102
{ACAD_REACTORS
330
109
102
}
330
109
100
AcDbXrecord
340
9A
  0
XRECORD
  5
10F
102
{ACAD_REACTORS
330
109
102
}
330
109
100
AcDbXrecord
340
99
  0
XRECORD
  5
110
102
{ACAD_REACTORS
330
109
102
}
330
109
100
AcDbXrecord
340
8F
  0
XRECORD
  5
111
102
{ACAD_REACTORS
330
109
102
}
330
109
100
AcDbXrecord
 90
    10781
  0
XRECORD
  5
112
102
{ACAD_REACTORS
330
109
102
}
330
109
100
AcDbXrecord
 90
        0
  0
XRECORD
  5
113
102
{ACAD_REACTORS
330
109
102
}
330
109
100
AcDbXrecord
 90
        0
  0
XRECORD
  5
114
102
{ACAD_REACTORS
330
109
102
}
330
109
100
AcDbXrecord
  1
{B1B8F994-5866-4E71-80CE-1A4853922C33}
  0
XRECORD
  5
115
102
{ACAD_REACTORS
330
109
102
}
330
109
100
AcDbXrecord
  1
{46B4FFAC-26E9-4632-9FA7-24B837A057BD}
  0
XRECORD
  5
116
102
{ACAD_REACTORS
330
109
102
}
330
109
100
AcDbXrecord
 40
0.0
  0
XRECORD
  5
117
102
{ACAD_REACTORS
330
109
102
}
330
109
100
AcDbXrecord
340
0
  0
XRECORD
  5
118
102
{ACAD_REACTORS
330
109
102
}
330
109
100
AcDbXrecord
 70
     0
  0
XRECORD
  5
119
102
{ACAD_REACTORS
330
109
102
}
330
109
100
AcDbXrecord
340
0
  0
XRECORD
  5
11A
102
{ACAD_REACTORS
330
109
102
}
330
109
100
AcDbXrecord
 10
0.0
 20
0.0
 30
0.0
  0
XRECORD
  5
11B
102
{ACAD_REACTORS
330
109
102
}
330
109
100
AcDbXrecord
 10
0.0
 20
0.0
 30
0.0
  0
XRECORD
  5
11C
102
{ACAD_REACTORS
330
109
102
}
330
109
100
AcDbXrecord
 10
0.0
 20
0.0
 30
0.0
  0
XRECORD
  5
11D
102
{ACAD_REACTORS
330
109
102
}
330
109
100
AcDbXrecord
 10
0.0
 20
0.0
 30
0.0
  0
XRECORD
  5
11E
102
{ACAD_REACTORS
330
109
102
}
330
109
100
AcDbXrecord
 10
0.0
 20
0.0
 30
0.0
  0
XRECORD
  5
11F
102
{ACAD_REACTORS
330
109
102
}
330
109
100
AcDbXrecord
 10
0.0
 20
0.0
 30
0.0
  0
XRECORD
  5
120
102
{ACAD_REACTORS
330
109
102
}
330
109
100
AcDbXrecord
340
0
  0
XRECORD
  5
121
102
{ACAD_REACTORS
330
109
102
}
330
109
100
AcDbXrecord
 70
     0
  0
XRECORD
  5
122
102
{ACAD_REACTORS
330
109
102
}
330
109
100
AcDbXrecord
340
0
  0
XRECORD
  5
123
102
{ACAD_REACTORS
330
109
102
}
330
109
100
AcDbXrecord
 10
0.0
 20
0.0
 30
0.0
  0
XRECORD
  5
124
102
{ACAD_REACTORS
330
109
102
}
330
109
100
AcDbXrecord
 10
0.0
 20
0.0
 30
0.0
  0
XRECORD
  5
125
102
{ACAD_REACTORS
330
109
102
}
330
109
100
AcDbXrecord
 10
0.0
 20
0.0
 30
0.0
  0
XRECORD
  5
126
102
{ACAD_REACTORS
330
109
102
}
330
109
100
AcDbXrecord
 10
0.0
 20
0.0
 30
0.0
  0
XRECORD
  5
127
102
{ACAD_REACTORS
330
109
102
}
330
109
100
AcDbXrecord
 10
0.0
 20
0.0
 30
0.0
  0
XRECORD
  5
128
102
{ACAD_REACTORS
330
109
102
}
330
109
100
AcDbXrecord
 10
0.0
 20
0.0
 30
0.0
  0
ENDSEC
  0
EOF
