  0
SECTION
  2
HEADER
  9
$ACADVER
  1
AC1009
  9
$INSBASE
 10
21.379077
 20
28.858412
 30
0.0
  9
$EXTMIN
 10
22.591444
 20
-21.448265
 30
0.0
  9
$EXTMAX
 10
228.671302
 20
98.615031
 30
0.0
  9
$LIMMIN
 10
0.0
 20
0.0
  9
$LIMMAX
 10
410.0
 20
287.0
  9
$ORTHOMODE
 70
     0
  9
$REGENMODE
 70
     1
  9
$FILLMODE
 70
     1
  9
$QTEXTMODE
 70
     0
  9
$MIRRTEXT
 70
     1
  9
$DRAGMODE
 70
     2
  9
$LTSCALE
 40
25.0
  9
$OSMODE
 70
    32
  9
$ATTMODE
 70
     1
  9
$TEXTSIZE
 40
0.1
  9
$TRACEWID
 40
1.0
  9
$TEXTSTYLE
  7
ROMANC
  9
$CLAYER
  8
0
  9
$CELTYPE
  6
BYLAYER
  9
$CECOLOR
 62
   256
  9
$DIMSCALE
 40
0.0
  9
$DIMASZ
 40
0.0
  9
$DIMEXO
 40
0.1
  9
$DIMDLI
 40
7.0
  9
$DIMRND
 40
0.0
  9
$DIMDLE
 40
0.0
  9
$DIMEXE
 40
1.8
  9
$DIMTP
 40
0.0
  9
$DIMTM
 40
0.0
  9
$DIMTXT
 40
0.03
  9
$DIMCEN
 40
1.5
  9
$DIMTSZ
 40
1.0
  9
$DIMTOL
 70
     0
  9
$DIMLIM
 70
     0
  9
$DIMTIH
 70
     0
  9
$DIMTOH
 70
     0
  9
$DIMSE1
 70
     0
  9
$DIMSE2
 70
     0
  9
$DIMTAD
 70
     0
  9
$DIMZIN
 70
     0
  9
$DIMBLK
  1

  9
$DIMASO
 70
     1
  9
$DIMSHO
 70
     0
  9
$DIMPOST
  1

  9
$DIMAPOST
  1

  9
$DIMALT
 70
     0
  9
$DIMALTD
 70
     2
  9
$DIMALTF
 40
25.4
  9
$DIMLFAC
 40
1.0
  9
$DIMTOFL
 70
     1
  9
$DIMTVP
 40
0.0
  9
$DIMTIX
 70
     1
  9
$DIMSOXD
 70
     0
  9
$DIMSAH
 70
     0
  9
$DIMBLK1
  1

  9
$DIMBLK2
  1

  9
$DIMSTYLE
  2
*UNNAMED
  9
$DIMCLRD
 70
     0
  9
$DIMCLRE
 70
     0
  9
$DIMCLRT
 70
     0
  9
$DIMTFAC
 40
116.666667
  9
$DIMGAP
 40
0.09
  9
$LUNITS
 70
     2
  9
$LUPREC
 70
     2
  9
$SKETCHINC
 40
1.0
  9
$FILLETRAD
 40
0.0
  9
$AUNITS
 70
     0
  9
$AUPREC
 70
     0
  9
$MENU
  1
acad
  9
$ELEVATION
 40
0.0
  9
$PELEVATION
 40
0.0
  9
$THICKNESS
 40
0.0
  9
$LIMCHECK
 70
     0
  9
$BLIPMODE
 70
     0
  9
$CHAMFERA
 40
0.0
  9
$CHAMFERB
 40
0.0
  9
$SKPOLY
 70
     0
  9
$TDCREATE
 40
2449962.556159374
  9
$TDUPDATE
 40
2450207.412865509
  9
$TDINDWG
 40
0.0001697917
  9
$TDUSRTIMER
 40
0.0001697917
  9
$USRTIMER
 70
     1
  9
$ANGBASE
 50
0.0
  9
$ANGDIR
 70
     0
  9
$PDMODE
 70
     0
  9
$PDSIZE
 40
0.0
  9
$PLINEWID
 40
0.0
  9
$COORDS
 70
     2
  9
$SPLFRAME
 70
     0
  9
$SPLINETYPE
 70
     6
  9
$SPLINESEGS
 70
     8
  9
$ATTDIA
 70
     0
  9
$ATTREQ
 70
     1
  9
$HANDLING
 70
     0
  9
$HANDSEED
  5
0
  9
$SURFTAB1
 70
     6
  9
$SURFTAB2
 70
     6
  9
$SURFTYPE
 70
     6
  9
$SURFU
 70
     6
  9
$SURFV
 70
     6
  9
$UCSNAME
  2

  9
$UCSORG
 10
0.0
 20
0.0
 30
0.0
  9
$UCSXDIR
 10
1.0
 20
0.0
 30
0.0
  9
$UCSYDIR
 10
0.0
 20
1.0
 30
0.0
  9
$PUCSNAME
  2

  9
$PUCSORG
 10
0.0
 20
0.0
 30
0.0
  9
$PUCSXDIR
 10
1.0
 20
0.0
 30
0.0
  9
$PUCSYDIR
 10
0.0
 20
1.0
 30
0.0
  9
$USERI1
 70
     0
  9
$USERI2
 70
     0
  9
$USERI3
 70
     0
  9
$USERI4
 70
     0
  9
$USERI5
 70
     0
  9
$USERR1
 40
0.0
  9
$USERR2
 40
0.0
  9
$USERR3
 40
0.0
  9
$USERR4
 40
0.0
  9
$USERR5
 40
0.0
  9
$WORLDVIEW
 70
     1
  9
$SHADEDGE
 70
     3
  9
$SHADEDIF
 70
    70
  9
$TILEMODE
 70
     1
  9
$MAXACTVP
 70
    16
  9
$PINSBASE
 10
0.0
 20
0.0
 30
0.0
  9
$PLIMCHECK
 70
     0
  9
$PEXTMIN
 10
1.000000E+20
 20
1.000000E+20
 30
1.000000E+20
  9
$PEXTMAX
 10
-1.000000E+20
 20
-1.000000E+20
 30
-1.000000E+20
  9
$PLIMMIN
 10
0.0
 20
0.0
  9
$PLIMMAX
 10
12.0
 20
9.0
  9
$UNITMODE
 70
     0
  9
$VISRETAIN
 70
     0
  9
$PLINEGEN
 70
     0
  9
$PSLTSCALE
 70
     0
  9
$TREEDEPTH
 70
  3020
  9
$DWGCODEPAGE
  3
iso8859-1
  0
ENDSEC
  0
SECTION
  2
TABLES
  0
TABLE
  2
VPORT
 70
     1
  0
VPORT
  2
*ACTIVE
 70
     0
 10
0.0
 20
0.0
 11
1.0
 21
1.0
 12
36.802229
 22
21.085392
 13
0.0
 23
0.0
 14
1.0
 24
1.0
 15
10.0
 25
10.0
 16
0.0
 26
0.0
 36
1.0
 17
0.0
 27
0.0
 37
0.0
 40
24.508187
 41
1.65
 42
50.0
 43
0.0
 44
0.0
 50
0.0
 51
0.0
 71
     0
 72
   100
 73
     1
 74
     0
 75
     0
 76
     0
 77
     0
 78
     2
  0
ENDTAB
  0
TABLE
  2
LTYPE
 70
     1
  0
LTYPE
  2
CONTINUOUS
 70
    64
  3
Solid line
 72
    65
 73
     0
 40
0.0
  0
ENDTAB
  0
TABLE
  2
LAYER
 70
     1
  0
LAYER
  2
0
 70
    64
 62
     7
  6
CONTINUOUS
  0
ENDTAB
  0
TABLE
  2
STYLE
 70
     2
  0
STYLE
  2
STANDARD
 70
     0
 40
0.0
 41
1.0
 50
0.0
 71
     0
 42
0.1
  3
txt
  4

  0
STYLE
  2
ROMANC
 70
    64
 40
0.0
 41
1.0
 50
0.0
 71
     0
 42
0.1
  3
romanc
  4

  0
ENDTAB
  0
TABLE
  2
VIEW
 70
     0
  0
ENDTAB
  0
TABLE
  2
UCS
 70
     0
  0
ENDTAB
  0
TABLE
  2
APPID
 70
     1
  0
APPID
  2
ACAD
 70
    64
  0
ENDTAB
  0
TABLE
  2
DIMSTYLE
 70
     0
  0
ENDTAB
  0
ENDSEC
  0
SECTION
  2
BLOCKS
  0
ENDSEC
  0
SECTION
  2
ENTITIES
  0
LINE
  8
0
 10
30.753385
 20
18.161955
 30
0.0
 11
25.145174
 21
18.161955
 31
0.0
  0
LINE
  8
0
 10
33.091444
 20
28.011359
 30
0.0
 11
22.591444
 21
28.011359
 31
0.0
  0
TEXT
  8
0
 10
25.121417
 20
25.607218
 30
0.0
 40
0.3
  1
TIPUS   NT1100
  7
ROMANC
  0
LINE
  8
0
 10
22.591444
 20
13.161359
 30
0.0
 11
33.091444
 21
13.161359
 31
0.0
  0
LINE
  8
0
 10
22.591444
 20
28.011359
 30
0.0
 11
22.591444
 21
13.161359
 31
0.0
  0
LINE
  8
0
 10
25.260489
 20
18.69778
 30
0.0
 11
25.260489
 21
18.161955
 31
0.0
  0
LINE
  8
0
 10
25.314787
 20
18.247226
 30
0.0
 11
25.20619
 21
18.076684
 31
0.0
  0
TEXT
  8
0
 10
27.775454
 20
17.953889
 30
0.0
 40
0.1
  1
5.5
  7
ROMANC
  0
TEXT
  8
0
 10
25.171451
 20
23.812283
 30
0.0
 40
0.3
  1
P = 150 dm
  7
ROMANC
  0
TEXT
  8
0
 10
25.174278
 20
24.485781
 30
0.0
 40
0.3
  1
S = 1100 dm
  7
ROMANC
  0
TEXT
  8
0
 10
28.68211
 20
24.791697
 30
0.0
 40
0.1
  1
2
  7
ROMANC
  0
TEXT
  8
0
 10
25.121417
 20
25.121504
 30
0.0
 40
0.3
  1
ESCALA  1:50
  7
ROMANC
  0
LINE
  8
0
 10
33.091444
 20
13.161359
 30
0.0
 11
33.091444
 21
28.011359
 31
0.0
  0
LINE
  8
0
 10
30.753385
 20
18.69778
 30
0.0
 11
30.753385
 21
18.161955
 31
0.0
  0
LINE
  8
0
 10
30.807683
 20
18.247226
 30
0.0
 11
30.699086
 21
18.076684
 31
0.0
  0
LINE
  8
0
 10
31.415894
 20
20.783052
 30
0.0
 11
31.307297
 21
20.612509
 31
0.0
  0
LINE
  8
0
 10
31.361596
 20
18.69778
 30
0.0
 11
31.361596
 21
20.69778
 31
0.0
  0
LINE
  8
0
 10
30.753385
 20
20.69778
 30
0.0
 11
31.361596
 21
20.69778
 31
0.0
  0
TEXT
  8
0
 10
31.473936
 20
19.727675
 30
0.0
 40
0.1
  1
2.0
  7
ROMANC
  0
LINE
  8
0
 10
31.415894
 20
18.783052
 30
0.0
 11
31.307297
 21
18.612509
 31
0.0
  0
LINE
  8
0
 10
30.753385
 20
18.69778
 30
0.0
 11
31.361596
 21
18.69778
 31
0.0
  0
LINE
  8
0
 10
30.753385
 20
18.69778
 30
0.0
 11
30.753385
 21
20.69778
 31
0.0
  0
LINE
  8
0
 10
30.753385
 20
20.69778
 30
0.0
 11
25.255174
 21
20.69778
 31
0.0
  0
LINE
  8
0
 10
25.255174
 20
20.69778
 30
0.0
 11
25.255174
 21
18.69778
 31
0.0
  0
LINE
  8
0
 10
25.255174
 20
18.69778
 30
0.0
 11
26.440863
 21
18.69778
 31
0.0
  0
LINE
  8
0
 10
26.440863
 20
18.69778
 30
0.0
 11
27.310863
 21
18.69778
 31
0.0
  0
LINE
  8
0
 10
27.310863
 20
18.69778
 30
0.0
 11
30.753385
 21
18.69778
 31
0.0
  0
LINE
  8
0
 10
30.743385
 20
18.70778
 30
0.0
 11
30.743385
 21
20.68778
 31
0.0
  0
LINE
  8
0
 10
30.743385
 20
20.68778
 30
0.0
 11
25.265174
 21
20.68778
 31
0.0
  0
LINE
  8
0
 10
25.265174
 20
20.68778
 30
0.0
 11
25.265174
 21
18.70778
 31
0.0
  0
LINE
  8
0
 10
25.265174
 20
18.70778
 30
0.0
 11
30.743385
 21
18.70778
 31
0.0
  0
LINE
  8
0
 10
30.763385
 20
18.68778
 30
0.0
 11
30.763385
 21
20.70778
 31
0.0
  0
LINE
  8
0
 10
30.763385
 20
20.70778
 30
0.0
 11
25.245174
 21
20.70778
 31
0.0
  0
LINE
  8
0
 10
25.245174
 20
20.70778
 30
0.0
 11
25.245174
 21
18.68778
 31
0.0
  0
LINE
  8
0
 10
25.245174
 20
18.68778
 30
0.0
 11
30.763385
 21
18.68778
 31
0.0
  0
ENDSEC
  0
EOF
