  0
SECTION
  2
HEADER
  9
$ACADVER
  1
AC1009
  9
$INSBASE
 10
135.223006
 20
233.072038
 30
0.0
  9
$EXTMIN
 10
135.223006
 20
233.072038
 30
0.0
  9
$EXTMAX
 10
145.723006
 20
247.922038
 30
0.0
  9
$LIMMIN
 10
0.0
 20
0.0
  9
$LIMMAX
 10
410.0
 20
287.0
  9
$ORTHOMODE
 70
     0
  9
$REGENMODE
 70
     1
  9
$FILLMODE
 70
     1
  9
$QTEXTMODE
 70
     0
  9
$MIRRTEXT
 70
     1
  9
$DRAGMODE
 70
     2
  9
$LTSCALE
 40
25.0
  9
$OSMODE
 70
    32
  9
$ATTMODE
 70
     1
  9
$TEXTSIZE
 40
0.1
  9
$TRACEWID
 40
0.3
  9
$TEXTSTYLE
  7
STANDARD
  9
$CLAYER
  8
0
  9
$CELTYPE
  6
BYLAYER
  9
$CECOLOR
 62
   256
  9
$DIMSCALE
 40
1.0
  9
$DIMASZ
 40
3.5
  9
$DIMEXO
 40
0.1
  9
$DIMDLI
 40
7.0
  9
$DIMRND
 40
0.0
  9
$DIMDLE
 40
0.0
  9
$DIMEXE
 40
1.8
  9
$DIMTP
 40
0.0
  9
$DIMTM
 40
0.0
  9
$DIMTXT
 40
3.5
  9
$DIMCEN
 40
1.5
  9
$DIMTSZ
 40
0.0
  9
$DIMTOL
 70
     0
  9
$DIMLIM
 70
     0
  9
$DIMTIH
 70
     0
  9
$DIMTOH
 70
     0
  9
$DIMSE1
 70
     0
  9
$DIMSE2
 70
     0
  9
$DIMTAD
 70
     0
  9
$DIMZIN
 70
     0
  9
$DIMBLK
  1

  9
$DIMASO
 70
     1
  9
$DIMSHO
 70
     0
  9
$DIMPOST
  1

  9
$DIMAPOST
  1

  9
$DIMALT
 70
     0
  9
$DIMALTD
 70
     2
  9
$DIMALTF
 40
25.4
  9
$DIMLFAC
 40
1.0
  9
$DIMTOFL
 70
     0
  9
$DIMTVP
 40
0.0
  9
$DIMTIX
 70
     0
  9
$DIMSOXD
 70
     0
  9
$DIMSAH
 70
     0
  9
$DIMBLK1
  1

  9
$DIMBLK2
  1

  9
$DIMSTYLE
  2
*UNNAMED
  9
$DIMCLRD
 70
     0
  9
$DIMCLRE
 70
     0
  9
$DIMCLRT
 70
     0
  9
$DIMTFAC
 40
1.0
  9
$DIMGAP
 40
0.09
  9
$LUNITS
 70
     2
  9
$LUPREC
 70
     2
  9
$SKETCHINC
 40
1.0
  9
$FILLETRAD
 40
0.0
  9
$AUNITS
 70
     0
  9
$AUPREC
 70
     0
  9
$MENU
  1
acad
  9
$ELEVATION
 40
0.0
  9
$PELEVATION
 40
0.0
  9
$THICKNESS
 40
0.0
  9
$LIMCHECK
 70
     0
  9
$BLIPMODE
 70
     0
  9
$CHAMFERA
 40
0.0
  9
$CHAMFERB
 40
0.0
  9
$SKPOLY
 70
     0
  9
$TDCREATE
 40
2449960.529226736
  9
$TDUPDATE
 40
2450723.484679861
  9
$TDINDWG
 40
0.0034474537
  9
$TDUSRTIMER
 40
0.0034474537
  9
$USRTIMER
 70
     1
  9
$ANGBASE
 50
0.0
  9
$ANGDIR
 70
     0
  9
$PDMODE
 70
     0
  9
$PDSIZE
 40
0.0
  9
$PLINEWID
 40
0.0
  9
$COORDS
 70
     2
  9
$SPLFRAME
 70
     0
  9
$SPLINETYPE
 70
     6
  9
$SPLINESEGS
 70
     8
  9
$ATTDIA
 70
     0
  9
$ATTREQ
 70
     1
  9
$HANDLING
 70
     0
  9
$HANDSEED
  5
0
  9
$SURFTAB1
 70
     6
  9
$SURFTAB2
 70
     6
  9
$SURFTYPE
 70
     6
  9
$SURFU
 70
     6
  9
$SURFV
 70
     6
  9
$UCSNAME
  2

  9
$UCSORG
 10
0.0
 20
0.0
 30
0.0
  9
$UCSXDIR
 10
1.0
 20
0.0
 30
0.0
  9
$UCSYDIR
 10
0.0
 20
1.0
 30
0.0
  9
$PUCSNAME
  2

  9
$PUCSORG
 10
0.0
 20
0.0
 30
0.0
  9
$PUCSXDIR
 10
1.0
 20
0.0
 30
0.0
  9
$PUCSYDIR
 10
0.0
 20
1.0
 30
0.0
  9
$USERI1
 70
     0
  9
$USERI2
 70
     0
  9
$USERI3
 70
     0
  9
$USERI4
 70
     0
  9
$USERI5
 70
     0
  9
$USERR1
 40
0.0
  9
$USERR2
 40
0.0
  9
$USERR3
 40
0.0
  9
$USERR4
 40
0.0
  9
$USERR5
 40
0.0
  9
$WORLDVIEW
 70
     1
  9
$SHADEDGE
 70
     3
  9
$SHADEDIF
 70
    70
  9
$TILEMODE
 70
     1
  9
$MAXACTVP
 70
    16
  9
$PINSBASE
 10
0.0
 20
0.0
 30
0.0
  9
$PLIMCHECK
 70
     0
  9
$PEXTMIN
 10
1.000000E+20
 20
1.000000E+20
 30
1.000000E+20
  9
$PEXTMAX
 10
-1.000000E+20
 20
-1.000000E+20
 30
-1.000000E+20
  9
$PLIMMIN
 10
0.0
 20
0.0
  9
$PLIMMAX
 10
12.0
 20
9.0
  9
$UNITMODE
 70
     0
  9
$VISRETAIN
 70
     0
  9
$PLINEGEN
 70
     0
  9
$PSLTSCALE
 70
     0
  9
$TREEDEPTH
 70
  3020
  9
$DWGCODEPAGE
  3
iso8859-1
  0
ENDSEC
  0
SECTION
  2
TABLES
  0
TABLE
  2
VPORT
 70
     1
  0
VPORT
  2
*ACTIVE
 70
     0
 10
0.0
 20
0.0
 11
1.0
 21
1.0
 12
147.184856
 22
240.497038
 13
0.0
 23
0.0
 14
1.0
 24
1.0
 15
10.0
 25
10.0
 16
0.0
 26
0.0
 36
1.0
 17
0.0
 27
0.0
 37
0.0
 40
14.85
 41
1.611024
 42
50.0
 43
0.0
 44
0.0
 50
0.0
 51
0.0
 71
     0
 72
   100
 73
     1
 74
     0
 75
     0
 76
     0
 77
     0
 78
     0
  0
ENDTAB
  0
TABLE
  2
LTYPE
 70
     1
  0
LTYPE
  2
CONTINUOUS
 70
    64
  3
Solid Line
 72
    65
 73
     0
 40
0.0
  0
ENDTAB
  0
TABLE
  2
LAYER
 70
     5
  0
LAYER
  2
0
 70
    64
 62
     7
  6
CONTINUOUS
  0
LAYER
  2
SECCIO
 70
    64
 62
     7
  6
CONTINUOUS
  0
LAYER
  2
MESURA
 70
    64
 62
     7
  6
CONTINUOUS
  0
LAYER
  2
TEXTEP
 70
    64
 62
     7
  6
CONTINUOUS
  0
LAYER
  2
TEXTEG
 70
    64
 62
     7
  6
CONTINUOUS
  0
ENDTAB
  0
TABLE
  2
STYLE
 70
     2
  0
STYLE
  2
STANDARD
 70
    64
 40
0.0
 41
1.0
 50
0.0
 71
     0
 42
0.1
  3
txt
  4

  0
STYLE
  2
ROMANC
 70
    64
 40
0.0
 41
1.0
 50
0.0
 71
     0
 42
0.1
  3
romanc
  4

  0
ENDTAB
  0
TABLE
  2
VIEW
 70
     0
  0
ENDTAB
  0
TABLE
  2
UCS
 70
     0
  0
ENDTAB
  0
TABLE
  2
APPID
 70
     1
  0
APPID
  2
ACAD
 70
    64
  0
ENDTAB
  0
TABLE
  2
DIMSTYLE
 70
     0
  0
ENDTAB
  0
ENDSEC
  0
SECTION
  2
BLOCKS
  0
ENDSEC
  0
SECTION
  2
ENTITIES
  0
TEXT
  8
0
 10
137.172701
 20
244.228191
 30
0.0
 40
0.3
  1
P = 141.8 dm
  7
ROMANC
  0
TEXT
  8
0
 10
137.175529
 20
244.901689
 30
0.0
 40
0.3
  1
S = 1099 dm
  7
ROMANC
  0
LINE
  8
MESURA
 10
138.897909
 20
240.345612
 30
0.0
 11
137.814292
 21
240.345612
 31
0.0
  0
LINE
  8
MESURA
 10
138.397909
 20
240.045612
 30
0.0
 11
137.814292
 21
240.045612
 31
0.0
  0
LINE
  8
0
 10
135.223006
 20
247.922038
 30
0.0
 11
145.723006
 21
247.922038
 31
0.0
  0
LINE
  8
MESURA
 10
138.415771
 20
238.045612
 30
0.0
 11
137.796085
 21
238.045612
 31
0.0
  0
LINE
  8
0
 10
135.223006
 20
233.072038
 30
0.0
 11
145.723006
 21
233.072038
 31
0.0
  0
LINE
  8
0
 10
135.223006
 20
247.922038
 30
0.0
 11
135.223006
 21
233.072038
 31
0.0
  0
LINE
  8
SECCIO
 10
137.897909
 20
240.420352
 30
0.0
 11
137.897909
 21
237.984276
 31
0.0
  0
LINE
  8
MESURA
 10
137.857615
 20
238.011463
 30
0.0
 11
137.941005
 21
238.072073
 31
0.0
  0
LINE
  8
MESURA
 10
137.938663
 20
240.313854
 30
0.0
 11
137.855273
 21
240.374464
 31
0.0
  0
LINE
  8
MESURA
 10
137.940652
 20
240.014804
 30
0.0
 11
137.857262
 21
240.075414
 31
0.0
  0
TEXT
  8
TEXTEP
 10
137.656472
 20
238.93236
 30
0.0
 40
0.1
  1
2.0
  0
LINE
  8
0
 10
145.723006
 20
247.922038
 30
0.0
 11
145.723006
 21
233.072038
 31
0.0
  0
LINE
  8
SECCIO
 10
138.343945
 20
237.545612
 30
0.0
 11
143.528046
 21
237.545612
 31
0.0
  0
TEXT
  8
TEXTEP
 10
140.341865
 20
237.373215
 30
0.0
 40
0.1
  1
4.1
  0
LINE
  8
MESURA
 10
138.369408
 20
237.510584
 30
0.0
 11
138.452798
 21
237.571193
 31
0.0
  0
LINE
  8
MESURA
 10
138.415771
 20
238.045612
 30
0.0
 11
138.415771
 21
237.464464
 31
0.0
  0
LINE
  8
MESURA
 10
143.88009
 20
238.01795
 30
0.0
 11
143.96348
 21
238.07856
 31
0.0
  0
LINE
  8
MESURA
 10
143.88009
 20
238.414601
 30
0.0
 11
143.96348
 21
238.475211
 31
0.0
  0
LINE
  8
MESURA
 10
143.920333
 20
238.445612
 30
0.0
 11
143.920333
 21
238.045612
 31
0.0
  0
LINE
  8
MESURA
 10
143.920333
 20
238.045612
 30
0.0
 11
143.920333
 21
237.960017
 31
0.0
  0
TEXT
  8
TEXTEP
 10
144.010505
 20
238.220649
 30
0.0
 40
0.1
  1
0.4
  0
LINE
  8
MESURA
 10
142.477355
 20
237.512168
 30
0.0
 11
142.560745
 21
237.572778
 31
0.0
  0
LINE
  8
MESURA
 10
142.515771
 20
238.045612
 30
0.0
 11
142.515771
 21
237.447365
 31
0.0
  0
LINE
  8
MESURA
 10
143.365947
 20
237.512168
 30
0.0
 11
143.449337
 21
237.572778
 31
0.0
  0
LINE
  8
MESURA
 10
143.415771
 20
238.445612
 30
0.0
 11
143.415771
 21
237.447665
 31
0.0
  0
TEXT
  8
TEXTEP
 10
142.751919
 20
237.373215
 30
0.0
 40
0.1
  1
0.9
  0
LINE
  8
MESURA
 10
142.515771
 20
238.045612
 30
0.0
 11
144.039511
 21
238.045612
 31
0.0
  0
LINE
  8
MESURA
 10
143.415771
 20
238.445612
 30
0.0
 11
143.999744
 21
238.445612
 31
0.0
  0
LINE
  8
MESURA
 10
143.920333
 20
238.551013
 30
0.0
 11
143.920333
 21
238.445612
 31
0.0
  0
TEXT
  8
TEXTEP
 10
138.574492
 20
240.64794
 30
0.0
 40
0.1
  1
0.5
  0
LINE
  8
MESURA
 10
138.897909
 20
240.345612
 30
0.0
 11
138.897909
 21
240.629924
 31
0.0
  0
LINE
  8
MESURA
 10
138.943192
 20
240.51646
 30
0.0
 11
138.859802
 21
240.57707
 31
0.0
  0
LINE
  8
SECCIO
 10
138.995225
 20
240.547793
 30
0.0
 11
138.321493
 21
240.547793
 31
0.0
  0
LINE
  8
MESURA
 10
138.397909
 20
240.045612
 30
0.0
 11
138.397909
 21
240.629924
 31
0.0
  0
LINE
  8
MESURA
 10
138.441451
 20
240.512916
 30
0.0
 11
138.358061
 21
240.573526
 31
0.0
  0
TEXT
  8
0
 10
140.68336
 20
245.207605
 30
0.0
 40
0.1
  1
2
  7
ROMANC
  0
LINE
  8
MESURA
 10
137.897909
 20
238.045612
 30
0.0
 11
137.278223
 21
238.045612
 31
0.0
  0
LINE
  8
MESURA
 10
138.380048
 20
240.345612
 30
0.0
 11
137.29643
 21
240.345612
 31
0.0
  0
LINE
  8
SECCIO
 10
137.380048
 20
240.420352
 30
0.0
 11
137.380048
 21
237.984276
 31
0.0
  0
LINE
  8
MESURA
 10
137.339753
 20
238.011463
 30
0.0
 11
137.423143
 21
238.072073
 31
0.0
  0
TEXT
  8
TEXTEP
 10
137.101535
 20
239.169499
 30
0.0
 40
0.1
  1
2.3
  0
LINE
  8
MESURA
 10
137.420801
 20
240.313854
 30
0.0
 11
137.337411
 21
240.374464
 31
0.0
  0
TEXT
  8
TEXTEP
 10
137.673861
 20
240.13056
 30
0.0
 40
0.1
  1
0.3
  0
LINE
  8
SECCIO
 10
138.345775
 20
237.045612
 30
0.0
 11
143.529877
 21
237.045612
 31
0.0
  0
LINE
  8
MESURA
 10
138.417602
 20
237.545612
 30
0.0
 11
138.417602
 21
236.964464
 31
0.0
  0
LINE
  8
MESURA
 10
138.371238
 20
237.010584
 30
0.0
 11
138.454628
 21
237.071193
 31
0.0
  0
TEXT
  8
TEXTEP
 10
140.766351
 20
236.880625
 30
0.0
 40
0.1
  1
5.0
  0
LINE
  8
MESURA
 10
143.417602
 20
237.945612
 30
0.0
 11
143.417602
 21
236.947665
 31
0.0
  0
LINE
  8
MESURA
 10
143.367777
 20
237.012168
 30
0.0
 11
143.451167
 21
237.072778
 31
0.0
  0
LINE
  8
0
 10
143.435771
 20
238.425612
 30
0.0
 11
143.435771
 21
240.056615
 31
0.0
  0
LINE
  8
0
 10
143.435771
 20
240.056615
 30
0.0
 11
143.160671
 21
240.230955
 31
0.0
  0
LINE
  8
0
 10
143.160671
 20
240.230955
 30
0.0
 11
142.921005
 21
240.365612
 31
0.0
  0
LINE
  8
0
 10
142.921005
 20
240.365612
 30
0.0
 11
138.910232
 21
240.365612
 31
0.0
  0
LINE
  8
0
 10
138.910232
 20
240.365612
 30
0.0
 11
138.395771
 21
240.056936
 31
0.0
  0
LINE
  8
0
 10
138.395771
 20
240.056936
 30
0.0
 11
138.395771
 21
238.025612
 31
0.0
  0
LINE
  8
0
 10
138.395771
 20
238.025612
 30
0.0
 11
142.535771
 21
238.025612
 31
0.0
  0
LINE
  8
0
 10
142.535771
 20
238.025612
 30
0.0
 11
142.535771
 21
238.425612
 31
0.0
  0
LINE
  8
0
 10
142.535771
 20
238.425612
 30
0.0
 11
143.435771
 21
238.425612
 31
0.0
  0
LINE
  8
0
 10
143.425771
 20
238.435612
 30
0.0
 11
143.425771
 21
240.051113
 31
0.0
  0
LINE
  8
0
 10
143.425771
 20
240.051113
 30
0.0
 11
143.155773
 21
240.222237
 31
0.0
  0
LINE
  8
0
 10
143.155773
 20
240.222237
 30
0.0
 11
142.918388
 21
240.355612
 31
0.0
  0
LINE
  8
0
 10
142.918388
 20
240.355612
 30
0.0
 11
138.913002
 21
240.355612
 31
0.0
  0
LINE
  8
0
 10
138.913002
 20
240.355612
 30
0.0
 11
138.405771
 21
240.051274
 31
0.0
  0
LINE
  8
0
 10
138.405771
 20
240.051274
 30
0.0
 11
138.405771
 21
238.035612
 31
0.0
  0
LINE
  8
0
 10
138.405771
 20
238.035612
 30
0.0
 11
142.525771
 21
238.035612
 31
0.0
  0
LINE
  8
0
 10
142.525771
 20
238.035612
 30
0.0
 11
142.525771
 21
238.435612
 31
0.0
  0
LINE
  8
0
 10
142.525771
 20
238.435612
 30
0.0
 11
143.425771
 21
238.435612
 31
0.0
  0
LINE
  8
0
 10
143.415771
 20
238.437523
 30
0.0
 11
143.415771
 21
240.045612
 31
0.0
  0
LINE
  8
0
 10
143.415771
 20
240.045612
 30
0.0
 11
143.150874
 21
240.213519
 31
0.0
  0
LINE
  8
0
 10
143.150874
 20
240.213519
 30
0.0
 11
142.915771
 21
240.345612
 31
0.0
  0
LINE
  8
0
 10
142.915771
 20
240.345612
 30
0.0
 11
138.915771
 21
240.345612
 31
0.0
  0
LINE
  8
0
 10
138.915771
 20
240.345612
 30
0.0
 11
138.415771
 21
240.045612
 31
0.0
  0
LINE
  8
0
 10
138.415771
 20
240.045612
 30
0.0
 11
138.415771
 21
238.045612
 31
0.0
  0
LINE
  8
0
 10
138.415771
 20
238.045612
 30
0.0
 11
142.515771
 21
238.045612
 31
0.0
  0
LINE
  8
0
 10
142.515771
 20
238.045612
 30
0.0
 11
142.515771
 21
238.445612
 31
0.0
  0
LINE
  8
0
 10
142.515771
 20
238.445612
 30
0.0
 11
143.415771
 21
238.445612
 31
0.0
  0
LINE
  8
0
 10
143.415771
 20
238.445612
 30
0.0
 11
143.415771
 21
238.437523
 31
0.0
  0
LINE
  8
0
 10
143.405771
 20
238.437523
 30
0.0
 11
143.405771
 21
238.455612
 31
0.0
  0
LINE
  8
0
 10
143.405771
 20
238.455612
 30
0.0
 11
143.425771
 21
238.455612
 31
0.0
  0
LINE
  8
0
 10
143.425771
 20
238.455612
 30
0.0
 11
143.425771
 21
238.437523
 31
0.0
  0
LINE
  8
0
 10
143.405771
 20
238.437523
 30
0.0
 11
143.405771
 21
238.455612
 31
0.0
  0
LINE
  8
0
 10
143.405771
 20
238.455612
 30
0.0
 11
143.425771
 21
238.455612
 31
0.0
  0
LINE
  8
0
 10
143.425771
 20
238.455612
 30
0.0
 11
143.425771
 21
238.437523
 31
0.0
  0
TEXT
  8
0
 10
137.152165
 20
246.279283
 30
0.0
 40
0.3
  1
TIPUS   NT1099
  7
ROMANC
  0
TEXT
  8
0
 10
137.149337
 20
245.605785
 30
0.0
 40
0.3
  1
ESCALA    1:50
  7
ROMANC
  0
ENDSEC
  0
EOF
