  0
SECTION
  2
HEADER
  9
$ACADVER
  1
AC1009
  9
$INSBASE
 10
142.452697
 20
-3.360901
 30
0.0
  9
$EXTMIN
 10
22.591444
 20
-21.448265
 30
0.0
  9
$EXTMAX
 10
228.671302
 20
98.615031
 30
0.0
  9
$LIMMIN
 10
0.0
 20
0.0
  9
$LIMMAX
 10
410.0
 20
287.0
  9
$ORTHOMODE
 70
     0
  9
$REGENMODE
 70
     1
  9
$FILLMODE
 70
     1
  9
$QTEXTMODE
 70
     0
  9
$MIRRTEXT
 70
     1
  9
$DRAGMODE
 70
     2
  9
$LTSCALE
 40
25.0
  9
$OSMODE
 70
    32
  9
$ATTMODE
 70
     1
  9
$TEXTSIZE
 40
0.1
  9
$TRACEWID
 40
1.0
  9
$TEXTSTYLE
  7
ROMANC
  9
$CLAYER
  8
0
  9
$CELTYPE
  6
BYLAYER
  9
$CECOLOR
 62
   256
  9
$DIMSCALE
 40
0.0
  9
$DIMASZ
 40
0.0
  9
$DIMEXO
 40
0.1
  9
$DIMDLI
 40
7.0
  9
$DIMRND
 40
0.0
  9
$DIMDLE
 40
0.0
  9
$DIMEXE
 40
1.8
  9
$DIMTP
 40
0.0
  9
$DIMTM
 40
0.0
  9
$DIMTXT
 40
0.03
  9
$DIMCEN
 40
1.5
  9
$DIMTSZ
 40
1.0
  9
$DIMTOL
 70
     0
  9
$DIMLIM
 70
     0
  9
$DIMTIH
 70
     0
  9
$DIMTOH
 70
     0
  9
$DIMSE1
 70
     0
  9
$DIMSE2
 70
     0
  9
$DIMTAD
 70
     0
  9
$DIMZIN
 70
     0
  9
$DIMBLK
  1

  9
$DIMASO
 70
     1
  9
$DIMSHO
 70
     0
  9
$DIMPOST
  1

  9
$DIMAPOST
  1

  9
$DIMALT
 70
     0
  9
$DIMALTD
 70
     2
  9
$DIMALTF
 40
25.4
  9
$DIMLFAC
 40
1.0
  9
$DIMTOFL
 70
     1
  9
$DIMTVP
 40
0.0
  9
$DIMTIX
 70
     1
  9
$DIMSOXD
 70
     0
  9
$DIMSAH
 70
     0
  9
$DIMBLK1
  1

  9
$DIMBLK2
  1

  9
$DIMSTYLE
  2
*UNNAMED
  9
$DIMCLRD
 70
     0
  9
$DIMCLRE
 70
     0
  9
$DIMCLRT
 70
     0
  9
$DIMTFAC
 40
116.666667
  9
$DIMGAP
 40
0.09
  9
$LUNITS
 70
     2
  9
$LUPREC
 70
     2
  9
$SKETCHINC
 40
1.0
  9
$FILLETRAD
 40
0.0
  9
$AUNITS
 70
     0
  9
$AUPREC
 70
     0
  9
$MENU
  1
acad
  9
$ELEVATION
 40
0.0
  9
$PELEVATION
 40
0.0
  9
$THICKNESS
 40
0.0
  9
$LIMCHECK
 70
     0
  9
$BLIPMODE
 70
     0
  9
$CHAMFERA
 40
0.0
  9
$CHAMFERB
 40
0.0
  9
$SKPOLY
 70
     0
  9
$TDCREATE
 40
2449967.363799305
  9
$TDUPDATE
 40
2450207.412084143
  9
$TDINDWG
 40
0.0002421296
  9
$TDUSRTIMER
 40
0.0002421296
  9
$USRTIMER
 70
     1
  9
$ANGBASE
 50
0.0
  9
$ANGDIR
 70
     0
  9
$PDMODE
 70
     0
  9
$PDSIZE
 40
0.0
  9
$PLINEWID
 40
0.0
  9
$COORDS
 70
     2
  9
$SPLFRAME
 70
     0
  9
$SPLINETYPE
 70
     6
  9
$SPLINESEGS
 70
     8
  9
$ATTDIA
 70
     0
  9
$ATTREQ
 70
     1
  9
$HANDLING
 70
     0
  9
$HANDSEED
  5
0
  9
$SURFTAB1
 70
     6
  9
$SURFTAB2
 70
     6
  9
$SURFTYPE
 70
     6
  9
$SURFU
 70
     6
  9
$SURFV
 70
     6
  9
$UCSNAME
  2

  9
$UCSORG
 10
0.0
 20
0.0
 30
0.0
  9
$UCSXDIR
 10
1.0
 20
0.0
 30
0.0
  9
$UCSYDIR
 10
0.0
 20
1.0
 30
0.0
  9
$PUCSNAME
  2

  9
$PUCSORG
 10
0.0
 20
0.0
 30
0.0
  9
$PUCSXDIR
 10
1.0
 20
0.0
 30
0.0
  9
$PUCSYDIR
 10
0.0
 20
1.0
 30
0.0
  9
$USERI1
 70
     0
  9
$USERI2
 70
     0
  9
$USERI3
 70
     0
  9
$USERI4
 70
     0
  9
$USERI5
 70
     0
  9
$USERR1
 40
0.0
  9
$USERR2
 40
0.0
  9
$USERR3
 40
0.0
  9
$USERR4
 40
0.0
  9
$USERR5
 40
0.0
  9
$WORLDVIEW
 70
     1
  9
$SHADEDGE
 70
     3
  9
$SHADEDIF
 70
    70
  9
$TILEMODE
 70
     1
  9
$MAXACTVP
 70
    16
  9
$PINSBASE
 10
0.0
 20
0.0
 30
0.0
  9
$PLIMCHECK
 70
     0
  9
$PEXTMIN
 10
1.000000E+20
 20
1.000000E+20
 30
1.000000E+20
  9
$PEXTMAX
 10
-1.000000E+20
 20
-1.000000E+20
 30
-1.000000E+20
  9
$PLIMMIN
 10
0.0
 20
0.0
  9
$PLIMMAX
 10
12.0
 20
9.0
  9
$UNITMODE
 70
     0
  9
$VISRETAIN
 70
     0
  9
$PLINEGEN
 70
     0
  9
$PSLTSCALE
 70
     0
  9
$TREEDEPTH
 70
  3020
  9
$DWGCODEPAGE
  3
iso8859-1
  0
ENDSEC
  0
SECTION
  2
TABLES
  0
TABLE
  2
VPORT
 70
     1
  0
VPORT
  2
*ACTIVE
 70
     0
 10
0.0
 20
0.0
 11
1.0
 21
1.0
 12
145.212294
 22
5.922524
 13
0.0
 23
0.0
 14
1.0
 24
1.0
 15
10.0
 25
10.0
 16
0.0
 26
0.0
 36
1.0
 17
0.0
 27
0.0
 37
0.0
 40
19.995598
 41
1.65
 42
50.0
 43
0.0
 44
0.0
 50
0.0
 51
0.0
 71
     0
 72
   100
 73
     1
 74
     0
 75
     0
 76
     0
 77
     0
 78
     2
  0
ENDTAB
  0
TABLE
  2
LTYPE
 70
     1
  0
LTYPE
  2
CONTINUOUS
 70
    64
  3
Solid line
 72
    65
 73
     0
 40
0.0
  0
ENDTAB
  0
TABLE
  2
LAYER
 70
     2
  0
LAYER
  2
0
 70
    64
 62
     7
  6
CONTINUOUS
  0
LAYER
  2
MESURA
 70
    64
 62
     7
  6
CONTINUOUS
  0
ENDTAB
  0
TABLE
  2
STYLE
 70
     2
  0
STYLE
  2
STANDARD
 70
     0
 40
0.0
 41
1.0
 50
0.0
 71
     0
 42
0.1
  3
txt
  4

  0
STYLE
  2
ROMANC
 70
    64
 40
0.0
 41
1.0
 50
0.0
 71
     0
 42
0.1
  3
romanc
  4

  0
ENDTAB
  0
TABLE
  2
VIEW
 70
     0
  0
ENDTAB
  0
TABLE
  2
UCS
 70
     0
  0
ENDTAB
  0
TABLE
  2
APPID
 70
     1
  0
APPID
  2
ACAD
 70
    64
  0
ENDTAB
  0
TABLE
  2
DIMSTYLE
 70
     0
  0
ENDTAB
  0
ENDSEC
  0
SECTION
  2
BLOCKS
  0
ENDSEC
  0
SECTION
  2
ENTITIES
  0
LINE
  8
0
 10
142.452697
 20
11.489099
 30
0.0
 11
142.452697
 21
-3.360901
 31
0.0
  0
LINE
  8
0
 10
152.952697
 20
-3.360901
 30
0.0
 11
152.952697
 21
11.489099
 31
0.0
  0
LINE
  8
0
 10
142.452697
 20
-3.360901
 30
0.0
 11
152.952697
 21
-3.360901
 31
0.0
  0
LINE
  8
0
 10
152.952697
 20
11.489099
 30
0.0
 11
142.452697
 21
11.489099
 31
0.0
  0
TEXT
  8
0
 10
146.61942
 20
0.408044
 30
0.0
 40
0.1
  1
0.7
  7
ROMANC
  0
TEXT
  8
0
 10
146.628275
 20
0.673522
 30
0.0
 40
0.1
  1
0.4
  7
ROMANC
  0
TEXT
  8
0
 10
147.540341
 20
1.018642
 30
0.0
 40
0.1
  1
0.15
  7
ROMANC
  0
TEXT
  8
0
 10
147.531486
 20
1.584994
 30
0.0
 40
0.1
  1
0.9
  7
ROMANC
  0
TEXT
  8
0
 10
148.174236
 20
1.770828
 30
0.0
 40
0.1
  1
1.51
  7
ROMANC
  0
TEXT
  8
0
 10
146.69026
 20
3.142462
 30
0.0
 40
0.1
  1
0.8
  7
ROMANC
  0
LINE
  8
MESURA
  6
BYBLOCK
 62
     0
 10
147.376355
 20
1.021673
 30
0.0
 11
147.576355
 21
1.221673
 31
0.0
  0
LINE
  8
MESURA
  6
BYBLOCK
 62
     0
 10
147.854568
 20
0.871673
 30
0.0
 11
148.054568
 21
1.071673
 31
0.0
  0
LINE
  8
0
 10
147.476355
 20
0.971673
 30
0.0
 11
147.954568
 21
0.971673
 31
0.0
  0
LINE
  8
MESURA
  6
BYBLOCK
 62
     0
 10
146.460822
 20
0.742817
 30
0.0
 11
146.660822
 21
0.942817
 31
0.0
  0
LINE
  8
MESURA
  6
BYBLOCK
 62
     0
 10
146.860822
 20
0.742817
 30
0.0
 11
147.060822
 21
0.942817
 31
0.0
  0
LINE
  8
MESURA
  6
BYBLOCK
 62
     0
 10
146.310822
 20
0.504215
 30
0.0
 11
146.510822
 21
0.704215
 31
0.0
  0
LINE
  8
MESURA
  6
BYBLOCK
 62
     0
 10
147.010822
 20
0.504215
 30
0.0
 11
147.210822
 21
0.704215
 31
0.0
  0
LINE
  8
MESURA
  6
BYBLOCK
 62
     0
 10
147.376355
 20
0.871673
 30
0.0
 11
147.576355
 21
1.071673
 31
0.0
  0
LINE
  8
MESURA
  6
BYBLOCK
 62
     0
 10
147.376355
 20
1.921673
 30
0.0
 11
147.576355
 21
2.121673
 31
0.0
  0
LINE
  8
MESURA
  6
BYBLOCK
 62
     0
 10
147.854568
 20
2.381673
 30
0.0
 11
148.054568
 21
2.581673
 31
0.0
  0
LINE
  8
MESURA
  6
BYBLOCK
 62
     0
 10
146.210822
 20
2.850162
 30
0.0
 11
146.410822
 21
3.050162
 31
0.0
  0
LINE
  8
MESURA
  6
BYBLOCK
 62
     0
 10
147.110822
 20
2.850162
 30
0.0
 11
147.310822
 21
3.050162
 31
0.0
  0
LINE
  8
0
 10
146.760822
 20
2.481673
 30
0.0
 11
147.954568
 21
2.481673
 31
0.0
  0
LINE
  8
0
 10
147.210822
 20
2.021673
 30
0.0
 11
147.210822
 21
2.950162
 31
0.0
  0
LINE
  8
0
 10
146.310822
 20
2.021673
 30
0.0
 11
146.310822
 21
2.950162
 31
0.0
  0
LINE
  8
0
 10
147.110822
 20
1.121673
 30
0.0
 11
147.110822
 21
0.604215
 31
0.0
  0
LINE
  8
0
 10
146.410822
 20
1.121673
 30
0.0
 11
146.410822
 21
0.604215
 31
0.0
  0
LINE
  8
0
 10
146.560822
 20
1.121673
 30
0.0
 11
146.560822
 21
0.842817
 31
0.0
  0
LINE
  8
0
 10
146.960822
 20
1.121673
 30
0.0
 11
146.960822
 21
0.842817
 31
0.0
  0
LINE
  8
0
 10
146.760822
 20
0.971673
 30
0.0
 11
147.476355
 21
0.971673
 31
0.0
  0
LINE
  8
0
 10
147.110822
 20
1.121673
 30
0.0
 11
147.476355
 21
1.121673
 31
0.0
  0
LINE
  8
0
 10
147.210822
 20
2.021673
 30
0.0
 11
147.476355
 21
2.021673
 31
0.0
  0
LINE
  8
0
 10
146.410822
 20
0.604215
 30
0.0
 11
147.110822
 21
0.604215
 31
0.0
  0
LINE
  8
0
 10
146.560822
 20
0.842817
 30
0.0
 11
146.960822
 21
0.842817
 31
0.0
  0
LINE
  8
0
 10
146.560822
 20
0.842817
 30
0.0
 11
146.960822
 21
0.842817
 31
0.0
  0
LINE
  8
0
 10
146.560822
 20
0.842817
 30
0.0
 11
146.960822
 21
0.842817
 31
0.0
  0
LINE
  8
0
 10
147.210822
 20
2.950162
 30
0.0
 11
146.310822
 21
2.950162
 31
0.0
  0
LINE
  8
0
 10
147.954568
 20
0.971673
 30
0.0
 11
147.954568
 21
2.481673
 31
0.0
  0
LINE
  8
0
 10
147.476355
 20
0.971673
 30
0.0
 11
147.476355
 21
2.021673
 31
0.0
  0
TEXT
  8
0
 10
144.924473
 20
7.372839
 30
0.0
 40
0.3
  1
P = 40.9 dm
  7
ROMANC
  0
TEXT
  8
0
 10
148.503595
 20
8.306571
 30
0.0
 40
0.1
  1
2
  7
ROMANC
  0
TEXT
  8
0
 10
144.98267
 20
8.599244
 30
0.0
 40
0.3
  1
ESCALA  1:50
  7
ROMANC
  0
TEXT
  8
0
 10
144.98267
 20
9.084959
 30
0.0
 40
0.3
  1
TIPUS   NT109
  7
ROMANC
  0
TEXT
  8
0
 10
144.995764
 20
8.000655
 30
0.0
 40
0.3
  1
S =  109 dm
  7
ROMANC
  0
ARC
  8
0
 10
146.310822
 20
2.021673
 30
0.0
 40
0.0
 50
0.0
 51
0.0
  0
ARC
  8
0
 10
146.310822
 20
2.021673
 30
0.0
 40
0.0
 50
0.0
 51
0.0
  0
ARC
  8
0
 10
146.674665
 20
1.121673
 30
0.0
 40
0.113843
 50
180.0
 51
208.911201
  0
ARC
  8
0
 10
146.716122
 20
1.144569
 30
0.0
 40
0.161203
 50
208.911201
 51
233.130102
  0
ARC
  8
0
 10
146.743163
 20
1.180624
 30
0.0
 40
0.206271
 50
233.130102
 51
252.742061
  0
ARC
  8
0
 10
146.760822
 20
1.237466
 30
0.0
 40
0.265793
 50
252.742061
 51
270.0
  0
ARC
  8
0
 10
146.760822
 20
1.237466
 30
0.0
 40
0.265793
 50
270.0
 51
287.257939
  0
ARC
  8
0
 10
146.77848
 20
1.180624
 30
0.0
 40
0.206271
 50
287.257939
 51
306.869898
  0
ARC
  8
0
 10
146.805521
 20
1.144569
 30
0.0
 40
0.161203
 50
306.869898
 51
331.088799
  0
ARC
  8
0
 10
146.846978
 20
1.121673
 30
0.0
 40
0.113843
 50
331.088799
 51
0.0
  0
LINE
  8
0
 10
146.960822
 20
1.121673
 30
0.0
 11
147.110822
 21
1.121673
 31
0.0
  0
LINE
  8
0
 10
147.110822
 20
1.121673
 30
0.0
 11
147.210822
 21
2.021673
 31
0.0
  0
ARC
  8
0
 10
146.740819
 20
2.021673
 30
0.0
 40
0.470003
 50
360.0
 51
22.05823
  0
ARC
  8
0
 10
146.750555
 20
2.025618
 30
0.0
 40
0.459497
 50
22.05823
 51
44.370401
  0
ARC
  8
0
 10
146.756797
 20
2.031724
 30
0.0
 40
0.450765
 50
44.370401
 51
67.051311
  0
ARC
  8
0
 10
146.760822
 20
2.041229
 30
0.0
 40
0.440444
 50
67.051311
 51
90.0
  0
ARC
  8
0
 10
146.760822
 20
2.041229
 30
0.0
 40
0.440444
 50
90.0
 51
112.948689
  0
ARC
  8
0
 10
146.764846
 20
2.031724
 30
0.0
 40
0.450765
 50
112.948689
 51
135.629599
  0
ARC
  8
0
 10
146.771088
 20
2.025618
 30
0.0
 40
0.459497
 50
135.629599
 51
157.94177
  0
ARC
  8
0
 10
146.780825
 20
2.021673
 30
0.0
 40
0.470003
 50
157.94177
 51
180.0
  0
LINE
  8
0
 10
146.310822
 20
2.021673
 30
0.0
 11
146.410822
 21
1.121673
 31
0.0
  0
LINE
  8
0
 10
146.410822
 20
1.121673
 30
0.0
 11
146.560822
 21
1.121673
 31
0.0
  0
ARC
  8
0
 10
146.674665
 20
1.121673
 30
0.0
 40
0.103843
 50
174.473908
 51
208.911201
  0
ARC
  8
0
 10
146.716122
 20
1.144569
 30
0.0
 40
0.151203
 50
208.911201
 51
233.130102
  0
ARC
  8
0
 10
146.743163
 20
1.180624
 30
0.0
 40
0.196271
 50
233.130102
 51
252.742061
  0
ARC
  8
0
 10
146.760822
 20
1.237466
 30
0.0
 40
0.255793
 50
252.742061
 51
270.0
  0
ARC
  8
0
 10
146.760822
 20
1.237466
 30
0.0
 40
0.255793
 50
270.0
 51
287.257939
  0
ARC
  8
0
 10
146.77848
 20
1.180624
 30
0.0
 40
0.196271
 50
287.257939
 51
306.869898
  0
ARC
  8
0
 10
146.805521
 20
1.144569
 30
0.0
 40
0.151203
 50
306.869898
 51
331.088799
  0
ARC
  8
0
 10
146.846978
 20
1.121673
 30
0.0
 40
0.103843
 50
331.088799
 51
5.526092
  0
LINE
  8
0
 10
146.950339
 20
1.131673
 30
0.0
 11
147.101871
 21
1.131673
 31
0.0
  0
LINE
  8
0
 10
147.101871
 20
1.131673
 30
0.0
 11
147.200821
 21
2.022224
 31
0.0
  0
ARC
  8
0
 10
146.740819
 20
2.021673
 30
0.0
 40
0.460003
 50
0.068615
 51
22.05823
  0
ARC
  8
0
 10
146.750555
 20
2.025618
 30
0.0
 40
0.449497
 50
22.05823
 51
44.370401
  0
ARC
  8
0
 10
146.756797
 20
2.031724
 30
0.0
 40
0.440765
 50
44.370401
 51
67.051311
  0
ARC
  8
0
 10
146.760822
 20
2.041229
 30
0.0
 40
0.430444
 50
67.051311
 51
90.0
  0
ARC
  8
0
 10
146.760822
 20
2.041229
 30
0.0
 40
0.430444
 50
90.0
 51
112.948689
  0
ARC
  8
0
 10
146.764846
 20
2.031724
 30
0.0
 40
0.440765
 50
112.948689
 51
135.629599
  0
ARC
  8
0
 10
146.771088
 20
2.025618
 30
0.0
 40
0.449497
 50
135.629599
 51
157.94177
  0
ARC
  8
0
 10
146.780825
 20
2.021673
 30
0.0
 40
0.460003
 50
157.94177
 51
179.931385
  0
LINE
  8
0
 10
146.320822
 20
2.022224
 30
0.0
 11
146.419772
 21
1.131673
 31
0.0
  0
LINE
  8
0
 10
146.419772
 20
1.131673
 30
0.0
 11
146.571304
 21
1.131673
 31
0.0
  0
ARC
  8
0
 10
146.674665
 20
1.121673
 30
0.0
 40
0.123843
 50
184.63152
 51
208.911201
  0
ARC
  8
0
 10
146.716122
 20
1.144569
 30
0.0
 40
0.171203
 50
208.911201
 51
233.130102
  0
ARC
  8
0
 10
146.743163
 20
1.180624
 30
0.0
 40
0.216271
 50
233.130102
 51
252.742061
  0
ARC
  8
0
 10
146.760822
 20
1.237466
 30
0.0
 40
0.275793
 50
252.742061
 51
270.0
  0
ARC
  8
0
 10
146.760822
 20
1.237466
 30
0.0
 40
0.275793
 50
270.0
 51
287.257939
  0
ARC
  8
0
 10
146.77848
 20
1.180624
 30
0.0
 40
0.216271
 50
287.257939
 51
306.869898
  0
ARC
  8
0
 10
146.805521
 20
1.144569
 30
0.0
 40
0.171203
 50
306.869898
 51
331.088799
  0
ARC
  8
0
 10
146.846978
 20
1.121673
 30
0.0
 40
0.123843
 50
331.088799
 51
355.36848
  0
LINE
  8
0
 10
146.970417
 20
1.111673
 30
0.0
 11
147.119772
 21
1.111673
 31
0.0
  0
LINE
  8
0
 10
147.119772
 20
1.111673
 30
0.0
 11
147.220821
 21
2.021116
 31
0.0
  0
ARC
  8
0
 10
146.740819
 20
2.021673
 30
0.0
 40
0.480003
 50
359.933542
 51
22.05823
  0
ARC
  8
0
 10
146.750555
 20
2.025618
 30
0.0
 40
0.469497
 50
22.05823
 51
44.370401
  0
ARC
  8
0
 10
146.756797
 20
2.031724
 30
0.0
 40
0.460765
 50
44.370401
 51
67.051311
  0
ARC
  8
0
 10
146.760822
 20
2.041229
 30
0.0
 40
0.450444
 50
67.051311
 51
90.0
  0
ARC
  8
0
 10
146.760822
 20
2.041229
 30
0.0
 40
0.450444
 50
90.0
 51
112.948689
  0
ARC
  8
0
 10
146.764846
 20
2.031724
 30
0.0
 40
0.460765
 50
112.948689
 51
135.629599
  0
ARC
  8
0
 10
146.771088
 20
2.025618
 30
0.0
 40
0.469497
 50
135.629599
 51
157.94177
  0
ARC
  8
0
 10
146.780825
 20
2.021673
 30
0.0
 40
0.480003
 50
157.94177
 51
180.066458
  0
LINE
  8
0
 10
146.300822
 20
2.021116
 30
0.0
 11
146.401871
 21
1.111673
 31
0.0
  0
LINE
  8
0
 10
146.401871
 20
1.111673
 30
0.0
 11
146.551226
 21
1.111673
 31
0.0
  0
ENDSEC
  0
EOF
