  0
SECTION
  2
HEADER
  9
$ACADVER
  1
AC1009
  9
$INSBASE
 10
105.464027
 20
-4.528761
 30
0.0
  9
$EXTMIN
 10
281.395795
 20
29.897444
 30
0.0
  9
$EXTMAX
 10
291.895795
 20
44.747444
 30
0.0
  9
$LIMMIN
 10
0.0
 20
0.0
  9
$LIMMAX
 10
410.0
 20
287.0
  9
$ORTHOMODE
 70
     1
  9
$REGENMODE
 70
     1
  9
$FILLMODE
 70
     1
  9
$QTEXTMODE
 70
     0
  9
$MIRRTEXT
 70
     1
  9
$DRAGMODE
 70
     2
  9
$LTSCALE
 40
25.0
  9
$OSMODE
 70
     0
  9
$ATTMODE
 70
     1
  9
$TEXTSIZE
 40
0.1
  9
$TRACEWID
 40
1.0
  9
$TEXTSTYLE
  7
ROMANC
  9
$CLAYER
  8
0
  9
$CELTYPE
  6
BYLAYER
  9
$CECOLOR
 62
   256
  9
$DIMSCALE
 40
1.5
  9
$DIMASZ
 40
0.1
  9
$DIMEXO
 40
0.01
  9
$DIMDLI
 40
7.0
  9
$DIMRND
 40
0.0
  9
$DIMDLE
 40
0.0
  9
$DIMEXE
 40
0.01
  9
$DIMTP
 40
0.0
  9
$DIMTM
 40
0.0
  9
$DIMTXT
 40
0.05
  9
$DIMCEN
 40
0.1
  9
$DIMTSZ
 40
0.0
  9
$DIMTOL
 70
     0
  9
$DIMLIM
 70
     0
  9
$DIMTIH
 70
     0
  9
$DIMTOH
 70
     0
  9
$DIMSE1
 70
     0
  9
$DIMSE2
 70
     0
  9
$DIMTAD
 70
     1
  9
$DIMZIN
 70
     0
  9
$DIMBLK
  1

  9
$DIMASO
 70
     1
  9
$DIMSHO
 70
     0
  9
$DIMPOST
  1

  9
$DIMAPOST
  1

  9
$DIMALT
 70
     0
  9
$DIMALTD
 70
     2
  9
$DIMALTF
 40
25.4
  9
$DIMLFAC
 40
1.0
  9
$DIMTOFL
 70
     1
  9
$DIMTVP
 40
0.0
  9
$DIMTIX
 70
     1
  9
$DIMSOXD
 70
     0
  9
$DIMSAH
 70
     0
  9
$DIMBLK1
  1

  9
$DIMBLK2
  1

  9
$DIMSTYLE
  2
*UNNAMED
  9
$DIMCLRD
 70
     0
  9
$DIMCLRE
 70
     0
  9
$DIMCLRT
 70
     0
  9
$DIMTFAC
 40
70.0
  9
$DIMGAP
 40
0.09
  9
$LUNITS
 70
     2
  9
$LUPREC
 70
     2
  9
$SKETCHINC
 40
1.0
  9
$FILLETRAD
 40
0.0
  9
$AUNITS
 70
     0
  9
$AUPREC
 70
     0
  9
$MENU
  1
acad
  9
$ELEVATION
 40
0.0
  9
$PELEVATION
 40
0.0
  9
$THICKNESS
 40
0.0
  9
$LIMCHECK
 70
     0
  9
$BLIPMODE
 70
     0
  9
$CHAMFERA
 40
0.0
  9
$CHAMFERB
 40
0.0
  9
$SKPOLY
 70
     0
  9
$TDCREATE
 40
2450305.554557986
  9
$TDUPDATE
 40
2450878.740860301
  9
$TDINDWG
 40
0.0962501157
  9
$TDUSRTIMER
 40
0.0962501157
  9
$USRTIMER
 70
     1
  9
$ANGBASE
 50
0.0
  9
$ANGDIR
 70
     0
  9
$PDMODE
 70
     0
  9
$PDSIZE
 40
0.0
  9
$PLINEWID
 40
0.0
  9
$COORDS
 70
     2
  9
$SPLFRAME
 70
     0
  9
$SPLINETYPE
 70
     6
  9
$SPLINESEGS
 70
     8
  9
$ATTDIA
 70
     0
  9
$ATTREQ
 70
     1
  9
$HANDLING
 70
     0
  9
$HANDSEED
  5
0
  9
$SURFTAB1
 70
     6
  9
$SURFTAB2
 70
     6
  9
$SURFTYPE
 70
     6
  9
$SURFU
 70
     6
  9
$SURFV
 70
     6
  9
$UCSNAME
  2

  9
$UCSORG
 10
0.0
 20
0.0
 30
0.0
  9
$UCSXDIR
 10
1.0
 20
0.0
 30
0.0
  9
$UCSYDIR
 10
0.0
 20
1.0
 30
0.0
  9
$PUCSNAME
  2

  9
$PUCSORG
 10
0.0
 20
0.0
 30
0.0
  9
$PUCSXDIR
 10
1.0
 20
0.0
 30
0.0
  9
$PUCSYDIR
 10
0.0
 20
1.0
 30
0.0
  9
$USERI1
 70
     0
  9
$USERI2
 70
     0
  9
$USERI3
 70
     0
  9
$USERI4
 70
     0
  9
$USERI5
 70
     0
  9
$USERR1
 40
0.0
  9
$USERR2
 40
0.0
  9
$USERR3
 40
0.0
  9
$USERR4
 40
0.0
  9
$USERR5
 40
0.0
  9
$WORLDVIEW
 70
     1
  9
$SHADEDGE
 70
     3
  9
$SHADEDIF
 70
    70
  9
$TILEMODE
 70
     1
  9
$MAXACTVP
 70
    16
  9
$PINSBASE
 10
0.0
 20
0.0
 30
0.0
  9
$PLIMCHECK
 70
     0
  9
$PEXTMIN
 10
1.000000E+20
 20
1.000000E+20
 30
1.000000E+20
  9
$PEXTMAX
 10
-1.000000E+20
 20
-1.000000E+20
 30
-1.000000E+20
  9
$PLIMMIN
 10
0.0
 20
0.0
  9
$PLIMMAX
 10
12.0
 20
9.0
  9
$UNITMODE
 70
     0
  9
$VISRETAIN
 70
     0
  9
$PLINEGEN
 70
     0
  9
$PSLTSCALE
 70
     0
  9
$TREEDEPTH
 70
  3020
  9
$DWGCODEPAGE
  3
iso8859-1
  0
ENDSEC
  0
SECTION
  2
TABLES
  0
TABLE
  2
VPORT
 70
     2
  0
VPORT
  2
*ACTIVE
 70
     0
 10
0.0
 20
0.0
 11
1.0
 21
1.0
 12
292.715233
 22
37.322444
 13
0.0
 23
0.0
 14
1.0
 24
1.0
 15
10.0
 25
10.0
 16
0.0
 26
0.0
 36
1.0
 17
0.0
 27
0.0
 37
0.0
 40
14.85
 41
1.524503
 42
50.0
 43
0.0
 44
0.0
 50
0.0
 51
0.0
 71
     0
 72
   100
 73
     1
 74
     0
 75
     0
 76
     0
 77
     0
 78
     1
  0
ENDTAB
  0
TABLE
  2
LTYPE
 70
     1
  0
LTYPE
  2
CONTINUOUS
 70
    64
  3
Solid line
 72
    65
 73
     0
 40
0.0
  0
ENDTAB
  0
TABLE
  2
LAYER
 70
     3
  0
LAYER
  2
0
 70
    64
 62
     7
  6
CONTINUOUS
  0
LAYER
  2
MESURA
 70
     0
 62
     7
  6
CONTINUOUS
  0
LAYER
  2
DEFPOINTS
 70
    64
 62
     7
  6
CONTINUOUS
  0
ENDTAB
  0
TABLE
  2
STYLE
 70
     2
  0
STYLE
  2
STANDARD
 70
     0
 40
0.0
 41
1.0
 50
0.0
 71
     0
 42
0.1
  3
txt
  4

  0
STYLE
  2
ROMANC
 70
    64
 40
0.0
 41
1.0
 50
0.0
 71
     0
 42
0.1
  3
romanc
  4

  0
ENDTAB
  0
TABLE
  2
VIEW
 70
     0
  0
ENDTAB
  0
TABLE
  2
UCS
 70
     0
  0
ENDTAB
  0
TABLE
  2
APPID
 70
     1
  0
APPID
  2
ACAD
 70
    64
  0
ENDTAB
  0
TABLE
  2
DIMSTYLE
 70
     1
  0
DIMSTYLE
  2
SILVIA
 70
     0
  3

  4

  5

  6

  7

 40
1.5
 41
0.1
 42
0.01
 43
7.0
 44
0.01
 45
0.0
 46
0.0
 47
0.0
 48
0.0
140
0.05
141
0.1
142
0.0
143
25.4
144
1.0
145
0.0
146
70.0
147
0.09
 71
     0
 72
     0
 73
     0
 74
     0
 75
     0
 76
     0
 77
     1
 78
     0
170
     0
171
     2
172
     1
173
     0
174
     1
175
     0
176
     0
177
     0
178
     0
  0
ENDTAB
  0
ENDSEC
  0
SECTION
  2
BLOCKS
  0
BLOCK
  8
0
  2
*D0
 70
    65
 10
0.0
 20
0.0
 30
0.0
  3
*D
  0
LINE
  8
0
  6
BYBLOCK
 62
     0
 10
286.8099
 20
34.410837
 30
0.0
 11
286.8099
 21
34.131627
 31
0.0
  0
LINE
  8
0
  6
BYBLOCK
 62
     0
 10
288.3099
 20
34.410837
 30
0.0
 11
288.3099
 21
34.131627
 31
0.0
  0
LINE
  8
0
  6
BYBLOCK
 62
     0
 10
286.9599
 20
34.146627
 30
0.0
 11
288.1599
 21
34.146627
 31
0.0
  0
SOLID
  8
0
  6
BYBLOCK
 62
     0
 10
286.9599
 20
34.171627
 30
0.0
 11
286.9599
 21
34.121627
 31
0.0
 12
286.8099
 22
34.146627
 32
0.0
 13
286.8099
 23
34.146627
 33
0.0
  0
SOLID
  8
0
  6
BYBLOCK
 62
     0
 10
288.1599
 20
34.171627
 30
0.0
 11
288.1599
 21
34.121627
 31
0.0
 12
288.3099
 22
34.146627
 32
0.0
 13
288.3099
 23
34.146627
 33
0.0
  0
TEXT
  8
0
  6
BYBLOCK
 62
     0
 10
287.429543
 20
34.184127
 30
0.0
 40
0.075
  1
1.50
  7
ROMANC
 72
     1
 11
287.5599
 21
34.221627
 31
0.0
 73
     2
  0
POINT
  8
DEFPOINTS
  6
BYBLOCK
 62
     0
 10
286.8099
 20
34.425837
 30
0.0
  0
POINT
  8
DEFPOINTS
  6
BYBLOCK
 62
     0
 10
288.3099
 20
34.425837
 30
0.0
  0
POINT
  8
DEFPOINTS
  6
BYBLOCK
 62
     0
 10
288.3099
 20
34.146627
 30
0.0
  0
ENDBLK
  8
0
  0
BLOCK
  8
0
  2
*D2
 70
    65
 10
0.0
 20
0.0
 30
0.0
  3
*D
  0
LINE
  8
0
  6
BYBLOCK
 62
     0
 10
286.8099
 20
34.410837
 30
0.0
 11
286.8099
 21
34.131627
 31
0.0
  0
LINE
  8
0
  6
BYBLOCK
 62
     0
 10
285.9099
 20
34.910837
 30
0.0
 11
285.9099
 21
34.131627
 31
0.0
  0
LINE
  8
0
  6
BYBLOCK
 62
     0
 10
286.6599
 20
34.146627
 30
0.0
 11
286.0599
 21
34.146627
 31
0.0
  0
SOLID
  8
0
  6
BYBLOCK
 62
     0
 10
286.6599
 20
34.171627
 30
0.0
 11
286.6599
 21
34.121627
 31
0.0
 12
286.8099
 22
34.146627
 32
0.0
 13
286.8099
 23
34.146627
 33
0.0
  0
SOLID
  8
0
  6
BYBLOCK
 62
     0
 10
286.0599
 20
34.171627
 30
0.0
 11
286.0599
 21
34.121627
 31
0.0
 12
285.9099
 22
34.146627
 32
0.0
 13
285.9099
 23
34.146627
 33
0.0
  0
TEXT
  8
0
  6
BYBLOCK
 62
     0
 10
286.2349
 20
34.184127
 30
0.0
 40
0.075
  1
0.90
  7
ROMANC
 72
     1
 11
286.3599
 21
34.221627
 31
0.0
 73
     2
  0
POINT
  8
DEFPOINTS
  6
BYBLOCK
 62
     0
 10
286.8099
 20
34.425837
 30
0.0
  0
POINT
  8
DEFPOINTS
  6
BYBLOCK
 62
     0
 10
285.9099
 20
34.925837
 30
0.0
  0
POINT
  8
DEFPOINTS
  6
BYBLOCK
 62
     0
 10
285.9099
 20
34.146627
 30
0.0
  0
ENDBLK
  8
0
  0
BLOCK
  8
0
  2
*D3
 70
    65
 10
0.0
 20
0.0
 30
0.0
  3
*D
  0
LINE
  8
0
  6
BYBLOCK
 62
     0
 10
286.7949
 20
34.925837
 30
0.0
 11
285.615563
 21
34.925837
 31
0.0
  0
LINE
  8
0
  6
BYBLOCK
 62
     0
 10
286.7949
 20
34.425837
 30
0.0
 11
285.615563
 21
34.425837
 31
0.0
  0
LINE
  8
0
  6
BYBLOCK
 62
     0
 10
285.630563
 20
35.075837
 30
0.0
 11
285.630563
 21
35.225837
 31
0.0
  0
LINE
  8
0
  6
BYBLOCK
 62
     0
 10
285.630563
 20
34.275837
 30
0.0
 11
285.630563
 21
34.125837
 31
0.0
  0
SOLID
  8
0
  6
BYBLOCK
 62
     0
 10
285.605563
 20
35.075837
 30
0.0
 11
285.655563
 21
35.075837
 31
0.0
 12
285.630563
 22
34.925837
 32
0.0
 13
285.630563
 23
34.925837
 33
0.0
  0
SOLID
  8
0
  6
BYBLOCK
 62
     0
 10
285.605563
 20
34.275837
 30
0.0
 11
285.655563
 21
34.275837
 31
0.0
 12
285.630563
 22
34.425837
 32
0.0
 13
285.630563
 23
34.425837
 33
0.0
  0
LINE
  8
0
  6
BYBLOCK
 62
     0
 10
285.630563
 20
34.925837
 30
0.0
 11
285.630563
 21
34.425837
 31
0.0
  0
TEXT
  8
0
  6
BYBLOCK
 62
     0
 10
285.593063
 20
34.550837
 30
0.0
 40
0.075
  1
0.50
 50
90.0
  7
ROMANC
 72
     1
 11
285.555563
 21
34.675837
 31
0.0
 73
     2
  0
POINT
  8
DEFPOINTS
  6
BYBLOCK
 62
     0
 10
286.8099
 20
34.925837
 30
0.0
  0
POINT
  8
DEFPOINTS
  6
BYBLOCK
 62
     0
 10
286.8099
 20
34.425837
 30
0.0
  0
POINT
  8
DEFPOINTS
  6
BYBLOCK
 62
     0
 10
285.630563
 20
34.425837
 30
0.0
  0
ENDBLK
  8
0
  0
BLOCK
  8
0
  2
*D4
 70
    65
 10
0.0
 20
0.0
 30
0.0
  3
*D
  0
LINE
  8
0
  6
BYBLOCK
 62
     0
 10
285.8949
 20
34.925837
 30
0.0
 11
285.615563
 21
34.925837
 31
0.0
  0
LINE
  8
0
  6
BYBLOCK
 62
     0
 10
285.8949
 20
35.675837
 30
0.0
 11
285.615563
 21
35.675837
 31
0.0
  0
LINE
  8
0
  6
BYBLOCK
 62
     0
 10
285.630563
 20
34.775837
 30
0.0
 11
285.630563
 21
34.625837
 31
0.0
  0
LINE
  8
0
  6
BYBLOCK
 62
     0
 10
285.630563
 20
35.825837
 30
0.0
 11
285.630563
 21
35.975837
 31
0.0
  0
SOLID
  8
0
  6
BYBLOCK
 62
     0
 10
285.605563
 20
34.775837
 30
0.0
 11
285.655563
 21
34.775837
 31
0.0
 12
285.630563
 22
34.925837
 32
0.0
 13
285.630563
 23
34.925837
 33
0.0
  0
SOLID
  8
0
  6
BYBLOCK
 62
     0
 10
285.605563
 20
35.825837
 30
0.0
 11
285.655563
 21
35.825837
 31
0.0
 12
285.630563
 22
35.675837
 32
0.0
 13
285.630563
 23
35.675837
 33
0.0
  0
LINE
  8
0
  6
BYBLOCK
 62
     0
 10
285.630563
 20
34.925837
 30
0.0
 11
285.630563
 21
35.675837
 31
0.0
  0
TEXT
  8
0
  6
BYBLOCK
 62
     0
 10
285.593063
 20
35.175837
 30
0.0
 40
0.075
  1
0.75
 50
90.0
  7
ROMANC
 72
     1
 11
285.555563
 21
35.300837
 31
0.0
 73
     2
  0
POINT
  8
DEFPOINTS
  6
BYBLOCK
 62
     0
 10
285.9099
 20
34.925837
 30
0.0
  0
POINT
  8
DEFPOINTS
  6
BYBLOCK
 62
     0
 10
285.9099
 20
35.675837
 30
0.0
  0
POINT
  8
DEFPOINTS
  6
BYBLOCK
 62
     0
 10
285.630563
 20
35.675837
 30
0.0
  0
ENDBLK
  8
0
  0
BLOCK
  8
0
  2
*D7
 70
    65
 10
0.0
 20
0.0
 30
0.0
  3
*D
  0
LINE
  8
0
  6
BYBLOCK
 62
     0
 10
285.9099
 20
34.910837
 30
0.0
 11
285.9099
 21
33.914465
 31
0.0
  0
LINE
  8
0
  6
BYBLOCK
 62
     0
 10
288.3099
 20
34.410837
 30
0.0
 11
288.3099
 21
33.914465
 31
0.0
  0
LINE
  8
0
  6
BYBLOCK
 62
     0
 10
286.0599
 20
33.929465
 30
0.0
 11
288.1599
 21
33.929465
 31
0.0
  0
SOLID
  8
0
  6
BYBLOCK
 62
     0
 10
286.0599
 20
33.954465
 30
0.0
 11
286.0599
 21
33.904465
 31
0.0
 12
285.9099
 22
33.929465
 32
0.0
 13
285.9099
 23
33.929465
 33
0.0
  0
SOLID
  8
0
  6
BYBLOCK
 62
     0
 10
288.1599
 20
33.954465
 30
0.0
 11
288.1599
 21
33.904465
 31
0.0
 12
288.3099
 22
33.929465
 32
0.0
 13
288.3099
 23
33.929465
 33
0.0
  0
TEXT
  8
0
  6
BYBLOCK
 62
     0
 10
286.9849
 20
33.966965
 30
0.0
 40
0.075
  1
2.40
  7
ROMANC
 72
     1
 11
287.1099
 21
34.004465
 31
0.0
 73
     2
  0
POINT
  8
DEFPOINTS
  6
BYBLOCK
 62
     0
 10
285.9099
 20
34.925837
 30
0.0
  0
POINT
  8
DEFPOINTS
  6
BYBLOCK
 62
     0
 10
288.3099
 20
34.425837
 30
0.0
  0
POINT
  8
DEFPOINTS
  6
BYBLOCK
 62
     0
 10
288.3099
 20
33.929465
 30
0.0
  0
ENDBLK
  8
0
  0
BLOCK
  8
0
  2
*D8
 70
    65
 10
0.0
 20
0.0
 30
0.0
  3
*D
  0
LINE
  8
0
  6
BYBLOCK
 62
     0
 10
287.0949
 20
36.875837
 30
0.0
 11
285.356919
 21
36.875837
 31
0.0
  0
LINE
  8
0
  6
BYBLOCK
 62
     0
 10
287.0949
 20
34.425837
 30
0.0
 11
285.356919
 21
34.425837
 31
0.0
  0
LINE
  8
0
  6
BYBLOCK
 62
     0
 10
285.371919
 20
36.725837
 30
0.0
 11
285.371919
 21
34.575837
 31
0.0
  0
SOLID
  8
0
  6
BYBLOCK
 62
     0
 10
285.346919
 20
36.725837
 30
0.0
 11
285.396919
 21
36.725837
 31
0.0
 12
285.371919
 22
36.875837
 32
0.0
 13
285.371919
 23
36.875837
 33
0.0
  0
SOLID
  8
0
  6
BYBLOCK
 62
     0
 10
285.346919
 20
34.575837
 30
0.0
 11
285.396919
 21
34.575837
 31
0.0
 12
285.371919
 22
34.425837
 32
0.0
 13
285.371919
 23
34.425837
 33
0.0
  0
TEXT
  8
0
  6
BYBLOCK
 62
     0
 10
285.334419
 20
35.525837
 30
0.0
 40
0.075
  1
2.45
 50
90.0
  7
ROMANC
 72
     1
 11
285.296919
 21
35.650837
 31
0.0
 73
     2
  0
POINT
  8
DEFPOINTS
  6
BYBLOCK
 62
     0
 10
287.1099
 20
36.875837
 30
0.0
  0
POINT
  8
DEFPOINTS
  6
BYBLOCK
 62
     0
 10
287.1099
 20
34.425837
 30
0.0
  0
POINT
  8
DEFPOINTS
  6
BYBLOCK
 62
     0
 10
285.371919
 20
34.425837
 30
0.0
  0
ENDBLK
  8
0
  0
BLOCK
  8
0
  2
*D9
 70
    65
 10
0.0
 20
0.0
 30
0.0
  3
*D
  0
LINE
  8
0
  6
BYBLOCK
 62
     0
 10
284.924892
 20
34.409226
 30
0.0
 11
284.924892
 21
34.121442
 31
0.0
  0
LINE
  8
0
  6
BYBLOCK
 62
     0
 10
285.624892
 20
34.409226
 30
0.0
 11
285.624892
 21
34.121442
 31
0.0
  0
LINE
  8
0
  6
BYBLOCK
 62
     0
 10
284.774892
 20
34.136442
 30
0.0
 11
284.624892
 21
34.136442
 31
0.0
  0
LINE
  8
0
  6
BYBLOCK
 62
     0
 10
285.774892
 20
34.136442
 30
0.0
 11
285.924892
 21
34.136442
 31
0.0
  0
SOLID
  8
0
  6
BYBLOCK
 62
     0
 10
284.774892
 20
34.161442
 30
0.0
 11
284.774892
 21
34.111442
 31
0.0
 12
284.924892
 22
34.136442
 32
0.0
 13
284.924892
 23
34.136442
 33
0.0
  0
SOLID
  8
0
  6
BYBLOCK
 62
     0
 10
285.774892
 20
34.161442
 30
0.0
 11
285.774892
 21
34.111442
 31
0.0
 12
285.624892
 22
34.136442
 32
0.0
 13
285.624892
 23
34.136442
 33
0.0
  0
LINE
  8
0
  6
BYBLOCK
 62
     0
 10
284.924892
 20
34.136442
 30
0.0
 11
285.624892
 21
34.136442
 31
0.0
  0
TEXT
  8
0
  6
BYBLOCK
 62
     0
 10
285.149892
 20
34.173942
 30
0.0
 40
0.075
  1
0.70
  7
ROMANC
 72
     1
 11
285.274892
 21
34.211442
 31
0.0
 73
     2
  0
POINT
  8
DEFPOINTS
  6
BYBLOCK
 62
     0
 10
284.924892
 20
34.424226
 30
0.0
  0
POINT
  8
DEFPOINTS
  6
BYBLOCK
 62
     0
 10
285.624892
 20
34.424226
 30
0.0
  0
POINT
  8
DEFPOINTS
  6
BYBLOCK
 62
     0
 10
285.624892
 20
34.136442
 30
0.0
  0
ENDBLK
  8
0
  0
BLOCK
  8
0
  2
*D10
 70
    65
 10
0.0
 20
0.0
 30
0.0
  3
*D
  0
LINE
  8
0
  6
BYBLOCK
 62
     0
 10
284.874892
 20
35.539226
 30
0.0
 11
284.874892
 21
35.539226
 31
0.0
  0
LINE
  8
0
  6
BYBLOCK
 62
     0
 10
285.674892
 20
35.539226
 30
0.0
 11
285.674892
 21
35.539226
 31
0.0
  0
LINE
  8
0
  6
BYBLOCK
 62
     0
 10
285.024892
 20
35.524226
 30
0.0
 11
285.524892
 21
35.524226
 31
0.0
  0
SOLID
  8
0
  6
BYBLOCK
 62
     0
 10
285.024892
 20
35.549226
 30
0.0
 11
285.024892
 21
35.499226
 31
0.0
 12
284.874892
 22
35.524226
 32
0.0
 13
284.874892
 23
35.524226
 33
0.0
  0
SOLID
  8
0
  6
BYBLOCK
 62
     0
 10
285.524892
 20
35.549226
 30
0.0
 11
285.524892
 21
35.499226
 31
0.0
 12
285.674892
 22
35.524226
 32
0.0
 13
285.674892
 23
35.524226
 33
0.0
  0
TEXT
  8
0
  6
BYBLOCK
 62
     0
 10
285.149892
 20
35.561726
 30
0.0
 40
0.075
  1
0.80
  7
ROMANC
 72
     1
 11
285.274892
 21
35.599226
 31
0.0
 73
     2
  0
POINT
  8
DEFPOINTS
  6
BYBLOCK
 62
     0
 10
284.874892
 20
35.524226
 30
0.0
  0
POINT
  8
DEFPOINTS
  6
BYBLOCK
 62
     0
 10
285.674892
 20
35.524226
 30
0.0
  0
POINT
  8
DEFPOINTS
  6
BYBLOCK
 62
     0
 10
285.674892
 20
35.524226
 30
0.0
  0
ENDBLK
  8
0
  0
BLOCK
  8
0
  2
*D11
 70
    65
 10
0.0
 20
0.0
 30
0.0
  3
*D
  0
LINE
  8
0
  6
BYBLOCK
 62
     0
 10
285.639892
 20
34.424226
 30
0.0
 11
286.008498
 21
34.424226
 31
0.0
  0
LINE
  8
0
  6
BYBLOCK
 62
     0
 10
285.689892
 20
35.524226
 30
0.0
 11
286.008498
 21
35.524226
 31
0.0
  0
LINE
  8
0
  6
BYBLOCK
 62
     0
 10
285.993498
 20
34.574226
 30
0.0
 11
285.993498
 21
35.374226
 31
0.0
  0
SOLID
  8
0
  6
BYBLOCK
 62
     0
 10
285.968498
 20
34.574226
 30
0.0
 11
286.018498
 21
34.574226
 31
0.0
 12
285.993498
 22
34.424226
 32
0.0
 13
285.993498
 23
34.424226
 33
0.0
  0
SOLID
  8
0
  6
BYBLOCK
 62
     0
 10
285.968498
 20
35.374226
 30
0.0
 11
286.018498
 21
35.374226
 31
0.0
 12
285.993498
 22
35.524226
 32
0.0
 13
285.993498
 23
35.524226
 33
0.0
  0
TEXT
  8
0
  6
BYBLOCK
 62
     0
 10
285.955998
 20
34.843869
 30
0.0
 40
0.075
  1
1.10
 50
90.0
  7
ROMANC
 72
     1
 11
285.918498
 21
34.974226
 31
0.0
 73
     2
  0
POINT
  8
DEFPOINTS
  6
BYBLOCK
 62
     0
 10
285.624892
 20
34.424226
 30
0.0
  0
POINT
  8
DEFPOINTS
  6
BYBLOCK
 62
     0
 10
285.674892
 20
35.524226
 30
0.0
  0
POINT
  8
DEFPOINTS
  6
BYBLOCK
 62
     0
 10
285.993498
 20
35.524226
 30
0.0
  0
ENDBLK
  8
0
  0
BLOCK
  8
0
  2
*D12
 70
    65
 10
0.0
 20
0.0
 30
0.0
  3
*D
  0
LINE
  8
0
  6
BYBLOCK
 62
     0
 10
285.689892
 20
35.524226
 30
0.0
 11
286.008498
 21
35.524226
 31
0.0
  0
LINE
  8
0
  6
BYBLOCK
 62
     0
 10
285.289892
 20
35.924226
 30
0.0
 11
286.008498
 21
35.924226
 31
0.0
  0
LINE
  8
0
  6
BYBLOCK
 62
     0
 10
285.993498
 20
35.374226
 30
0.0
 11
285.993498
 21
35.224226
 31
0.0
  0
LINE
  8
0
  6
BYBLOCK
 62
     0
 10
285.993498
 20
36.074226
 30
0.0
 11
285.993498
 21
36.224226
 31
0.0
  0
SOLID
  8
0
  6
BYBLOCK
 62
     0
 10
285.968498
 20
35.374226
 30
0.0
 11
286.018498
 21
35.374226
 31
0.0
 12
285.993498
 22
35.524226
 32
0.0
 13
285.993498
 23
35.524226
 33
0.0
  0
SOLID
  8
0
  6
BYBLOCK
 62
     0
 10
285.968498
 20
36.074226
 30
0.0
 11
286.018498
 21
36.074226
 31
0.0
 12
285.993498
 22
35.924226
 32
0.0
 13
285.993498
 23
35.924226
 33
0.0
  0
LINE
  8
0
  6
BYBLOCK
 62
     0
 10
285.993498
 20
35.524226
 30
0.0
 11
285.993498
 21
35.924226
 31
0.0
  0
TEXT
  8
0
  6
BYBLOCK
 62
     0
 10
285.955998
 20
35.599226
 30
0.0
 40
0.075
  1
0.40
 50
90.0
  7
ROMANC
 72
     1
 11
285.918498
 21
35.724226
 31
0.0
 73
     2
  0
POINT
  8
DEFPOINTS
  6
BYBLOCK
 62
     0
 10
285.674892
 20
35.524226
 30
0.0
  0
POINT
  8
DEFPOINTS
  6
BYBLOCK
 62
     0
 10
285.274892
 20
35.924226
 30
0.0
  0
POINT
  8
DEFPOINTS
  6
BYBLOCK
 62
     0
 10
285.993498
 20
35.924226
 30
0.0
  0
ENDBLK
  8
0
  0
BLOCK
  8
0
  2
*D13
 70
    65
 10
0.0
 20
0.0
 30
0.0
  3
*D
  0
LINE
  8
0
  6
BYBLOCK
 62
     0
 10
285.289892
 20
35.924226
 30
0.0
 11
286.296412
 21
35.924226
 31
0.0
  0
LINE
  8
0
  6
BYBLOCK
 62
     0
 10
285.338543
 20
34.424226
 30
0.0
 11
286.296412
 21
34.424226
 31
0.0
  0
LINE
  8
0
  6
BYBLOCK
 62
     0
 10
286.281412
 20
35.774226
 30
0.0
 11
286.281412
 21
34.574226
 31
0.0
  0
SOLID
  8
0
  6
BYBLOCK
 62
     0
 10
286.256412
 20
35.774226
 30
0.0
 11
286.306412
 21
35.774226
 31
0.0
 12
286.281412
 22
35.924226
 32
0.0
 13
286.281412
 23
35.924226
 33
0.0
  0
SOLID
  8
0
  6
BYBLOCK
 62
     0
 10
286.256412
 20
34.574226
 30
0.0
 11
286.306412
 21
34.574226
 31
0.0
 12
286.281412
 22
34.424226
 32
0.0
 13
286.281412
 23
34.424226
 33
0.0
  0
TEXT
  8
0
  6
BYBLOCK
 62
     0
 10
286.243912
 20
35.043869
 30
0.0
 40
0.075
  1
1.50
 50
90.0
  7
ROMANC
 72
     1
 11
286.206412
 21
35.174226
 31
0.0
 73
     2
  0
POINT
  8
DEFPOINTS
  6
BYBLOCK
 62
     0
 10
285.274892
 20
35.924226
 30
0.0
  0
POINT
  8
DEFPOINTS
  6
BYBLOCK
 62
     0
 10
285.323543
 20
34.424226
 30
0.0
  0
POINT
  8
DEFPOINTS
  6
BYBLOCK
 62
     0
 10
286.281412
 20
34.424226
 30
0.0
  0
ENDBLK
  8
0
  0
ENDSEC
  0
SECTION
  2
ENTITIES
  0
LINE
  8
0
 10
291.895795
 20
29.897444
 30
0.0
 11
291.895795
 21
44.747444
 31
0.0
  0
TEXT
  8
0
 10
283.887846
 20
40.56142
 30
0.0
 40
0.3
  1
P = 41.6 dm
  7
ROMANC
  0
LINE
  8
0
 10
281.395795
 20
44.747444
 30
0.0
 11
281.395795
 21
29.897444
 31
0.0
  0
LINE
  8
0
 10
281.395795
 20
29.897444
 30
0.0
 11
291.895795
 21
29.897444
 31
0.0
  0
LINE
  8
0
 10
291.895795
 20
44.747444
 30
0.0
 11
281.395795
 21
44.747444
 31
0.0
  0
TEXT
  8
0
 10
287.122271
 20
41.564915
 30
0.0
 40
0.1
  1
2
  7
ROMANC
  0
TEXT
  8
0
 10
283.925768
 20
41.857589
 30
0.0
 40
0.3
  1
ESCALA  1:50
  7
ROMANC
  0
TEXT
  8
0
 10
283.925768
 20
42.343303
 30
0.0
 40
0.3
  1
TIPUS   NT108B
  7
ROMANC
  0
TEXT
  8
0
 10
283.938862
 20
41.258999
 30
0.0
 40
0.3
  1
S = 108 dm
  7
ROMANC
  0
ARC
  8
0
 10
285.274892
 20
35.524226
 30
0.0
 40
0.415
 50
359.952527
 51
180.047473
  0
LINE
  8
0
 10
285.689892
 20
35.523882
 30
0.0
 11
285.639226
 21
34.409226
 31
0.0
  0
LINE
  8
0
 10
285.639226
 20
34.409226
 30
0.0
 11
284.910559
 21
34.409226
 31
0.0
  0
LINE
  8
0
 10
284.910559
 20
34.409226
 30
0.0
 11
284.859892
 21
35.523882
 31
0.0
  0
ARC
  8
0
 10
285.274892
 20
35.524226
 30
0.0
 40
0.4075
 50
359.975936
 51
180.024064
  0
LINE
  8
0
 10
285.682392
 20
35.524055
 30
0.0
 11
285.632059
 21
34.416726
 31
0.0
  0
LINE
  8
0
 10
285.632059
 20
34.416726
 30
0.0
 11
284.917725
 21
34.416726
 31
0.0
  0
LINE
  8
0
 10
284.917725
 20
34.416726
 30
0.0
 11
284.867392
 21
35.524055
 31
0.0
  0
ARC
  8
0
 10
285.274892
 20
35.524226
 30
0.0
 40
0.4
 50
0.0
 51
180.0
  0
LINE
  8
0
 10
285.674892
 20
35.524226
 30
0.0
 11
285.624892
 21
34.424226
 31
0.0
  0
LINE
  8
0
 10
285.624892
 20
34.424226
 30
0.0
 11
284.924892
 21
34.424226
 31
0.0
  0
LINE
  8
0
 10
284.924892
 20
34.424226
 30
0.0
 11
284.874892
 21
35.524226
 31
0.0
  0
LINE
  8
0
  6
BYBLOCK
 62
     0
 10
285.289892
 20
35.924226
 30
0.0
 11
286.296412
 21
35.924226
 31
0.0
  0
LINE
  8
0
  6
BYBLOCK
 62
     0
 10
285.338543
 20
34.424226
 30
0.0
 11
286.296412
 21
34.424226
 31
0.0
  0
LINE
  8
0
  6
BYBLOCK
 62
     0
 10
286.281412
 20
35.774226
 30
0.0
 11
286.281412
 21
34.574226
 31
0.0
  0
SOLID
  8
0
  6
BYBLOCK
 62
     0
 10
286.256412
 20
35.774226
 30
0.0
 11
286.306412
 21
35.774226
 31
0.0
 12
286.281412
 22
35.924226
 32
0.0
 13
286.281412
 23
35.924226
 33
0.0
  0
SOLID
  8
0
  6
BYBLOCK
 62
     0
 10
286.256412
 20
34.574226
 30
0.0
 11
286.306412
 21
34.574226
 31
0.0
 12
286.281412
 22
34.424226
 32
0.0
 13
286.281412
 23
34.424226
 33
0.0
  0
TEXT
  8
0
  6
BYBLOCK
 62
     0
 10
286.243912
 20
35.043869
 30
0.0
 40
0.075
  1
1.50
 50
90.0
  7
ROMANC
 72
     1
 11
286.206412
 21
35.174226
 31
0.0
 73
     2
  0
POINT
  8
DEFPOINTS
  6
BYBLOCK
 62
     0
 10
285.274892
 20
35.924226
 30
0.0
  0
POINT
  8
DEFPOINTS
  6
BYBLOCK
 62
     0
 10
285.323543
 20
34.424226
 30
0.0
  0
POINT
  8
DEFPOINTS
  6
BYBLOCK
 62
     0
 10
286.281412
 20
34.424226
 30
0.0
  0
LINE
  8
0
  6
BYBLOCK
 62
     0
 10
285.689892
 20
35.524226
 30
0.0
 11
286.008498
 21
35.524226
 31
0.0
  0
LINE
  8
0
  6
BYBLOCK
 62
     0
 10
285.289892
 20
35.924226
 30
0.0
 11
286.008498
 21
35.924226
 31
0.0
  0
LINE
  8
0
  6
BYBLOCK
 62
     0
 10
285.993498
 20
35.374226
 30
0.0
 11
285.993498
 21
35.224226
 31
0.0
  0
LINE
  8
0
  6
BYBLOCK
 62
     0
 10
285.993498
 20
36.074226
 30
0.0
 11
285.993498
 21
36.224226
 31
0.0
  0
SOLID
  8
0
  6
BYBLOCK
 62
     0
 10
285.968498
 20
35.374226
 30
0.0
 11
286.018498
 21
35.374226
 31
0.0
 12
285.993498
 22
35.524226
 32
0.0
 13
285.993498
 23
35.524226
 33
0.0
  0
SOLID
  8
0
  6
BYBLOCK
 62
     0
 10
285.968498
 20
36.074226
 30
0.0
 11
286.018498
 21
36.074226
 31
0.0
 12
285.993498
 22
35.924226
 32
0.0
 13
285.993498
 23
35.924226
 33
0.0
  0
LINE
  8
0
  6
BYBLOCK
 62
     0
 10
285.993498
 20
35.524226
 30
0.0
 11
285.993498
 21
35.924226
 31
0.0
  0
TEXT
  8
0
  6
BYBLOCK
 62
     0
 10
285.955998
 20
35.599226
 30
0.0
 40
0.075
  1
0.40
 50
90.0
  7
ROMANC
 72
     1
 11
285.918498
 21
35.724226
 31
0.0
 73
     2
  0
POINT
  8
DEFPOINTS
  6
BYBLOCK
 62
     0
 10
285.674892
 20
35.524226
 30
0.0
  0
POINT
  8
DEFPOINTS
  6
BYBLOCK
 62
     0
 10
285.274892
 20
35.924226
 30
0.0
  0
POINT
  8
DEFPOINTS
  6
BYBLOCK
 62
     0
 10
285.993498
 20
35.924226
 30
0.0
  0
LINE
  8
0
  6
BYBLOCK
 62
     0
 10
285.639892
 20
34.424226
 30
0.0
 11
286.008498
 21
34.424226
 31
0.0
  0
LINE
  8
0
  6
BYBLOCK
 62
     0
 10
285.689892
 20
35.524226
 30
0.0
 11
286.008498
 21
35.524226
 31
0.0
  0
LINE
  8
0
  6
BYBLOCK
 62
     0
 10
285.993498
 20
34.574226
 30
0.0
 11
285.993498
 21
35.374226
 31
0.0
  0
SOLID
  8
0
  6
BYBLOCK
 62
     0
 10
285.968498
 20
34.574226
 30
0.0
 11
286.018498
 21
34.574226
 31
0.0
 12
285.993498
 22
34.424226
 32
0.0
 13
285.993498
 23
34.424226
 33
0.0
  0
SOLID
  8
0
  6
BYBLOCK
 62
     0
 10
285.968498
 20
35.374226
 30
0.0
 11
286.018498
 21
35.374226
 31
0.0
 12
285.993498
 22
35.524226
 32
0.0
 13
285.993498
 23
35.524226
 33
0.0
  0
TEXT
  8
0
  6
BYBLOCK
 62
     0
 10
285.955998
 20
34.843869
 30
0.0
 40
0.075
  1
1.10
 50
90.0
  7
ROMANC
 72
     1
 11
285.918498
 21
34.974226
 31
0.0
 73
     2
  0
POINT
  8
DEFPOINTS
  6
BYBLOCK
 62
     0
 10
285.624892
 20
34.424226
 30
0.0
  0
POINT
  8
DEFPOINTS
  6
BYBLOCK
 62
     0
 10
285.674892
 20
35.524226
 30
0.0
  0
POINT
  8
DEFPOINTS
  6
BYBLOCK
 62
     0
 10
285.993498
 20
35.524226
 30
0.0
  0
LINE
  8
0
  6
BYBLOCK
 62
     0
 10
284.874892
 20
35.539226
 30
0.0
 11
284.874892
 21
35.539226
 31
0.0
  0
LINE
  8
0
  6
BYBLOCK
 62
     0
 10
285.674892
 20
35.539226
 30
0.0
 11
285.674892
 21
35.539226
 31
0.0
  0
LINE
  8
0
  6
BYBLOCK
 62
     0
 10
285.024892
 20
35.524226
 30
0.0
 11
285.524892
 21
35.524226
 31
0.0
  0
SOLID
  8
0
  6
BYBLOCK
 62
     0
 10
285.024892
 20
35.549226
 30
0.0
 11
285.024892
 21
35.499226
 31
0.0
 12
284.874892
 22
35.524226
 32
0.0
 13
284.874892
 23
35.524226
 33
0.0
  0
SOLID
  8
0
  6
BYBLOCK
 62
     0
 10
285.524892
 20
35.549226
 30
0.0
 11
285.524892
 21
35.499226
 31
0.0
 12
285.674892
 22
35.524226
 32
0.0
 13
285.674892
 23
35.524226
 33
0.0
  0
TEXT
  8
0
  6
BYBLOCK
 62
     0
 10
285.149892
 20
35.561726
 30
0.0
 40
0.075
  1
0.80
  7
ROMANC
 72
     1
 11
285.274892
 21
35.599226
 31
0.0
 73
     2
  0
POINT
  8
DEFPOINTS
  6
BYBLOCK
 62
     0
 10
284.874892
 20
35.524226
 30
0.0
  0
POINT
  8
DEFPOINTS
  6
BYBLOCK
 62
     0
 10
285.674892
 20
35.524226
 30
0.0
  0
POINT
  8
DEFPOINTS
  6
BYBLOCK
 62
     0
 10
285.674892
 20
35.524226
 30
0.0
  0
LINE
  8
0
  6
BYBLOCK
 62
     0
 10
284.924892
 20
34.409226
 30
0.0
 11
284.924892
 21
34.121442
 31
0.0
  0
LINE
  8
0
  6
BYBLOCK
 62
     0
 10
285.624892
 20
34.409226
 30
0.0
 11
285.624892
 21
34.121442
 31
0.0
  0
LINE
  8
0
  6
BYBLOCK
 62
     0
 10
284.774892
 20
34.136442
 30
0.0
 11
284.624892
 21
34.136442
 31
0.0
  0
LINE
  8
0
  6
BYBLOCK
 62
     0
 10
285.774892
 20
34.136442
 30
0.0
 11
285.924892
 21
34.136442
 31
0.0
  0
SOLID
  8
0
  6
BYBLOCK
 62
     0
 10
284.774892
 20
34.161442
 30
0.0
 11
284.774892
 21
34.111442
 31
0.0
 12
284.924892
 22
34.136442
 32
0.0
 13
284.924892
 23
34.136442
 33
0.0
  0
SOLID
  8
0
  6
BYBLOCK
 62
     0
 10
285.774892
 20
34.161442
 30
0.0
 11
285.774892
 21
34.111442
 31
0.0
 12
285.624892
 22
34.136442
 32
0.0
 13
285.624892
 23
34.136442
 33
0.0
  0
LINE
  8
0
  6
BYBLOCK
 62
     0
 10
284.924892
 20
34.136442
 30
0.0
 11
285.624892
 21
34.136442
 31
0.0
  0
TEXT
  8
0
  6
BYBLOCK
 62
     0
 10
285.149892
 20
34.173942
 30
0.0
 40
0.075
  1
0.70
  7
ROMANC
 72
     1
 11
285.274892
 21
34.211442
 31
0.0
 73
     2
  0
POINT
  8
DEFPOINTS
  6
BYBLOCK
 62
     0
 10
284.924892
 20
34.424226
 30
0.0
  0
POINT
  8
DEFPOINTS
  6
BYBLOCK
 62
     0
 10
285.624892
 20
34.424226
 30
0.0
  0
POINT
  8
DEFPOINTS
  6
BYBLOCK
 62
     0
 10
285.624892
 20
34.136442
 30
0.0
  0
ENDSEC
  0
EOF
