  0
SECTION
  2
HEADER
  9
$ACADVER
  1
AC1009
  9
$INSBASE
 10
0.0
 20
0.0
 30
0.0
  9
$EXTMIN
 10
281.396
 20
29.897
 30
0.0
  9
$EXTMAX
 10
291.896
 20
44.747
 30
0.0
  9
$LIMMIN
 10
280.396
 20
28.897
  9
$LIMMAX
 10
292.896
 20
43.747
  9
$ORTHOMODE
 70
     0
  9
$REGENMODE
 70
     1
  9
$FILLMODE
 70
     1
  9
$QTEXTMODE
 70
     0
  9
$MIRRTEXT
 70
     1
  9
$DRAGMODE
 70
     2
  9
$LTSCALE
 40
1.0
  9
$OSMODE
 70
     0
  9
$ATTMODE
 70
     1
  9
$TEXTSIZE
 40
0.2
  9
$TRACEWID
 40
0.05
  9
$TEXTSTYLE
  7
STANDARD
  9
$CLAYER
  8
0
  9
$CELTYPE
  6
BYLAYER
  9
$CECOLOR
 62
   256
  9
$DIMSCALE
 40
1.0
  9
$DIMASZ
 40
0.18
  9
$DIMEXO
 40
0.0625
  9
$DIMDLI
 40
0.38
  9
$DIMRND
 40
0.0
  9
$DIMDLE
 40
0.0
  9
$DIMEXE
 40
0.18
  9
$DIMTP
 40
0.0
  9
$DIMTM
 40
0.0
  9
$DIMTXT
 40
0.18
  9
$DIMCEN
 40
0.09
  9
$DIMTSZ
 40
0.0
  9
$DIMTOL
 70
     0
  9
$DIMLIM
 70
     0
  9
$DIMTIH
 70
     1
  9
$DIMTOH
 70
     1
  9
$DIMSE1
 70
     0
  9
$DIMSE2
 70
     0
  9
$DIMTAD
 70
     0
  9
$DIMZIN
 70
     0
  9
$DIMBLK
  1

  9
$DIMASO
 70
     1
  9
$DIMSHO
 70
     1
  9
$DIMPOST
  1

  9
$DIMAPOST
  1

  9
$DIMALT
 70
     0
  9
$DIMALTD
 70
     2
  9
$DIMALTF
 40
25.4
  9
$DIMLFAC
 40
1.0
  9
$DIMTOFL
 70
     0
  9
$DIMTVP
 40
0.0
  9
$DIMTIX
 70
     0
  9
$DIMSOXD
 70
     0
  9
$DIMSAH
 70
     0
  9
$DIMBLK1
  1

  9
$DIMBLK2
  1

  9
$DIMSTYLE
  2
*UNNAMED
  9
$DIMCLRD
 70
     0
  9
$DIMCLRE
 70
     0
  9
$DIMCLRT
 70
     0
  9
$DIMTFAC
 40
1.0
  9
$DIMGAP
 40
0.09
  9
$LUNITS
 70
     2
  9
$LUPREC
 70
     4
  9
$SKETCHINC
 40
0.1
  9
$FILLETRAD
 40
0.0
  9
$AUNITS
 70
     0
  9
$AUPREC
 70
     0
  9
$MENU
  1
acad
  9
$ELEVATION
 40
0.0
  9
$PELEVATION
 40
0.0
  9
$THICKNESS
 40
0.0
  9
$LIMCHECK
 70
     0
  9
$BLIPMODE
 70
     1
  9
$CHAMFERA
 40
0.0
  9
$CHAMFERB
 40
0.0
  9
$SKPOLY
 70
     0
  9
$TDCREATE
 40
2448315.373408102
  9
$TDUPDATE
 40
2448315.373408102
  9
$TDINDWG
 40
0.0000000000
  9
$TDUSRTIMER
 40
0.0000000000
  9
$USRTIMER
 70
     1
  9
$ANGBASE
 50
0.0
  9
$ANGDIR
 70
     0
  9
$PDMODE
 70
     0
  9
$PDSIZE
 40
0.0
  9
$PLINEWID
 40
0.0
  9
$COORDS
 70
     0
  9
$SPLFRAME
 70
     0
  9
$SPLINETYPE
 70
     6
  9
$SPLINESEGS
 70
     8
  9
$ATTDIA
 70
     0
  9
$ATTREQ
 70
     1
  9
$HANDLING
 70
     0
  9
$HANDSEED
  5
0
  9
$SURFTAB1
 70
     6
  9
$SURFTAB2
 70
     6
  9
$SURFTYPE
 70
     6
  9
$SURFU
 70
     6
  9
$SURFV
 70
     6
  9
$UCSNAME
  2

  9
$UCSORG
 10
0.0
 20
0.0
 30
0.0
  9
$UCSXDIR
 10
1.0
 20
0.0
 30
0.0
  9
$UCSYDIR
 10
0.0
 20
1.0
 30
0.0
  9
$PUCSNAME
  2

  9
$PUCSORG
 10
0.0
 20
0.0
 30
0.0
  9
$PUCSXDIR
 10
1.0
 20
0.0
 30
0.0
  9
$PUCSYDIR
 10
0.0
 20
1.0
 30
0.0
  9
$USERI1
 70
     0
  9
$USERI2
 70
     0
  9
$USERI3
 70
     0
  9
$USERI4
 70
     0
  9
$USERI5
 70
     0
  9
$USERR1
 40
0.0
  9
$USERR2
 40
0.0
  9
$USERR3
 40
0.0
  9
$USERR4
 40
0.0
  9
$USERR5
 40
0.0
  9
$WORLDVIEW
 70
     1
  9
$SHADEDGE
 70
     3
  9
$SHADEDIF
 70
    70
  9
$TILEMODE
 70
     1
  9
$MAXACTVP
 70
    16
  9
$PINSBASE
 10
0.0
 20
0.0
 30
0.0
  9
$PLIMCHECK
 70
     0
  9
$PEXTMIN
 10
1.000000E+20
 20
1.000000E+20
 30
1.000000E+20
  9
$PEXTMAX
 10
-1.000000E+20
 20
-1.000000E+20
 30
-1.000000E+20
  9
$PLIMMIN
 10
0.0
 20
0.0
  9
$PLIMMAX
 10
12.0
 20
9.0
  9
$UNITMODE
 70
     0
  9
$VISRETAIN
 70
     0
  9
$PLINEGEN
 70
     0
  9
$PSLTSCALE
 70
     0
  9
$TREEDEPTH
 70
  3020
  9
$DWGCODEPAGE
  3
iso8859-1
  0
ENDSEC
  0
SECTION
  2
TABLES
  0
TABLE
  2
VPORT
 70
     2
  0
VPORT
  2
*ACTIVE
 70
     0
 10
0.0
 20
0.0
 11
1.0
 21
1.0
 12
293.54924
 22
37.322
 13
0.0
 23
0.0
 14
1.0
 24
1.0
 15
10.0
 25
10.0
 16
0.0
 26
0.0
 36
1.0
 17
0.0
 27
0.0
 37
0.0
 40
14.85
 41
1.6368
 42
50.0
 43
0.0
 44
0.0
 50
0.0
 51
0.0
 71
     0
 72
   100
 73
     1
 74
     0
 75
     0
 76
     0
 77
     0
 78
     0
  0
ENDTAB
  0
TABLE
  2
LTYPE
 70
     1
  0
LTYPE
  2
CONTINUOUS
 70
    64
  3
Solid line
 72
    65
 73
     0
 40
0.0
  0
ENDTAB
  0
TABLE
  2
LAYER
 70
     7
  0
LAYER
  2
0
 70
    64
 62
     7
  6
CONTINUOUS
  0
LAYER
  2
1
 70
    64
 62
     7
  6
CONTINUOUS
  0
LAYER
  2
7
 70
    64
 62
     7
  6
CONTINUOUS
  0
LAYER
  2
8
 70
    64
 62
     7
  6
CONTINUOUS
  0
LAYER
  2
9
 70
    64
 62
     7
  6
CONTINUOUS
  0
LAYER
  2
22
 70
    64
 62
     7
  6
CONTINUOUS
  0
LAYER
  2
25
 70
    64
 62
     7
  6
CONTINUOUS
  0
ENDTAB
  0
TABLE
  2
STYLE
 70
     2
  0
STYLE
  2
STANDARD
 70
     0
 40
0.0
 41
1.0
 50
0.0
 71
     0
 42
3.5
  3
txt
  4

  0
STYLE
  2
ROMANC
 70
     0
 40
0.0
 41
1.0
 50
0.0
 71
     0
 42
0.2
  3
ROMANC
  4

  0
ENDTAB
  0
TABLE
  2
VIEW
 70
     0
  0
ENDTAB
  0
TABLE
  2
UCS
 70
     0
  0
ENDTAB
  0
TABLE
  2
APPID
 70
     1
  0
APPID
  2
ACAD
 70
    64
  0
ENDTAB
  0
TABLE
  2
DIMSTYLE
 70
     0
  0
ENDTAB
  0
ENDSEC
  0
SECTION
  2
BLOCKS
  0
ENDSEC
  0
SECTION
  2
ENTITIES
  0
TEXT
  8
0
  6
CONTINUOUS
 10
286.909
 20
41.324
 30
0.0
 40
0.1
  1
2
  7
ROMANC
  0
TEXT
  8
0
  6
CONTINUOUS
 10
283.926
 20
41.768
 30
0.0
 40
0.3
  1
ESCALA  1:50
  7
ROMANC
  0
POLYLINE
  8
0
  6
CONTINUOUS
 66
     1
 10
0.0
 20
0.0
 30
0.0
 70
     1
  0
VERTEX
  8
0
  6
CONTINUOUS
 10
281.396
 20
44.747
 30
0.0
  0
VERTEX
  8
0
  6
CONTINUOUS
 10
291.896
 20
44.747
 30
0.0
  0
VERTEX
  8
0
  6
CONTINUOUS
 10
291.896
 20
29.897
 30
0.0
  0
VERTEX
  8
0
  6
CONTINUOUS
 10
281.396
 20
29.897
 30
0.0
  0
SEQEND
  8
0
  0
TEXT
  8
0
  6
CONTINUOUS
 10
283.922
 20
40.529
 30
0.0
 40
0.3
  1
P = 40 dm
  7
ROMANC
  0
TEXT
  8
0
  6
CONTINUOUS
 10
283.945
 20
41.099
 30
0.0
 40
0.3
  1
S = 107 dm
  7
ROMANC
  0
TEXT
  8
1
  6
CONTINUOUS
 10
286.294
 20
33.19
 30
0.0
 40
0.075
  1
0.40
  7
ROMANC
  0
LINE
  8
1
  6
CONTINUOUS
 10
286.765
 20
33.228
 30
0.0
 11
286.615
 21
33.228
 31
0.0
  0
LINE
  8
1
  6
CONTINUOUS
 10
286.065
 20
33.228
 30
0.0
 11
286.215
 21
33.228
 31
0.0
  0
LINE
  8
1
  6
CONTINUOUS
 10
286.578
 20
33.209
 30
0.0
 11
286.652
 21
33.247
 31
0.0
  0
LINE
  8
1
  6
CONTINUOUS
 10
286.252
 20
33.247
 30
0.0
 11
286.178
 21
33.209
 31
0.0
  0
LINE
  8
1
  6
CONTINUOUS
 10
286.615
 20
33.637
 30
0.0
 11
286.615
 21
33.19
 31
0.0
  0
LINE
  8
1
  6
CONTINUOUS
 10
286.215
 20
33.637
 30
0.0
 11
286.215
 21
33.19
 31
0.0
  0
TEXT
  8
1
  6
CONTINUOUS
 10
286.694
 20
33.328
 30
0.0
 40
0.075
  1
0.40
  7
ROMANC
  0
LINE
  8
1
  6
CONTINUOUS
 10
287.165
 20
33.366
 30
0.0
 11
287.015
 21
33.366
 31
0.0
  0
LINE
  8
1
  6
CONTINUOUS
 10
286.465
 20
33.366
 30
0.0
 11
286.615
 21
33.366
 31
0.0
  0
LINE
  8
1
  6
CONTINUOUS
 10
286.978
 20
33.347
 30
0.0
 11
287.052
 21
33.385
 31
0.0
  0
LINE
  8
1
  6
CONTINUOUS
 10
286.652
 20
33.385
 30
0.0
 11
286.578
 21
33.347
 31
0.0
  0
LINE
  8
1
  6
CONTINUOUS
 10
287.015
 20
33.637
 30
0.0
 11
287.015
 21
33.328
 31
0.0
  0
LINE
  8
1
  6
CONTINUOUS
 10
286.615
 20
33.637
 30
0.0
 11
286.615
 21
33.328
 31
0.0
  0
TEXT
  8
1
  6
CONTINUOUS
 10
287.38
 20
33.883
 30
0.0
 40
0.075
  1
0.65
 50
90.0
  7
ROMANC
  0
LINE
  8
1
  6
CONTINUOUS
 10
287.343
 20
34.157
 30
0.0
 11
287.343
 21
34.325
 31
0.0
  0
LINE
  8
1
  6
CONTINUOUS
 10
287.343
 20
33.845
 30
0.0
 11
287.343
 21
33.675
 31
0.0
  0
LINE
  8
1
  6
CONTINUOUS
 10
287.324
 20
34.362
 30
0.0
 11
287.362
 21
34.288
 31
0.0
  0
LINE
  8
1
  6
CONTINUOUS
 10
287.362
 20
33.638
 30
0.0
 11
287.324
 21
33.712
 31
0.0
  0
LINE
  8
1
  6
CONTINUOUS
 10
287.053
 20
34.325
 30
0.0
 11
287.381
 21
34.325
 31
0.0
  0
LINE
  8
1
  6
CONTINUOUS
 10
287.053
 20
33.675
 30
0.0
 11
287.381
 21
33.675
 31
0.0
  0
TEXT
  8
1
  6
CONTINUOUS
 10
287.608
 20
33.974
 30
0.0
 40
0.075
  1
1.10
 50
90.0
  7
ROMANC
  0
LINE
  8
1
  6
CONTINUOUS
 10
287.571
 20
33.936
 30
0.0
 11
287.571
 21
33.525
 31
0.0
  0
LINE
  8
1
  6
CONTINUOUS
 10
287.571
 20
34.213
 30
0.0
 11
287.571
 21
34.625
 31
0.0
  0
LINE
  8
1
  6
CONTINUOUS
 10
287.59
 20
33.488
 30
0.0
 11
287.552
 21
33.562
 31
0.0
  0
LINE
  8
1
  6
CONTINUOUS
 10
287.552
 20
34.662
 30
0.0
 11
287.59
 21
34.588
 31
0.0
  0
LINE
  8
1
  6
CONTINUOUS
 10
286.453
 20
33.525
 30
0.0
 11
287.609
 21
33.525
 31
0.0
  0
LINE
  8
1
  6
CONTINUOUS
 10
286.453
 20
34.625
 30
0.0
 11
287.609
 21
34.625
 31
0.0
  0
LINE
  8
1
  6
CONTINUOUS
 10
285.805
 20
33.665
 30
0.0
 11
285.805
 21
34.328
 31
0.0
  0
LINE
  8
1
  6
CONTINUOUS
 10
285.795
 20
33.655
 30
0.0
 11
285.795
 21
34.332
 31
0.0
  0
LINE
  8
1
  6
CONTINUOUS
 10
286.208
 20
33.665
 30
0.0
 11
285.805
 21
33.665
 31
0.0
  0
LINE
  8
1
  6
CONTINUOUS
 10
286.201
 20
33.655
 30
0.0
 11
285.795
 21
33.655
 31
0.0
  0
ARC
  8
1
  6
CONTINUOUS
 10
286.415
 20
33.733333
 30
0.0
 40
0.218333
 50
198.238736
 51
341.761264
  0
ARC
  8
1
  6
CONTINUOUS
 10
286.415
 20
33.733333
 30
0.0
 40
0.228333
 50
200.063764
 51
339.936236
  0
LINE
  8
1
  6
CONTINUOUS
 10
287.025
 20
33.665
 30
0.0
 11
286.622
 21
33.665
 31
0.0
  0
LINE
  8
1
  6
CONTINUOUS
 10
287.035
 20
33.655
 30
0.0
 11
286.629
 21
33.655
 31
0.0
  0
LINE
  8
1
  6
CONTINUOUS
 10
287.025
 20
34.328
 30
0.0
 11
287.025
 21
33.665
 31
0.0
  0
LINE
  8
1
  6
CONTINUOUS
 10
287.035
 20
34.332
 30
0.0
 11
287.035
 21
33.655
 31
0.0
  0
ARC
  8
1
  6
CONTINUOUS
 10
286.415
 20
33.875
 30
0.0
 40
0.75
 50
36.869897
 51
143.130103
  0
LINE
  8
1
  6
CONTINUOUS
 10
285.815
 20
34.325
 30
0.0
 11
285.815
 21
33.675
 31
0.0
  0
LINE
  8
1
  6
CONTINUOUS
 10
285.815
 20
33.675
 30
0.0
 11
286.215
 21
33.675
 31
0.0
  0
ARC
  8
1
  6
CONTINUOUS
 10
286.415
 20
33.733333
 30
0.0
 40
0.208333
 50
196.260206
 51
343.739797
  0
LINE
  8
1
  6
CONTINUOUS
 10
286.615
 20
33.675
 30
0.0
 11
287.015
 21
33.675
 31
0.0
  0
LINE
  8
1
  6
CONTINUOUS
 10
287.015
 20
33.675
 30
0.0
 11
287.015
 21
34.325
 31
0.0
  0
TEXT
  8
0
  6
CONTINUOUS
 10
283.926
 20
42.381
 30
0.0
 40
0.3
  1
TIPUS   NT107A
  7
ROMANC
  0
TEXT
  8
1
  6
CONTINUOUS
 10
285.893
 20
33.328
 30
0.0
 40
0.075
  1
0.40
  7
ROMANC
  0
LINE
  8
1
  6
CONTINUOUS
 10
285.665
 20
33.366
 30
0.0
 11
285.815
 21
33.366
 31
0.0
  0
LINE
  8
1
  6
CONTINUOUS
 10
286.365
 20
33.366
 30
0.0
 11
286.215
 21
33.366
 31
0.0
  0
LINE
  8
1
  6
CONTINUOUS
 10
285.852
 20
33.385
 30
0.0
 11
285.778
 21
33.347
 31
0.0
  0
LINE
  8
1
  6
CONTINUOUS
 10
286.178
 20
33.347
 30
0.0
 11
286.252
 21
33.385
 31
0.0
  0
LINE
  8
1
  6
CONTINUOUS
 10
285.815
 20
33.637
 30
0.0
 11
285.815
 21
33.328
 31
0.0
  0
LINE
  8
1
  6
CONTINUOUS
 10
286.215
 20
33.637
 30
0.0
 11
286.215
 21
33.328
 31
0.0
  0
TEXT
  8
1
  6
CONTINUOUS
 10
286.305
 20
33.046
 30
0.0
 40
0.075
  1
1.20
  7
ROMANC
  0
LINE
  8
1
  6
CONTINUOUS
 10
286.267
 20
33.083
 30
0.0
 11
285.815
 21
33.083
 31
0.0
  0
LINE
  8
1
  6
CONTINUOUS
 10
286.562
 20
33.083
 30
0.0
 11
287.015
 21
33.083
 31
0.0
  0
LINE
  8
1
  6
CONTINUOUS
 10
285.778
 20
33.064
 30
0.0
 11
285.852
 21
33.102
 31
0.0
  0
LINE
  8
1
  6
CONTINUOUS
 10
287.052
 20
33.102
 30
0.0
 11
286.978
 21
33.064
 31
0.0
  0
LINE
  8
1
  6
CONTINUOUS
 10
285.815
 20
33.637
 30
0.0
 11
285.815
 21
33.045
 31
0.0
  0
LINE
  8
1
  6
CONTINUOUS
 10
287.015
 20
33.637
 30
0.0
 11
287.015
 21
33.045
 31
0.0
  0
TEXT
  8
1
  6
CONTINUOUS
 10
287.2
 20
33.887
 30
0.0
 40
0.075
  1
0.15
 50
90.0
  7
ROMANC
  0
LINE
  8
1
  6
CONTINUOUS
 10
287.162
 20
33.375
 30
0.0
 11
287.162
 21
33.525
 31
0.0
  0
LINE
  8
1
  6
CONTINUOUS
 10
287.162
 20
33.849
 30
0.0
 11
287.162
 21
33.675
 31
0.0
  0
LINE
  8
1
  6
CONTINUOUS
 10
287.143
 20
33.562
 30
0.0
 11
287.181
 21
33.488
 31
0.0
  0
LINE
  8
1
  6
CONTINUOUS
 10
287.181
 20
33.638
 30
0.0
 11
287.143
 21
33.712
 31
0.0
  0
LINE
  8
1
  6
CONTINUOUS
 10
286.453
 20
33.525
 30
0.0
 11
287.2
 21
33.525
 31
0.0
  0
LINE
  8
1
  6
CONTINUOUS
 10
287.053
 20
33.675
 30
0.0
 11
287.2
 21
33.675
 31
0.0
  0
ARC
  8
1
  6
CONTINUOUS
 10
286.415
 20
33.875
 30
0.0
 40
0.76
 50
36.617861
 51
143.382139
  0
ARC
  8
1
  6
CONTINUOUS
 10
286.415
 20
33.875
 30
0.0
 40
0.77
 50
36.370928
 51
143.629072
  0
ENDSEC
  0
EOF
