  0
SECTION
  2
HEADER
  9
$ACADVER
  1
AC1009
  9
$INSBASE
 10
0.0
 20
0.0
 30
0.0
  9
$EXTMIN
 10
281.396000
 20
29.897000
 30
-2147483.648000
  9
$EXTMAX
 10
291.896000
 20
44.747000
 30
0.000000
  9
$LIMMIN
 10
280.396000
 20
28.897000
  9
$LIMMAX
 10
292.896000
 20
43.747000
  9
$ORTHOMODE
 70
     0
  9
$REGENMODE
 70
     1
  9
$FILLMODE
 70
     1
  9
$QTEXTMODE
 70
     0
  9
$MIRRTEXT
 70
     1
  9
$DRAGMODE
 70
     2
  9
$LTSCALE
 40
1.0
  9
$OSMODE
 70
     0
  9
$ATTMODE
 70
     1
  9
$TEXTSIZE
 40
0.2
  9
$TRACEWID
 40
0.05
  9
$TEXTSTYLE
  7
STANDARD
  9
$CLAYER
  8
0
  9
$CELTYPE
  6
BYLAYER
  9
$CECOLOR
 62
   256
  9
$DIMSCALE
 40
1.0
  9
$DIMASZ
 40
0.18
  9
$DIMEXO
 40
0.0625
  9
$DIMDLI
 40
0.38
  9
$DIMRND
 40
0.0
  9
$DIMDLE
 40
0.0
  9
$DIMEXE
 40
0.18
  9
$DIMTP
 40
0.0
  9
$DIMTM
 40
0.0
  9
$DIMTXT
 40
0.18
  9
$DIMCEN
 40
0.09
  9
$DIMTSZ
 40
0.0
  9
$DIMTOL
 70
     0
  9
$DIMLIM
 70
     0
  9
$DIMTIH
 70
     1
  9
$DIMTOH
 70
     1
  9
$DIMSE1
 70
     0
  9
$DIMSE2
 70
     0
  9
$DIMTAD
 70
     0
  9
$DIMZIN
 70
     0
  9
$DIMBLK
  1

  9
$DIMASO
 70
     1
  9
$DIMSHO
 70
     1
  9
$DIMPOST
  1

  9
$DIMAPOST
  1

  9
$DIMALT
 70
     0
  9
$DIMALTD
 70
     2
  9
$DIMALTF
 40
25.4
  9
$DIMLFAC
 40
1.0
  9
$DIMTOFL
 70
     0
  9
$DIMTVP
 40
0.0
  9
$DIMTIX
 70
     0
  9
$DIMSOXD
 70
     0
  9
$DIMSAH
 70
     0
  9
$DIMBLK1
  1

  9
$DIMBLK2
  1

  9
$DIMSTYLE
  2
*UNNAMED
  9
$DIMCLRD
 70
     0
  9
$DIMCLRE
 70
     0
  9
$DIMCLRT
 70
     0
  9
$DIMTFAC
 40
1.0
  9
$DIMGAP
 40
0.09
  9
$LUNITS
 70
     2
  9
$LUPREC
 70
     4
  9
$AXISMODE
 70
     0
  9
$AXISUNIT
 10
0.0
 20
0.0
  9
$SKETCHINC
 40
0.1
  9
$FILLETRAD
 40
0.0
  9
$AUNITS
 70
     0
  9
$AUPREC
 70
     0
  9
$MENU
  1
acad
  9
$ELEVATION
 40
0.0
  9
$PELEVATION
 40
0.0
  9
$THICKNESS
 40
0.0
  9
$LIMCHECK
 70
     0
  9
$BLIPMODE
 70
     1
  9
$CHAMFERA
 40
0.0
  9
$CHAMFERB
 40
0.0
  9
$SKPOLY
 70
     0
  9
$TDCREATE
 40
2448315.373408102
  9
$TDUPDATE
 40
2448315.373408102
  9
$TDINDWG
 40
0.0000000000
  9
$TDUSRTIMER
 40
0.0000000000
  9
$USRTIMER
 70
     1
  9
$ANGBASE
 50
0.0
  9
$ANGDIR
 70
     0
  9
$PDMODE
 70
     0
  9
$PDSIZE
 40
0.0
  9
$PLINEWID
 40
0.0
  9
$COORDS
 70
     0
  9
$SPLFRAME
 70
     0
  9
$SPLINETYPE
 70
     6
  9
$SPLINESEGS
 70
     8
  9
$ATTDIA
 70
     0
  9
$ATTREQ
 70
     1
  9
$HANDLING
 70
     0
  9
$HANDSEED
  5
0
  9
$SURFTAB1
 70
     6
  9
$SURFTAB2
 70
     6
  9
$SURFTYPE
 70
     6
  9
$SURFU
 70
     6
  9
$SURFV
 70
     6
  9
$UCSNAME
  2

  9
$UCSORG
 10
0.0
 20
0.0
 30
0.0
  9
$UCSXDIR
 10
1.0
 20
0.0
 30
0.0
  9
$UCSYDIR
 10
0.0
 20
1.0
 30
0.0
  9
$PUCSNAME
  2

  9
$PUCSORG
 10
0.0
 20
0.0
 30
0.0
  9
$PUCSXDIR
 10
1.0
 20
0.0
 30
0.0
  9
$PUCSYDIR
 10
0.0
 20
1.0
 30
0.0
  9
$USERI1
 70
     0
  9
$USERI2
 70
     0
  9
$USERI3
 70
     0
  9
$USERI4
 70
     0
  9
$USERI5
 70
     0
  9
$USERR1
 40
0.0
  9
$USERR2
 40
0.0
  9
$USERR3
 40
0.0
  9
$USERR4
 40
0.0
  9
$USERR5
 40
0.0
  9
$WORLDVIEW
 70
     1
  9
$SHADEDGE
 70
     3
  9
$SHADEDIF
 70
    70
  9
$TILEMODE
 70
     1
  9
$MAXACTVP
 70
    16
  9
$PINSBASE
 10
0.0
 20
0.0
 30
0.0
  9
$PLIMCHECK
 70
     0
  9
$PEXTMIN
 10
1.000000E+20
 20
1.000000E+20
 30
1.000000E+20
  9
$PEXTMAX
 10
-1.000000E+20
 20
-1.000000E+20
 30
-1.000000E+20
  9
$PLIMMIN
 10
0.0
 20
0.0
  9
$PLIMMAX
 10
12.0
 20
9.0
  9
$UNITMODE
 70
     0
  9
$VISRETAIN
 70
     0
  0
ENDSEC
  0
SECTION
  2
TABLES
  0
TABLE
  2
LTYPE
 70
    1
  0
LTYPE
  2
CONTINUOUS
 70
    64
3
Solid line
 72
    65
 73
0
 40
0.000000
  0
ENDTAB
  0
TABLE
  2
LAYER
 70
    8
  0
LAYER
  2
0
 70
    64
 62
7
  6
CONTINUOUS
  0
LAYER
  2
1
 70
    64
 62
7
  6
CONTINUOUS
  0
LAYER
  2
7
 70
    64
 62
7
  6
CONTINUOUS
  0
LAYER
  2
8
 70
    64
 62
7
  6
CONTINUOUS
  0
LAYER
  2
9
 70
    64
 62
7
  6
CONTINUOUS
  0
LAYER
  2
22
 70
    64
 62
7
  6
CONTINUOUS
  0
LAYER
  2
25
 70
    64
 62
7
  6
CONTINUOUS
  0
LAYER
  2
0
 70
    64
 62
7
  6
CONTINUOUS
  0
ENDTAB
  0
TABLE
  2
STYLE
 70
    1
  0
STYLE
  2
ROMANC
70
     0
 40
0.0
 41
1.0
 50
0.0
 71
     0
 42
0.2
  3
ROMANC
  4

  0
ENDTAB
  0
ENDSEC
  0
SECTION
  2
BLOCKS
  0
ENDSEC
  0
SECTION
  2
ENTITIES
  0
TEXT
  8
0
  6
CONTINUOUS
 40
0.100000
 10
287.222000
 20
41.337000
  1
2
  7
ROMANC
  0
TEXT
  8
0
  6
CONTINUOUS
 40
0.300000
 10
283.926000
 20
41.768000
  1
ESCALA  1:50
  7
ROMANC
  0
POLYLINE
  8
0
  6
CONTINUOUS
 66
     1
 70
     1
  0
VERTEX
  8
0
  6
CONTINUOUS
 10
281.396000
 20
44.747000
  0
VERTEX
  8
0
  6
CONTINUOUS
 10
291.896000
 20
44.747000
  0
VERTEX
  8
0
  6
CONTINUOUS
 10
291.896000
 20
29.897000
  0
VERTEX
  8
0
  6
CONTINUOUS
 10
281.396000
 20
29.897000
  0
SEQEND
  8
0
  0
TEXT
  8
0
  6
CONTINUOUS
 40
0.300000
 10
283.922000
 20
40.529000
  1
P = 132 dm
  7
ROMANC
  0
POLYLINE
  8
1
  6
CONTINUOUS
 66
     1
 70
     0
  0
VERTEX
  8
1
  6
CONTINUOUS
 10
288.954000
 20
36.105000
 42
0.063588
  0
VERTEX
  8
1
  6
CONTINUOUS
 10
288.931257
 20
36.276785
 42
0.055875
  0
VERTEX
  8
1
  6
CONTINUOUS
 10
288.868815
 20
36.438877
 42
0.051319
  0
VERTEX
  8
1
  6
CONTINUOUS
 10
288.758140
 20
36.605465
 42
0.039197
  0
VERTEX
  8
1
  6
CONTINUOUS
 10
288.619064
 20
36.750000
 42
0.035667
  0
VERTEX
  8
1
  6
CONTINUOUS
 10
288.428977
 20
36.896022
 42
0.027541
  0
VERTEX
  8
1
  6
CONTINUOUS
 10
288.221767
 20
37.017168
 42
0.025575
  0
VERTEX
  8
1
  6
CONTINUOUS
 10
287.967736
 20
37.131715
 42
0.021115
  0
VERTEX
  8
1
  6
CONTINUOUS
 10
287.704000
 20
37.222173
 42
0.020101
  0
VERTEX
  8
1
  6
CONTINUOUS
 10
287.405006
 20
37.298058
 42
0.017927
  0
VERTEX
  8
1
  6
CONTINUOUS
 10
287.101048
 20
37.351044
 42
0.017495
  0
VERTEX
  8
1
  6
CONTINUOUS
 10
286.778288
 20
37.384125
 42
0.016846
  0
VERTEX
  8
1
  6
CONTINUOUS
 10
286.454000
 20
37.395000
 42
0.016846
  0
VERTEX
  8
1
  6
CONTINUOUS
 10
286.129712
 20
37.384125
 42
0.017495
  0
VERTEX
  8
1
  6
CONTINUOUS
 10
285.806952
 20
37.351044
 42
0.017927
  0
VERTEX
  8
1
  6
CONTINUOUS
 10
285.502994
 20
37.298058
 42
0.020101
  0
VERTEX
  8
1
  6
CONTINUOUS
 10
285.204000
 20
37.222173
 42
0.021115
  0
VERTEX
  8
1
  6
CONTINUOUS
 10
284.940264
 20
37.131715
 42
0.025575
  0
VERTEX
  8
1
  6
CONTINUOUS
 10
284.686233
 20
37.017168
 42
0.027541
  0
VERTEX
  8
1
  6
CONTINUOUS
 10
284.479023
 20
36.896022
 42
0.035667
  0
VERTEX
  8
1
  6
CONTINUOUS
 10
284.288936
 20
36.750000
 42
0.039197
  0
VERTEX
  8
1
  6
CONTINUOUS
 10
284.149860
 20
36.605465
 42
0.051319
  0
VERTEX
  8
1
  6
CONTINUOUS
 10
284.039185
 20
36.438877
 42
0.055875
  0
VERTEX
  8
1
  6
CONTINUOUS
 10
283.976743
 20
36.276785
 42
0.063588
  0
VERTEX
  8
1
  6
CONTINUOUS
 10
283.954000
 20
36.105000
  0
SEQEND
  8
0
  0
ARC
  8
1
  6
CONTINUOUS
 10
286.550875
 20
44.614375
 40
9.759856
 50
261.771308
 51
284.254267
  0
TEXT
  8
0
  6
CONTINUOUS
 40
0.300000
 10
283.926000
 20
42.381000
  1
TIPUS   NT1064A
  7
ROMANC
  0
TEXT
  8
0
  6
CONTINUOUS
 40
0.300000
 10
283.945000
 20
41.099000
  1
S = 1064 dm
  7
ROMANC
  0
POLYLINE
  8
1
  6
CONTINUOUS
 66
     1
 70
     0
  0
VERTEX
  8
1
  6
CONTINUOUS
 10
288.964000
 20
36.105000
 42
0.063351
  0
VERTEX
  8
1
  6
CONTINUOUS
 10
288.941177
 20
36.278085
 42
0.055734
  0
VERTEX
  8
1
  6
CONTINUOUS
 10
288.878474
 20
36.441465
 42
0.051228
  0
VERTEX
  8
1
  6
CONTINUOUS
 10
288.767395
 20
36.609294
 42
0.039205
  0
VERTEX
  8
1
  6
CONTINUOUS
 10
288.627724
 20
36.755000
 42
0.035693
  0
VERTEX
  8
1
  6
CONTINUOUS
 10
288.436919
 20
36.902123
 42
0.027597
  0
VERTEX
  8
1
  6
CONTINUOUS
 10
288.228838
 20
37.024239
 42
0.025635
  0
VERTEX
  8
1
  6
CONTINUOUS
 10
287.973822
 20
37.139661
 42
0.021180
  0
VERTEX
  8
1
  6
CONTINUOUS
 10
287.709000
 20
37.230833
 42
0.020166
  0
VERTEX
  8
1
  6
CONTINUOUS
 10
287.408827
 20
37.307302
 42
0.017991
  0
VERTEX
  8
1
  6
CONTINUOUS
 10
287.103636
 20
37.360704
 42
0.017559
  0
VERTEX
  8
1
  6
CONTINUOUS
 10
286.779591
 20
37.394040
 42
0.016909
  0
VERTEX
  8
1
  6
CONTINUOUS
 10
286.454000
 20
37.405000
 42
0.016909
  0
VERTEX
  8
1
  6
CONTINUOUS
 10
286.128409
 20
37.394040
 42
0.017559
  0
VERTEX
  8
1
  6
CONTINUOUS
 10
285.804364
 20
37.360704
 42
0.017991
  0
VERTEX
  8
1
  6
CONTINUOUS
 10
285.499173
 20
37.307302
 42
0.020166
  0
VERTEX
  8
1
  6
CONTINUOUS
 10
285.199000
 20
37.230833
 42
0.021180
  0
VERTEX
  8
1
  6
CONTINUOUS
 10
284.934178
 20
37.139661
 42
0.025635
  0
VERTEX
  8
1
  6
CONTINUOUS
 10
284.679162
 20
37.024239
 42
0.027597
  0
VERTEX
  8
1
  6
CONTINUOUS
 10
284.471081
 20
36.902123
 42
0.035693
  0
VERTEX
  8
1
  6
CONTINUOUS
 10
284.280276
 20
36.755000
 42
0.039205
  0
VERTEX
  8
1
  6
CONTINUOUS
 10
284.140605
 20
36.609294
 42
0.051228
  0
VERTEX
  8
1
  6
CONTINUOUS
 10
284.029526
 20
36.441465
 42
0.055734
  0
VERTEX
  8
1
  6
CONTINUOUS
 10
283.966823
 20
36.278085
 42
0.063351
  0
VERTEX
  8
1
  6
CONTINUOUS
 10
283.944000
 20
36.105000
  0
SEQEND
  8
0
  0
POLYLINE
  8
1
  6
CONTINUOUS
 66
     1
 70
     0
  0
VERTEX
  8
1
  6
CONTINUOUS
 10
288.974000
 20
36.105000
 42
0.063117
  0
VERTEX
  8
1
  6
CONTINUOUS
 10
288.951097
 20
36.279385
 42
0.055595
  0
VERTEX
  8
1
  6
CONTINUOUS
 10
288.888133
 20
36.444053
 42
0.051139
  0
VERTEX
  8
1
  6
CONTINUOUS
 10
288.776650
 20
36.613123
 42
0.039212
  0
VERTEX
  8
1
  6
CONTINUOUS
 10
288.636384
 20
36.760000
 42
0.035718
  0
VERTEX
  8
1
  6
CONTINUOUS
 10
288.444861
 20
36.908225
 42
0.027653
  0
VERTEX
  8
1
  6
CONTINUOUS
 10
288.235909
 20
37.031310
 42
0.025694
  0
VERTEX
  8
1
  6
CONTINUOUS
 10
287.979907
 20
37.147607
 42
0.021244
  0
VERTEX
  8
1
  6
CONTINUOUS
 10
287.714000
 20
37.239493
 42
0.020230
  0
VERTEX
  8
1
  6
CONTINUOUS
 10
287.412649
 20
37.316546
 42
0.018055
  0
VERTEX
  8
1
  6
CONTINUOUS
 10
287.106224
 20
37.370363
 42
0.017622
  0
VERTEX
  8
1
  6
CONTINUOUS
 10
286.780893
 20
37.403955
 42
0.016971
  0
VERTEX
  8
1
  6
CONTINUOUS
 10
286.454000
 20
37.415000
 42
0.016971
  0
VERTEX
  8
1
  6
CONTINUOUS
 10
286.127107
 20
37.403955
 42
0.017622
  0
VERTEX
  8
1
  6
CONTINUOUS
 10
285.801776
 20
37.370363
 42
0.018055
  0
VERTEX
  8
1
  6
CONTINUOUS
 10
285.495351
 20
37.316546
 42
0.020230
  0
VERTEX
  8
1
  6
CONTINUOUS
 10
285.194000
 20
37.239493
 42
0.021244
  0
VERTEX
  8
1
  6
CONTINUOUS
 10
284.928093
 20
37.147607
 42
0.025694
  0
VERTEX
  8
1
  6
CONTINUOUS
 10
284.672091
 20
37.031310
 42
0.027653
  0
VERTEX
  8
1
  6
CONTINUOUS
 10
284.463139
 20
36.908225
 42
0.035718
  0
VERTEX
  8
1
  6
CONTINUOUS
 10
284.271616
 20
36.760000
 42
0.039212
  0
VERTEX
  8
1
  6
CONTINUOUS
 10
284.131350
 20
36.613123
 42
0.051139
  0
VERTEX
  8
1
  6
CONTINUOUS
 10
284.019867
 20
36.444053
 42
0.055595
  0
VERTEX
  8
1
  6
CONTINUOUS
 10
283.956903
 20
36.279385
 42
0.063117
  0
VERTEX
  8
1
  6
CONTINUOUS
 10
283.934000
 20
36.105000
  0
SEQEND
  8
0
  0
LINE
  8
1
  6
CONTINUOUS
 10
283.944000
 20
35.145000
 11
283.944000
 21
36.105000
  0
LINE
  8
1
  6
CONTINUOUS
 10
283.934000
 20
35.135000
 11
283.934000
 21
36.105000
  0
LINE
  8
1
  6
CONTINUOUS
 10
285.144000
 20
35.145000
 11
283.944000
 21
35.145000
  0
LINE
  8
1
  6
CONTINUOUS
 10
285.134000
 20
35.135000
 11
283.934000
 21
35.135000
  0
LINE
  8
1
  6
CONTINUOUS
 10
285.144000
 20
34.946000
 11
285.144000
 21
35.145000
  0
LINE
  8
1
  6
CONTINUOUS
 10
285.134000
 20
34.938000
 11
285.134000
 21
35.135000
  0
ARC
  8
1
  6
CONTINUOUS
 10
286.550875
 20
44.614375
 40
9.769856
 50
261.720531
 51
284.299881
  0
ARC
  8
1
  6
CONTINUOUS
 10
286.550875
 20
44.614375
 40
9.779856
 50
261.669850
 51
284.345411
  0
LINE
  8
1
  6
CONTINUOUS
 10
288.964000
 20
36.105000
 11
288.964000
 21
35.147000
  0
LINE
  8
1
  6
CONTINUOUS
 10
288.974000
 20
36.105000
 11
288.974000
 21
35.139000
  0
LINE
  8
1
  6
CONTINUOUS
 10
285.154000
 20
35.155000
 11
283.954000
 21
35.155000
  0
LINE
  8
1
  6
CONTINUOUS
 10
285.154000
 20
34.955000
 11
285.154000
 21
35.155000
  0
TEXT
  8
1
  6
CONTINUOUS
 40
0.075000
 10
283.628000
 20
34.501000
  1
0.20
 50
90.000000
  7
ROMANC
  0
LINE
  8
1
  6
CONTINUOUS
 10
283.591000
 20
35.305000
 11
283.591000
 21
35.155000
  0
LINE
  8
1
  6
CONTINUOUS
 10
283.591000
 20
34.812000
 11
283.591000
 21
34.955000
  0
LINE
  8
1
  6
CONTINUOUS
 10
283.610000
 20
35.118000
 11
283.572000
 21
35.192000
  0
LINE
  8
1
  6
CONTINUOUS
 10
283.572000
 20
34.992000
 11
283.610000
 21
34.918000
  0
LINE
  8
1
  6
CONTINUOUS
 10
283.916000
 20
35.155000
 11
283.553000
 21
35.155000
  0
LINE
  8
1
  6
CONTINUOUS
 10
285.116000
 20
34.955000
 11
283.553000
 21
34.955000
  0
LINE
  8
1
  6
CONTINUOUS
 10
283.954000
 20
35.155000
 11
283.954000
 21
36.105000
  0
TEXT
  8
1
  6
CONTINUOUS
 40
0.075000
 10
283.246000
 20
35.493000
  1
0.95
 50
90.000000
  7
ROMANC
  0
LINE
  8
1
  6
CONTINUOUS
 10
283.208000
 20
35.455000
 11
283.208000
 21
35.155000
  0
LINE
  8
1
  6
CONTINUOUS
 10
283.208000
 20
35.804000
 11
283.208000
 21
36.105000
  0
LINE
  8
1
  6
CONTINUOUS
 10
283.227000
 20
35.118000
 11
283.189000
 21
35.192000
  0
LINE
  8
1
  6
CONTINUOUS
 10
283.189000
 20
36.142000
 11
283.227000
 21
36.068000
  0
LINE
  8
1
  6
CONTINUOUS
 10
283.553000
 20
35.155000
 11
283.170000
 21
35.155000
  0
LINE
  8
1
  6
CONTINUOUS
 10
283.916000
 20
36.105000
 11
283.170000
 21
36.105000
  0
LINE
  8
1
  6
CONTINUOUS
 10
288.954000
 20
36.105000
 11
288.954000
 21
35.155000
  0
TEXT
  8
1
  6
CONTINUOUS
 40
0.075000
 10
289.476000
 20
35.493000
  1
0.95
 50
90.000000
  7
ROMANC
  0
LINE
  8
1
  6
CONTINUOUS
 10
289.439000
 20
35.455000
 11
289.439000
 21
35.155000
  0
LINE
  8
1
  6
CONTINUOUS
 10
289.439000
 20
35.804000
 11
289.439000
 21
36.105000
  0
LINE
  8
1
  6
CONTINUOUS
 10
289.458000
 20
35.118000
 11
289.420000
 21
35.192000
  0
LINE
  8
1
  6
CONTINUOUS
 10
289.420000
 20
36.142000
 11
289.458000
 21
36.068000
  0
LINE
  8
1
  6
CONTINUOUS
 10
288.992000
 20
35.155000
 11
289.477000
 21
35.155000
  0
LINE
  8
1
  6
CONTINUOUS
 10
288.992000
 20
36.105000
 11
289.477000
 21
36.105000
  0
TEXT
  8
1
  6
CONTINUOUS
 40
0.075000
 10
286.317000
 20
34.172000
  1
5.00
  7
ROMANC
  0
LINE
  8
1
  6
CONTINUOUS
 10
286.279000
 20
34.210000
 11
283.954000
 21
34.210000
  0
LINE
  8
1
  6
CONTINUOUS
 10
286.628000
 20
34.210000
 11
288.954000
 21
34.210000
  0
LINE
  8
1
  6
CONTINUOUS
 10
283.916000
 20
34.191000
 11
283.992000
 21
34.229000
  0
LINE
  8
1
  6
CONTINUOUS
 10
288.992000
 20
34.229000
 11
288.916000
 21
34.191000
  0
LINE
  8
1
  6
CONTINUOUS
 10
283.954000
 20
35.117000
 11
283.954000
 21
34.172000
  0
LINE
  8
1
  6
CONTINUOUS
 10
288.954000
 20
35.117000
 11
288.954000
 21
34.172000
  0
TEXT
  8
1
  6
CONTINUOUS
 40
0.075000
 10
286.492000
 20
35.377000
  1
0.30
 50
90.000000
  7
ROMANC
  0
LINE
  8
1
  6
CONTINUOUS
 10
286.454000
 20
35.263000
 11
286.454000
 21
35.155000
  0
LINE
  8
1
  6
CONTINUOUS
 10
286.454000
 20
34.705000
 11
286.454000
 21
34.855000
  0
LINE
  8
1
  6
CONTINUOUS
 10
286.473000
 20
35.118000
 11
286.435000
 21
35.192000
  0
LINE
  8
1
  6
CONTINUOUS
 10
286.435000
 20
34.892000
 11
286.473000
 21
34.818000
  0
LINE
  8
1
  6
CONTINUOUS
 10
285.192000
 20
35.155000
 11
286.492000
 21
35.155000
  0
POINT
  8
1
  6
CONTINUOUS
 10
286.492000
 20
34.855000
  0
TEXT
  8
1
  6
CONTINUOUS
 40
0.075000
 10
289.998000
 20
35.988000
  1
2.54
 50
90.000000
  7
ROMANC
  0
LINE
  8
1
  6
CONTINUOUS
 10
289.961000
 20
35.950000
 11
289.961000
 21
34.855000
  0
LINE
  8
1
  6
CONTINUOUS
 10
289.961000
 20
36.299000
 11
289.961000
 21
37.395000
  0
LINE
  8
1
  6
CONTINUOUS
 10
289.980000
 20
34.818000
 11
289.942000
 21
34.892000
  0
LINE
  8
1
  6
CONTINUOUS
 10
289.942000
 20
37.432000
 11
289.980000
 21
37.358000
  0
LINE
  8
1
  6
CONTINUOUS
 10
286.492000
 20
34.855000
 11
289.999000
 21
34.855000
  0
LINE
  8
1
  6
CONTINUOUS
 10
286.492000
 20
37.395000
 11
289.999000
 21
37.395000
  0
TEXT
  8
1
  6
CONTINUOUS
 40
0.075000
 10
284.417000
 20
35.568000
  1
1.20
  7
ROMANC
  0
LINE
  8
1
  6
CONTINUOUS
 10
284.379000
 20
35.605000
 11
283.954000
 21
35.605000
  0
LINE
  8
1
  6
CONTINUOUS
 10
284.728000
 20
35.605000
 11
285.154000
 21
35.605000
  0
LINE
  8
1
  6
CONTINUOUS
 10
283.916000
 20
35.586000
 11
283.992000
 21
35.624000
  0
LINE
  8
1
  6
CONTINUOUS
 10
285.192000
 20
35.624000
 11
285.116000
 21
35.586000
  0
LINE
  8
1
  6
CONTINUOUS
 10
283.954000
 20
35.193000
 11
283.954000
 21
35.643000
  0
LINE
  8
1
  6
CONTINUOUS
 10
285.154000
 20
35.193000
 11
285.154000
 21
35.643000
  0
ENDSEC
  0
EOF
